Oops, an error
Loading. Please wait.

Animals Bass Tab

14,948 views 18 this week
5 commentsread comments
1 2 3 4 5
excellent!
x 6
Autoscroll
+/-
esc
set tempo
stop
Contributor
Hey! There's an official Ultimate Guitar app which is ideal
for learning songs when you're away from computer. Get the app
WARNING: You are trying to view
                                    content from Ultimate-Guitar.com
                                    in an unauthorized application,
                                    which is prohibited.

                                    Please use an official Ultimate
                                    Guitar Tabs application for iPhone,
                                    iPad or Android to access legitimate
                                    chords, guitar, bass, and drum tabs
                                    from Ultimate-Guitar.com database.

                                    Type "ultimate guitar tabs" in Apple
                                    App Store's or Android Market's
                                    search to find the application.
-------------------------------------------------------------------------------
			     ANIMALS - PINK FLOYD
-------------------------------------------------------------------------------

Tabbed By : R8:31b
e-mail:

Tuning: See Specific Song

Note: Theres is NO Bass For Pigs On The Wing (Parts One or Two)


<::  DOGS  ::>

Tuning: Standard

|-----------------------------------------------------------------------------~|
|-----------------------------------------------------------------------------~|
|-5-5-x-5-5-x-5-5-x-5-5-x-1-1-x-1-1-x-1-1-x-1-1-x-0-0-x-0-0-x-0-0-x-0-0-x-----~|
|-----------------------------------------------------------------------x-4-4-~|


~---------------------|   Untill Change (3:40---|
~-----------------------------------------------|   Some Variations and differences.
~-----------------------------------------------|
~-x-4-4-x-4-4-x-4-4-----------------------------|

3:40

||-------------------------------------------------------|| x2
||*-----------------------------------------------------*||
||*-5/3----3----3----3----3----3/5----5----5----5----5--*||
||-------------------------------------------------------||

|---------------------------------||------10------10---------8-------8-----||
|---------------------------------||*-------------------------------------*||
|-5-3-1—1—1---1---1-1---1---3—-5--||*-8-------8----------6-------6--------*||
|---------------------------------||---------------------------------------||

|-----------------------------------------------------------|
|-----------------------------------------------------------|
|-5---5---5---5---5---5---1---1---1---1---0---0---0---0---0-|
|-----------------------------------------------------------|

5:30

||----------7----5--| x8   |-777--------------------------------2--2------||
||-------7----------|      |----------------------------------2---2-------||
||---5--------------|      |-------1---3-----1---3-----5---0----0---------||
||------------------|      |----------------------------------------------||

|____________________________Play Through TWICE ___________________________|

Verse

(And When You Loose Control...)


|----------7----5--|  x7   |---------------------------------------|
|-------7----------|       |---------------------------------------|
|---5--------------|       |-5555-5----3----1----0--------5—-5-----|
|------------------|       |--------------------------3------------|


|_______________________Play Through TWICE ______________________|


Synth Section (Optional)

|---------------------------------------------------------------|
|---------------------------------------------------------------|
|-5---5---5---5---1---1---1---1---0---0---0---0-----------------|
|-------------------------------------------------4---4---4---4-|

  Untill End Of Section

Verse

 (Gotta Admit…)

|-----------------------------------------------------------------------------~|
|-----------------------------------------------------------------------------~|
|-5-5-x-5-5-x-5-5-x-5-5-x-1-1-x-1-1-x-1-1-x-1-1-x-0-0-x-0-0-x-0-0-x-0-0-x-----~|
|-------------------------------------------------------------------------4-4-~|


~---------------------|
~---------------------|
~---------------------|
~-x-4-4-x-4-4-x-4-4---|


||-------------------------------------------------------|| x2
||*-----------------------------------------------------*||
||*-5/3----3----3----3----3----3/5----5----5----5----5--*||
||-------------------------------------------------------||

|---------------------------------||------10------10---------8-------8-----||
|---------------------------------||*-------------------------------------*||
|-5-3-1—1—1---1---1-1---1---3—-5--||*-8-------8----------6-------6--------*||
|---------------------------------||---------------------------------------||

|-----------------------------------------------------------|
|-----------------------------------------------------------|
|-5---5---5---5---5---5---1---1---1---1---0---0---0---0---0-|
|-----------------------------------------------------------|


Final Verse

|---------------------|   |-------------------------------------------------------|
|---------------------|   |-------------------------------------------------------|
|--8----3------5---3--|   |--8----3-----1---1----1—-1---1---0---0---8-—-3--3-2----|
|---------------------|   |---------------------------------------------------0---|

|__Play Untill Change_|




<::  PIGS(THREE DIFFERENT ONES) ::>

h hammer on
p pull off
/ slide up
 slide down
~ let ring

Tuning: Standard

opening bass solo
G|-16p14h16----------------16p14h16--------14-12-11h12p1197/9--------|
D|-------------------------------------------------------------------|
A|-------------------------------------------------------------------|
E|-------------------------------------------------------------------|

G|-////16----19p16---17----16-14-12h14p12-11h12p11-7--------11-----------|
D|-------------------------------------------------------------12----10--|
A|----------------------------------------------------------------10-----|
E|-----------------------------------------------------------------------|

G|-------12-12-12/14-11----------------11-11-12----|
D|----------------------12-14----------------------|
A|-7~~~~-------------------------7~~~~-------------|
E|-------------------------------------------------|

G|--------------------------------------|
D|--------------------------------------|
A|-7~~~~~~~~---------7~~~~~~~~----------|
E|----------8~~~~~~~~---------8~~~~~~~~-|


verse (see notes)
G|-------------------------------------------------------------|
D|-------------------------------------------------------------|
A|--7-5-7----777-5-7--5----------------------------------------|
E|-----------------------7-8---7-8---7878----3--0-3--0-3-0-3-2-|

G|-------------------------------------------------------------|
D|-------5--------5--------------5-----------------------------|
A|-7---7---5---7----5---5-7--7-5---5--5-7-7-5-7---5-7-7-5-7--5-|
E|-------------------------------------------------------------|

G|----------------------------------------------------------------|
D|-----------------------------------------------------5------5---|
A|-----------------------------------------------5-7-5---5--7---5-|
E|-7-8--7-8---7-8-7-8-7---0-3--0-3--0-3--0-3-0--------------------|

G|----------------------------------------|
D|----------------------------------------|
A|----------------------------------------|
E|-7-8---7-8---7878----3--0-3--0-3-0-3234-|

G|----------------|   |--------11----------|
D|----------------|   |-----------12---10--|
A|----------------|   |--------------10----|
E|-555--5--35--34-|x8 |-3///15-------------|


bridge
G|---------------|
D|---------------|
A|---------------|
E|-10\--000------|x4


verse again


bridge


1st guitar solo (see notes)                                 _
G|------------------------------------------------|          |
D|------------------------------------------------|          |
A|------------------------------------------------|          |
E|-0-00--0-00--0-00--0-00--8-88--8-88--8-88--8-88-|          |
                                                             |- all x3
G|-------------------------------------------------------|   |
D|-------------------------------------------------------|   |
A|-------------------------------------------------------|   |
E|-0-00--0-00--0-00--0-00--8-88--8-88--8-88--8-777777777-|  _|


2nd bass solo
G|-16p14h16----------------16p14h16--------14p12h14--------12p11h12--|
D|-------------------------------------------------------------------|
A|-------------------------------------------------------------------|
E|-------------------------------------------------------------------|

G|-11p9h11----9p7h9------------5--------/////16----19p16---17--------|
D|------------------9------------------------------------------------|
A|--------------------7----------------------------------------------|
E|-------------------------------------------------------------------|

G|-16-14-12h14p12-11h12p11-9----11----------|
D|---------------------------------12---10--|
A|------------------------------------10----|
E|------------------------------------------|

G|--------------------------------------|
D|--------------------------------------|
A|-7~~~~~~~~---------7~~~~~~~~----------|
E|----------8~~~~~~~~---------8~~~~~~~~-|


verse


bridge


2nd guitar solo (see notes)
G|---------------------------------------------|
D|---------------------------------------------|
A|-7-7-5-7--5-7-7-5-7-5----------------------5-|
E|-----------------------8-8--8-7-8--8-8-7-8---|x5

G|----9---10----12----14----16----14----12---11----5---7---9---11----12---11---9---7-|
D|-----------------------------------------------------------------------------------|
A|-7----9----10----12----14----12----10----9-----3---5---7---9----10----9----7---5---|
E|-----------------------------------------------------------------------------------|x4

G|---------------------------------------------|
D|---------------------------------------------|
A|-7-7-5-7--5-7-7-5-7-5----------------------5-|
E|-----------------------8-8--8-7-8--8-8-7-8---| fades out


notes:
verses/2nd guitar solo - there is a lot of improv and variation in the actual bass line,
what i've tabbed is meant to

give a an idea of the key pattern around which to play

1st guitar solo - on the third repatition of this, throw in lots of little fills on the
high end of the G and D strings



<::  SHEEP  ::>

Standard Tuning

G|-------------------------------------------------|
D|-------------------------------------------------|  x15
A|-5-5-5-5-5-5-5-5-5-5-5-5-5-5-5-5-5-5-5-5-5-5-5-5-|
E|-------------------------------------------------|

G|-------------------------------------------------|
D|-------------------------------------------------|
A|-5-5-5-5-5-5-5-5-5-5-5-5-5-5-5-5-5-5/8-8-8-8\----|
E|-------------------------------------------------|

G|-------------------------------------------------|
D|-------------------------------------------------|
A|-0-0-0-0-0-0-0-0-0-0-0-0-0-0-0-0-0-0-0-0-0-0-0-0-|
E|-------------------------------------------------|

G|-------------------------------------------------|
D|-------------------------------------------------|
A|-0-0-0-0-0-0-0-0-0-0-0-0-0-0-0-0-0-0-3-3-3-3-3-3-|
E|-------------------------------------------------|

G|-------------------------------------------------|
D|-------------------------------------------------|  x2
A|-2-2-2-2-2-2-2-2-2-2-2-2-2-2-2-2-2-2-2-2-2-2-2-2-|
E|-------------------------------------------------|

G|-------------------------------------------------|
D|-------------------------------------------------|
A|-0-0-0-0-0-0-0-0-0-0-0---0-0-0-0-0-0-0-0-0-0-0---|
E|-----------------------3-----------------------3-|

G|-------------------------------------------------|
D|------------------------------------/7-7-7-7-7-7-|
A|-0-0-0-0-0-0-0-0-0-0-0-0-0-0-0-0-0-0-0-0-0-0-0-0-|
E|-------------------------------------------------|

(1st Verse)
G|-----------------|-----------------|-----------------|-----------------|
D|-----------------|-----------------|-----------------|-----------------|
A|-7-7---x-7-7---x-|-7-7---x-7-7---x-|-7-7---x-7-7---x-|-7-7---x-7-7---x-|
E|-----------------|-----------------|-----------------|-----------------|

G|-----------------|-----------------|-----------------|-----------------|
D|-----------------|-----------------|-----------------|-----------------|
A|-0-0---x-0-0---x-|-0-0---x-0-0---x-|-0-0---x-0-0---x-|-0-0---x-0-0---x-|
E|-----------------|-----------------|-----------------|-----------------|

G|-----------------|-----------------|-----------------|-----------------|
D|-----------------|-----------------|-----------------|-----------------|
A|-7-7---x-7-7---5-|-7-7---x-7-7---5-|-7-7---x-7-7---5-|-7-7---x-7-7---x-|
E|-----------------|-----------------|-----------------|-----------------|

G|-----------------|-----------------|-----------------|-----------------|
D|-----------------|-----------------|-----------------|-----------------|
A|-7-7---x-7-7---x-|-7-7---x-7-7---x-|-7-7---x-7-7---x-|-7-7---x-7-7---x-|
E|-----------------|-----------------|-----------------|-----------------|

G|-----------------|-----------------|-----------------|-----------------|
D|-----------------|-----------------|-----------------|-----------------|
A|-0-0---x-0-0---x-|-0-0---x-0-0---x-|-0-0---x-0-0---x-|-0-0---x-0-0---x-|
E|-----------------|-----------------|-----------------|-----------------|

G|-----------------|-----------------|-----------------|-----------------|
D|-----------------|-----------------|-----------------|-----------------|
A|-7-7---x-7-7---5-|-7-7---x-7-7---5-|-7-7---x-7-7---5-|-7-7---x-7-7-7\--|
E|-----------------|-----------------|-----------------|-----------------|

G|-----------------|-----------------|-----------------|-----------------|
D|-----------------|-----------------|-----------------|-----------------|
A|-----------------|-----------------|-0-0---x-0-0---x-|0-0---x-0-0-x-x-x|
E|-2-2---x-2-2---x-|-2-2---x-2-2---x-|-----------------|-----------------|

G|-----------------|-----------------|-----------------|-----------------|
D|-----------------|-----------------|-----------------|-----------------|
A|-----------------|-----------------|-0-0---x-0-0---x-|-0-0---x-0-0-12\-|
E|-2-2---x-2-2---x-|-2-2---x-2-2---x-|-----------------|-----------------|

 |-----------------|-----------------|-----------------|-----------------|
 |-----------------|-----------------|-----------------|-----------------|
 |-7-7---x-7-7---5-|-7-7---x-7-7---5-|-7-7---x-7-7---5-|-7-7---x-7-7---x-|
 |-----------------|-----------------|-----------------|-----------------|


(2nd Verse)
G|-----------------|-----------------|-----------------|-----------------|
D|-----------------|-----------------|-----------------|-----------------|
A|-7-7---x-7-7---x-|-7-7---x-7-7---x-|-7-7---x-7-7---x-|-7-7---x-7-7---x-|
E|-----------------|-----------------|-----------------|-----------------|

G|-----------------|-----------------|-----------------|-----------------|
D|-----------------|-----------------|-----------------|-----------------|
A|-0-0---x-0-0---x-|-0-0---x-0-0---x-|-0-0---x-0-0---x-|-0-0---x-0-0---x-|
E|-----------------|-----------------|-----------------|-----------------|

G|-----------------|-----------------|-----------------|-----------------|
D|-----------------|-----------------|-----------------|-----------------|
A|-7-7---x-7-7---5-|-7-7---x-7-7---5-|-7-7---x-7-7---5-|-7-7---x-7-7---x-|
E|-----------------|-----------------|-----------------|-----------------|

G|-----------------|-----------------|-----------------|-----------------|
D|-----------------|-----------------|-----------------|-----------------|
A|-7-7---x-7-7---x-|-7-7---x-7-7---x-|-7-7---x-7-7---x-|-7-7---x-7-7---x-|
E|-----------------|-----------------|-----------------|-----------------|

G|-----------------|-----------------|-----------------|-----------------|
D|-----------------|-----------------|-----------------|-----------------|
A|-0-0---x-0-0---x-|-0-0---x-0-0---x-|-0-0---x-0-0---x-|-0-0---x-0-0---x-|
E|-----------------|-----------------|-----------------|-----------------|

G|-----------------|-----------------|-----------------|-----------------|
D|-----------------|-----------------|-----------------|-----------------|
A|-7-7---x-7-7---5-|-7-7---x-7-7---5-|-7-7---x-7-7---5-|-7-7---x-7-7-7\--|
E|-----------------|-----------------|-----------------|-----------------|

G|-----------------|-----------------|-----------------|-----------------|
D|-----------------|-----------------|-----------------|-----------------|
A|-----------------|-----------------|-0-0---x-0-0---x-|0-0---x-0-0-x-x-x|
E|-2-2---x-2-2---x-|-2-2---x-2-2---x-|-----------------|-----------------|

G|-----------------|-----------------|-----------------|-----------------|
D|-----------------|-----------------|-----------------|-----------------|
A|-----------------|-----------------|-0-0---x-0-0---x-|-0-0---x-0-0-12\-|
E|-2-2---x-2-2---x-|-2-2---x-2-2---x-|-----------------|-----------------|

(Bridge)
G|---9-9---9-9---9-9---9-9-|---9-9---9-9---9-9---9-9-|
D|-------------------------|-------------------------|  x11
A|-7-----7-----7-----7-----|-7-----7-----7-----7-----|
E|-------------------------|-------------------------|

G|---9-9---9-9---9-9---9-9-|---9-9---9-9---9-9---9\--|
D|-------------------------|-------------------------|
A|-7-----7-----7-----7-----|-7-----7-----7-----7-----|
E|-------------------------|-------------------------|

G|-----------------|-----------------|-----------------|-------------------|
D|-----------------|-----------------|-----------------|-------------------|
A|-----------------|-----------------|-0-0---x-0-0---x-|-0-0---x-0-0-x-x-x-|
E|-2-2---x-2-2---x-|-2-2---x-2-2---x-|-----------------|-------------------|

G|-----------------|-----------------|-----------------|-------------------|
D|-----------------|-----------------|-----------------|------------/7-7-7-|
A|-----------------|-----------------|-0-0---x-0-0---x-|-0-0---x-0-0-0-0-0-|
E|-2-2---x-2-2---x-|-2-2---x-2-2---x-|-----------------|-------------------|

(Interlude)
G|-------------------------------------------------|
D|-------------------------------------------------|  x19
A|-5-5-5-5-5-5-5-5-5-5-5-5-5-5-5-5-5-5-5-5-5-5-5-5-|
E|-------------------------------------------------|

G|-------------------------------------------------|
D|-------------------------------------------------|
A|-5-5-5-5-5-5-5-5-5-5-5-5-5-5-5-5-5-5/8-8-8-8\----|
E|-------------------------------------------------|

G|-------------------------------------------------|
D|-------------------------------------------------|
A|-0-0-0-0-0-0-0-0-0-0-0-0-0-0-0-0-0-0-0-0-0-0-0-0-|
E|-------------------------------------------------|

G|-------------------------------------------------|
D|-------------------------------------------------|
A|-0-0-0-0-0-0-0-0-0-0-0-0-0-0-0-0-0-0-3-3-3-3-3-3-|
E|-------------------------------------------------|

G|-------------------------------------------------|
D|-------------------------------------------------|  x2
A|-2-2-2-2-2-2-2-2-2-2-2-2-2-2-2-2-2-2-2-2-2-2-2-2-|
E|-------------------------------------------------|

G|-------------------------------------------------|
D|-------------------------------------------------|
A|-0-0-0-0-0-0-0-0-0-0-0---0-0-0-0-0-0-0-0-0-0-0---|
E|-----------------------3-----------------------3-|

G|-------------------------------------------------|
D|------------------------------------/7-7-7-7-7-7-|
A|-0-0-0-0-0-0-0-0-0-0-0-0-0-0-0-0-0-0-0-0-0-0-0-0-|
E|-------------------------------------------------|


(3rd Verse)
G|-----------------|-----------------|-----------------|-----------------|
D|-----------------|-----------------|-----------------|-----------------|
A|-7-7---x-7-7---x-|-7-7---x-7-7---x-|-7-7---x-7-7---x-|-7-7---x-7-7---x-|
E|-----------------|-----------------|-----------------|-----------------|

G|-----------------|-----------------|-----------------|-----------------|
D|-----------------|-----------------|-----------------|-----------------|
A|-0-0---x-0-0---x-|-0-0---x-0-0---x-|-0-0---x-0-0---x-|-0-0---x-0-0---x-|
E|-----------------|-----------------|-----------------|-----------------|

G|-----------------|-----------------|-----------------|-----------------|
D|-----------------|-----------------|-----------------|-----------------|
A|-7-7---x-7-7---5-|-7-7---x-7-7---5-|-7-7---x-7-7---5-|-7-7---x-7-7---x-|
E|-----------------|-----------------|-----------------|-----------------|

G|-----------------|-----------------|-----------------|-----------------|
D|-----------------|-----------------|-----------------|-----------------|
A|-7-7---x-7-7---x-|-7-7---x-7-7---x-|-7-7---x-7-7---x-|-7-7---x-7-7---x-|
E|-----------------|-----------------|-----------------|-----------------|

G|-----------------|-----------------|-----------------|-----------------|
D|-----------------|-----------------|-----------------|-----------------|
A|-0-0---x-0-0---x-|-0-0---x-0-0---x-|-0-0---x-0-0---x-|-0-0---x-0-0---x-|
E|-----------------|-----------------|-----------------|-----------------|

G|-----------------|-----------------|-----------------|-----------------|
D|-----------------|-----------------|-----------------|-----------------|
A|-7-7---x-7-7---5-|-7-7---x-7-7---5-|-7-7---x-7-7---5-|-7-7---x-7-7-7\--|
E|-----------------|-----------------|-----------------|-----------------|

G|-----------------|-----------------|-----------------|-----------------|
D|-----------------|-----------------|-----------------|-----------------|
A|-----------------|-----------------|-0-0---x-0-0---x-|0-0---x-0-0-x-x-x|
E|-2-2---x-2-2---x-|-2-2---x-2-2---x-|-----------------|-----------------|

G|-----------------|-----------------|-----------------|-----------------|
D|-----------------|-----------------|-----------------|-----------------|
A|-----------------|-----------------|-0-0---x-0-0---x-|-0-0---x-0-0-12\-|
E|-2-2---x-2-2---x-|-2-2---x-2-2---x-|-----------------|-----------------|

G|----9-9----9--|----9-9----9--|----9-9----9--|----9-9----9--|
D|--------------|--------------|--------------|--------------|  x3
A|-7------7-----|-7------7-----|-7------7-----|-7------7-----|
E|--------------|--------------|-0------------|--------------|

G|----9-9----9--|----9-9----9--|--------------|--------------|
D|--------------|--------------|----7-7----7--|----7-7----7--|
A|-7------7-----|-7------7-----|-0------0-----|-0------0-----|
E|--------------|-0------------|--------------|--------------|

G|---------------------|---------------------|
D|-----7---------7-----|-----7---------7-----|
A|-0-7---7-0-0-7---7-0-|-0-7---7-0-0-7---7-0-|
E|---------------------|---------------------|

G|----9-9----9--|----9-9----9--|----9-9----9--|----9-9----9--|
D|--------------|--------------|--------------|--------------|  x3
A|-7------7-----|-7------7-----|-7------7-----|-7------7-----|
E|--------------|--------------|-0------------|--------------|

G|----9-9----9--|----9-9----9--|--------------|--------------|
D|--------------|--------------|----7-7----7--|----7-7----7--|
A|-7------7-----|-7------7-----|-0------0-----|-0------0-----|
E|--------------|-0------------|--------------|--------------|

G|---------------------|---------------------|
D|-----7---------7-----|-----7---------7-----|
A|-0-7---7-0-0-7---7-0-|-0-7---7-0-0-7---7-0-|
E|---------------------|---------------------|

G|----9-9----9--|----9-9----9--|----9-9----9--|----9-9----9--|
D|--------------|--------------|--------------|--------------|  x3
A|-7------7-----|-7------7-----|-7------7-----|-7------7-----|
E|--------------|--------------|-0------------|--------------|

G|----9-9----9--|----9-9----9--|--------------|--------------|
D|--------------|--------------|----7-7----7--|----7-7----7--|
A|-7------7-----|-7------7-----|-0------0-----|-0------0-----|
E|--------------|-0------------|--------------|--------------|

G|---------------------|---------------------|
D|-----7---------7-----|-----7---------7-----|
A|-0-7---7-0-0-7---7-0-|-0-7---7-0-0-7---7-0-|
E|---------------------|---------------------|

G|----9-9----9--|----9-9----9--|----9-9----9--|----9-9----9--|
D|--------------|--------------|--------------|--------------|  x3
A|-7------7-----|-7------7-----|-7------7-----|-7------7-----|
E|--------------|--------------|-0------------|--------------|

G|----9-9----9--|----9-9----9--|--------------|--------------|
D|--------------|--------------|----7-7----7--|----7-7----7--|
A|-7------7-----|-7------7-----|-0------0-----|-0------0-----|
E|--------------|-0------------|--------------|--------------|

G|---------------------|---------------------|
D|-----7---------7-----|-----7---------7-----|
A|-0-7---7-0-0-7---7-0-|-0-7---7-0-0-7---7-0-| Fades out
E|---------------------|---------------------|
comments
print report bad tab
5 comments total. Showing first comments. show 2 bad comments
+2 reply
R8:31b wrote on July 15 2008, 07:29 pm

Either your mentally challenged or just a huge prick but did you not see the notes at the end of the song? here let me remind you:
NOTES:
verses/2nd guitar solo - there is a lot of IMPROV and VARIATION in the actual bass line,
what i've tabbed is meant to GIVE AN IDEA OF THE KEY PATERN AROUND WHICH TO PLAY

1st guitar solo - on the third repatition of this, throw in lots of little fills on the
high end of the G and D strings

So before you start commenting on something you haven't fully studied and make yourself look like the biggest DickHead in the world, try actually READING (i know funny concept) what is meant to be read.

I want to post or [tab]
guest
You may want to rate the tab now too:
select rating
Please do not post tabs as comments. Select "correction" instead!