Oops, an error
Loading. Please wait.

Comfortably Numb Tab

ver3
25,937 views 36 this week
1 commentread comment
1 2 3 4 5
accurate
x 15
Autoscroll
+/-
esc
set tempo
stop
Contributor
Hey! There's an official Ultimate Guitar app which is ideal
for learning songs when you're away from computer. Get the app
WARNING: You are trying to view
                                    content from Ultimate-Guitar.com
                                    in an unauthorized application,
                                    which is prohibited.

                                    Please use an official Ultimate
                                    Guitar Tabs application for iPhone,
                                    iPad or Android to access legitimate
                                    chords, guitar, bass, and drum tabs
                                    from Ultimate-Guitar.com database.

                                    Type "ultimate guitar tabs" in Apple
                                    App Store's or Android Market's
                                    search to find the application.
Transcribed by www.mikesguitarsite.co.uk

Words & Music by Dave Gilmour & Roger Waters

Bm       x 2 4 4 3 2
A        x 0 2 2 2 0
G        3 2 0 0 3 3
Em       0 2 2 0 0 0

D/F#     2 x 0 2 3 x
C        x 3 2 0 1 0
Asus4    x 0 2 2 3 0
Asus2    x 0 2 2 0 0

G/B      x 2 0 0 3 3
Cadd9    x 3 2 0 3 0
D        x x 0 2 3 2



Gtr I (E A D G B E) - 'Dave Gilmour - Clean electric
- with volume pedal, slide and ping pong echo c.715ms'

Gtr II (E A D G B E) - 'String Section arr. for gtr'

Gtr III (E A D G B E) - 'Dave Gilmour - High Strung Acoustic Guitar'
High Strung Acoustic - low E string replaced with high E string 
(therefore tuned 2 octaves higher than standard)  A, D, G strings 
replaced with thin strings tuned one octave higher than standard

Gtr IV (E A D G B E) - 'Dave Gilmour - Lead - Dist electric'
Gtr V (E A D G B E) - 'Dave Gilmour - Rhythm - Dist Electric'



Intro                         Verse 1
  Q=65
 4/4
  Gtr I
  H    Q  E. S   +H     H       Q  a Q  H
|--------------|-------------||-7s=5---------|
|------------4-|-(4)s===7----||--------------|
|------------4-|-(4)s===7----||--------------|
|--------------|-------------||--------------|
|--------------|-------------||--------------|
|--------------|-------------||--------------|
|
| Gtr II
| W               W             W
|-2------------|--2----------||-2------------|
|-3------------|--3----------||-3------------|
|-4------------|--4----------||-4------------|
|-4------------|--4----------||-4------------|
|-2------------|--2----------||-2------------|
|--------------|-------------||--------------|
                              |-Rhy Fig A

  Q  a Q  H      Q  a Q   H      Q  a Q  H
|-9s=7---------|-7s=5----------|-7s=5---------|
|--------------|---------------|-7s=5---------|
|--------------|---------------|--------------|
|--------------|---------------|--------------|
|--------------|---------------|--------------|
|--------------|---------------|--------------|
|
| W              Q.     E H      W
|-0------------|-3--------0----|-2------------|
|-2------------|-3--------0----|-3------------|
|-2------------|-0--------0----|-4------------|
|-2------------|-0--------2----|-4------------|
|-0------------|-2--------2----|-2------------|
|--------------|-3------2-0----|--------------|
                                end Rhy Fig A-|

w/Rhy Fig A
    Q  a Q  H      Q  a Q  H      Q  a Q   H      Q  a Q  H
||--7s=5---------|-9s=7---------|-7s=5----------|-7s=5----------||
||o-7s=5---------|--------------|---------------|-7s=5---------o||
||---------------|--------------|---------------|---------------||
||---------------|--------------|---------------|---------------||
||o--------------|--------------|---------------|--------------o||
||---------------|--------------|---------------|---------------||



 Bridge
  $
  Gtr III
|-Rhy Fig 1 (Rhythm Slashes)
  D
  E.     S S S S S E   S S E   S S
  |      | | | | | |   | | |   | |
  /      / / / / / /   / / /   / /

  Gtr II
  S  S S S S S S S S S S S S S S S
|-5--------5-------5-------5-------|
|----7p5-----7p5-----7p5-----7p5---|
|--------7-------7-------7-------7-|
|----------------------------------|
|----------------------------------|
|----------------------------------|
|-Orch Fig 1

  A                                 D
  E   S S S S S S E   S S S S S S   E   S S S S S S E   S S S S S S
  |   | | | | | | |   | | | | | |   |   | | | | | | |   | | | | | |
  /   / / / / / / /   / / / / / /   /   / / / / / / /   / / / / / /

  S S S S S S S S S S S S S S S S   S S S S S S S S S S S S S S S S
|-5-------5-------5-------5-------|-5-------5-------5-------5-------|
|---5-------5-------5-------5-----|---7p5-----7p5-----7p5-----7p5---|
|-----7p6-----7p6-----7p6-----7p6-|-------7-------7-------7-------7-|
|---------------------------------|---------------------------------|
|---------------------------------|---------------------------------|
|---------------------------------|---------------------------------|


  A                         G/B
  Q       E   S S E   S S S S S S
  |       |   | | |   | | | | | |
  /       /   / / /   / / / / / /

  S S S S S S S S S S S S S S S S
|-0-------0-------0-------0-------|
|---2p0-----2p0-----2p0-----2p0---|
|-------2-------2-------2-------2-|
|---------------------------------|
|---------------------------------|
|---------------------------------|


  C                                 G                         G/B
  Q       E   S S E   S S E   S S   E   S S S S S S S S S S S S S S
  |       |   | | |   | | |   | |   |   | | | | | | | | | | | | | |
  /       /   / / /   / / /   / /   /   / / / / / / / / / / / / / /

  S S S S S S S S S S S S S S S S   S S S S S S S S S S S S S S S S
|-3-------3-------3-------3-------|-3-------3-------3-------------3-|
|---5p3-----5p3-----5p3-----5p3---|---3-------3-------3---------3---|
|-------5-------5-------5-------5-|-----5p4-----5p4-----5p4---4-----|
|---------------------------------|-------------------------5-------|
|---------------------------------|---------------------------------|
|---------------------------------|---------------------------------|


  C                                 G                 end Orch Fig 1-|
  E   S S E   S S E   S S E   S S   E   S S S S S S E   S S S S S S
  |   | | |   | | |   | | |   | |   |   | | | | | | |   | | | | | |
  /   / / /   / / /   / / /   / /   /   / / / / / / /   / / / / / /

  S S S S S S S S S S S S S S S S   S S S S S S S S S S S S S S S S
|-3-------3-------3-------3-------|-3-------3-------3---------------|
|---5p3-----5p3-----5p3-----5p3---|---3-------3-------3---------3-5-|
|-------5-------5-------5-------5-|-----5p4-----5p4-----5p4---4-----|
|---------------------------------|-------------------------5-------|
|---------------------------------|---------------------------------|
|---------------------------------|---------------------------------|
                                                      end Rhy Fig 1-|

w/Orch Fig 1
  D
  E   E   E   S S E   S S E   S S
  |   |   |   | | |   | | |   | |
  /   /   /   / / /   / / /   / /
|---------------------------------|


  A                                 D
  E   S S S S S S S S S S S S S S   E   E   E   S S S S S S E   S S
  |   | | | | | | | | | | | | | |   |   |   |   | | | | | | |   | |
  /   / / / / / / / / / / / / / /   /   /   /   / / / / / / /   / /
|---------------------------------|---------------------------------|


  A                         G/B
  E   S S S S S S E   S S S E.
  |   | | | | | | |   | | | |
  /   / / / / / / /   / / / /
|---------------------------------|


  C                                 G
  E   S S E   S S E   S S S S S S   E   S S E   S S E   S S E   S S
  |   | | |   | | |   | | | | | |   |   | | |   | | |   | | |   | |
  /   / / /   / / /   / / / / / /   /   / / /   / / /   / / /   / /
|---------------------------------|---------------------------------|


  C                                 G
  E   S S S S S S E   S S E   S S   E   E   E   S S E.     S E   S S
  |   | | | | | | |   | | |   | |   |   |   |   | | |      | |   | |
  /   / / / / / / /   / / /   / /   /   /   /   / / /      / /   / /
|---------------------------------|----------------------------------||


 Chorus

|-Rhy Fig 2
  AsusAsus2 A       G/B  Cadd9       G           To Coda
  E E E S S E S S S E.   E S S E S S E S S E S S
  | | | | | | | | | |    | | | | | | | | | | | |
  / / / / / / / / / /    / / / / / / / / / / / /
|----------------------|-------------------------|


                                          Bridge - Guitar Solo
  Gtr III
  D                      end Rhy Fig 2-|
  E S S S S S S S S S S S  S S  S        |-w/Rhy Fig 1
  | | | | | | | | | | | |  | |  |
  / / / / / / / / / / / /  / /  / 

  Gtr IV
                                                   ~~~~~~~~~~~~~~
                                |--3--|
  H             Q       E.      T  T  T     Q     +Q         +E  S  S      +S   +E     S
|------------------------------------10-||-14----(14)-------(14)-x-14b15==(14)r(14)----------|
|---------------------------------10----||--------------------------------------------15b17==|
|------------------------------11-------||---------------------------------------------------|
|---------------------------------------||---------------------------------------------------|
|---------------------------------------||---------------------------------------------------|
|---------------------------------------||---------------------------------------------------|



    ~~~~~~~~~~~~~                        ~~
             |-------3-------|
   +Q       +S   +S     e    e    S.  T  E    +E.      S
|--------------------------------------------------------|
|-(15)-----(15)r(15)---15---14---14----------------------|
|------------------------------------14------------------|
|---------------------------------------14---(14)s====12-|
|--------------------------------------------------------|
|--------------------------------------------------------|



   ~~~~~~~~~~~~~~~~~~~
                           |--3--|  |-------3--------|
   H              +E   S   T  T  T  E        +E     +E
|-------------------------------10-14b15====(14)r==(14)---|
|---------------------(0)----10---------------------------|
|-------------------------11------------------------------|
|-12-------------(12)-------------------------------------|
|---------------------------------------------------------|
|---------------------------------------------------------|


            |----3----|    |---3---|    |-----3-----|
   Q       +E    E    E    E  E    E    E    a E    E
|-------------------------------------------------------|
|-15b17===(15)r-15p==14---------------------------------|
|-------------------------14----------------------------|
|----------------------------14s==12---11---11s9--------|
|--------------------------------------------------12---|
|-------------------------------------------------------|


           ~~~~~~~~~~~~           ~~
                    |---3----|
   a  Q   +Q       +E   E    E    E S  T T
|-----------------------------------------|
|-----------------------------------------|
|-9s12--(12)-----(12)-11-------------11s9-|
|--------------------------14---12--------|
|-----------------------------------------|
|-----------------------------------------|


  ~~~~~~~ ~~~~~~~~~~~~
  E +S  S Q       +E    T T T T S  S      S  S
|----------------------------------------------|
|----------------------------------------------|
|-9-(9)s7-7-------(7)---9p7---7-9-11b11.5---11-|
|---------------------------9------------------|
|----------------------------------------------|
|----------------------------------------------|


                                                           ~~             ~~~~~~~~~~
                       |-3--|  |---3---|    |---3---|
   +Q           +E   S T T  T  E  E    E    E  E    E      Q      E   E   Q     +S   T T E
|--------------------------14-15p14---12----------------|------------------------------------||
|------------------------x-----------------15p12--------|------------------------------------||
|-(11)b12======(11)r---x---------------------------12---|------------------------------------||
|--------------------x----------------------------------|-12-----10s==9---9-----(9)-10p9s7---||
|-------------------------------------------------------|------------------------------------||
|-------------------------------------------------------|------------------------------------||


 Chorus
w/Rhy Fig 2
   ~~~                         ~~~
                                                                    |---3----|
  +H          Q     S E.      +Q      +S   E      +T     +T  Q     +E  a E   E
|---------------------------|----------------------------------------------------|
|---------------------------|----------------------------------------------------|
|---------------------9b12==|=(9)-----(9)r-9b11r==(9)b11r(9)p7-----(7)-----------|
|-(7)-----------------------|------------------------------------------7s9s==7---|
|---------------------------|----------------------------------------------------|
|---------------------------|----------------------------------------------------|


  ~~~~~~~~~~~~~~~~~~
  H             +Q.           +E
|--------------------------------------||
|--------------------------------------||
|--------------------------------------||
|-7-------------(7)-----------(7)\-----||
|--------------------------------------||
|--------------------------------------||


 Verse 2
  Gtr III
|-Rhy Fig 3
  Bm                              A
  S E S S S S S S S S S S S S S   E S S S S S S S S S S S S S S
  | | | | | | | | | | | | | | |   | | | | | | | | | | | | | | |
  / / / / / / / / / / / / / / /   / / / / / / / / / / / / / / /
|-------------------------------|-------------------------------|


  G            D/F# Em
  S S S S +S S S +S S S S S +S S S S
  | | | |  | | |  | | | | |  | | | |
  / / / /  / / /  / / / / /  / / / /
|--------------------------------------|


  Bm            end Rhy Fig 3-|
  E S S E S S S S S S +S S S S
  | | | | | | | | | |  | | | |
  / / / / / / / / / /  / / / /
|------------------------------|


                              A
  E E S S S S E S S S S S S   S S S S S S E E S S +S S S S
  | | | | | | | | | | | | |   | | | | | | | | | |  | | | |
  / / / / / / / / / / / / /   / / / / / / / / / /  / / / /
|---------------------------|------------------------------|



  G          F#Em               Bm
  E S S +S S E S S S S +S S E   E S S +S S S S +S S S S +S S e
  | | |  | | | | | | |  | | |   | | |  | | | |  | | | |  | | |
  / / /  / / o / / / /  / / /   / / /  / / / /  / / / /  / / /   D.S. al Coda
|-----------------------------|--------------------------------||


  &
  D
  Gtr III
  E S S S S S S S S S S S S S S    E S S S S S S S S S S  S  S S S
  | | | | | | | | | | | | | | |    | | | | | | | | | | |  |  | | |
  / / / / / / / / / / / / / / /    / / / / / / / / / / /  /  / / /

  Gtr IV
                                                          ~~~
  W                                H             Q        E.     S
|-------------------------------|----------------------------------||
|-------------------------------|----------------------------------||
|-------------------------------|------------------------[7]-----9-||
|-------------------------------|----------------------------------||
|-------------------------------|----------------------------------||
|-------------------------------|----------------------------------||
|
| Gtr V
| W                                W
|-------------------------------|----------------------------------||
|-------------------------------|----------------------------------||
|-------------------------------|----------------------------------||
|-------------------------------|----------------------------------||
|-------------------------------|-12-------------------------------||
|-------------------------------|-10-------------------------------||


 Outro - Guitar Solo
 w/Rhy Fig 3 to fade

                 ~~~~~~~~~~
  Q.            +E    +E.      S     +E    +T  T T T
|-----------------------------------------------------|
|-----------------------------------------------------|
|-9b11==========(9)---(9)r-----9b11==(9)r==(9)p7---7--|
|------------------------------------------------9----|
|-----------------------------------------------------|
|-----------------------------------------------------|
|
| W
|-----------------------------------------------------|
|-----------------------------------------------------|
|-----------------------------------------------------|
|-----------------------------------------------------|
|-9---------------------------------------------------|
|-7---------------------------------------------------|



  Gtr IV
    ~                                            ~~~
                                         |---3---|
  S E   T T +S  S     E   Q         E    S  S    S
|--------------------------------------------------|
|---------------------------------------10------10-|
|-9-9---7-------7b7.5-------------/11------11------|
|---------9-(9)------------------------------------|
|--------------------------------------------------|
|--------------------------------------------------|
|
| Gtr V
| W
|--------------------------------------------------|
|--------------------------------------------------|
|--------------------------------------------------|
|--------------------------------------------------|
|-7------------------------------------------------|
|-5------------------------------------------------|



 ~~~~~~
                     |-----3------|                 |---3---|
   +E     S  S      +Q       +S   S  S  s      E    E   e   e
|--------------------------------------10b10.5--------------------|
|-(10)---12-12b15==(12)r====(12)p10-12----------------------------|
|-------------------------------------------------------7---9-----|
|-----------------------------------------------------------------|
|-----------------------------------------------------------------|
|-----------------------------------------------------------------|
|
|   Q.                    E          H
|-----------------------------------------------------------------|
|-----------------------------------------------------------------|
|-----------------------------------------------------------------|
|-----------------------------------------------------------------|
|---5--------------------------------2----------------------------|
|---3---------------------2----------0----------------------------|



                  ~~~~~~~~
                                       |--3---| |--3--|
  T     +T  +T  T E   +H               S S    S S S   S
|-----------------------------------------------------------|
|-------------------------------------10p7------7-----------|
|-9b11==(9)r(9)p7-----------------------------9---9p==7b7.5-|
|-----------------9---(9)-----------------------------------|
|-----------------------------------------------------------|
|-----------------------------------------------------------|
|
| H.                                   S    S   S   S
|-----------------------------------------------------------|
|-----------------------------------------------------------|
|-----------------------------------------------------------|
|-----------------------------------------------------------|
|-9------------------------------------9---12-------9-------|
|-7------------------------------------7---10-------7-------|


  ~                         ~
  H             +E      S S E   s S
|------------------------------------|
|------------------------------------|
|---------------------------------7--|
|-9-------------(9)\------7-7---9----|
|----------------------/9------------|
|------------------------------------|
|
| W
|------------------------------------|
|------------------------------------|
|------------------------------------|
|------------------------------------|
|-9----------------------------------|
|-7----------------------------------|



                                                                       ~~~~~
                                                                                     |--3--|
  +E  T T S +H           +E    a S S   Q        +E     T  T T  T      +Q.            S S   S
|--------------------------------7-9-|-9b10=====(9)r---7----7--------------------------------|
|------------------------------7-----|-------------------10---10b12==(10)r----------10p7-----|
|-(7)--------------------------------|-----------------------------------------------------9-|
|-----9-7-9-(9)----------(9)---------|-------------------------------------------------------|
|------------------------------------|-------------------------------------------------------|
|------------------------------------|-------------------------------------------------------|
|
|  W                                   Q.              E               H
|------------------------------------|-------------------------------------------------------|
|------------------------------------|-------------------------------------------------------|
|------------------------------------|-------------------------------------------------------|
|------------------------------------|-------------------------------------------------------|
|--7---------------------------------|-5-------------------------------2---------------------|
|--5---------------------------------|-3---------------2---------------0---------------------|



                                                          ~~
  |--3---|  |--3--| |----3-----| |--3--| |--3--| |--3--|
  S    S S  S S   S T    +T  S S S S   S S S   S S S   S  Q
|--------7-----------------------------------------------------------|
|------7---10p7------------------------------------------------------|
|-9b11------------9-9b11r(9)p7---9-7---------------------------------|
|------------------------------9-------9-7---------------------------|
|------------------------------------------9---8-7s5------5----------|
|------------------------------------------------------7-------------|
|
| W
|--------------------------------------------------------------------|
|--------------------------------------------------------------------|
|--------------------------------------------------------------------|
|--------------------------------------------------------------------|
|-9------------------------------------------------------------------|
|-7------------------------------------------------------------------|



       ~~~~~~~~
                              |---3---|
  S  S E   +Q        S S     +S   S   S  T T S T     +T  T T
|-------------------------------------7----------------------|
|---------------------------------7-----10p7-----------------|
|-7--7-7---(7)-------x-9b11==(9)r------------9-9pb11r(9)p7---|
|----------------------------------------------------------9-|
|------------------------------------------------------------|
|------------------------------------------------------------|
|
| H.                                     S   S E
|------------------------------------------------------------|
|------------------------------------------------------------|
|------------------------------------------------------------|
|------------------------------------------------------------|
|-9--------------------------------------9---9-9-------------|
|-7--------------------------------------7---7-7-------------|



                            ~               ~
  s s     T T S a S S T T S E   S S a S S S S
|----------------------------------------------|
|----------------------------------------------|
|-9-7b7.5--------------------------------------|
|---------9p7---------------------------7-7-7--|
|-------------9-9s7-5-7p5---5---7---7s9--------|
|-------------------------7--------------------|
|
| W
|----------------------------------------------|
|----------------------------------------------|
|----------------------------------------------|
|----------------------------------------------|
|-7--------------------------------------------|
|-5--------------------------------------------|



   ~~~                                     ~~
  +E    T T S      S S S    S S  S S    S  E   S S
|-----------------------------7--------------------|
|---------------------------7---10------7----------|
|-----------7b7.5----7-9b11--------9b11----7---9p0-|
|-(7)---9p7--------9-------------------------------|
|--------------------------------------------------|
|--------------------------------------------------|
|
|  Q.                  E      H
|--------------------------------------------------|
|--------------------------------------------------|
|--------------------------------------------------|
|--------------------------------------------------|
|--5--------------------------2--------------------|
|--3-------------------2------0--------------------|



  |--3---|  |--3--| |----3-----| |----3----| |--3--| |--3--|
  S    S S  S S   S T    +T  S S S S       S S S   S S S   S  T S.   E
|--------7---------------------------------------------------------------|
|------7---10p7------------------------------------------------------7---|
|-9b11------------9-9b11r(9)p7---9-7b7.5-----------------------------7---|
|------------------------------9-----------9-7-----------------------7---|
|----------------------------------------------9---8-7-5------5p0--------|
|----------------------------------------------------------7-------------|
|
| E.            S   Q                        H
|------------------------------------------------------------------------|
|------------------------------------------------------------------------|
|------------------------------------------------------------------------|
|------------------------------------------------------------------------|
|-9-------------9---9------------------------9---------------------------|
|-7-------------7---7------------------------7---------------------------|



  ~~~~~~~~~~~~~~~~~~~~~~~~~~~
  H.                     +S  T T S.   +T
|---------------------------------------------|
|--------------------------------7----(7)b7.5-|
|----------------------------7-7-7----(7)b7.5-|
|-9----------------------(9)-9-7-7----(7)b7.5-|
|---------------------------------------------|
|---------------------------------------------|
|
| W
|---------------------------------------------|
|---------------------------------------------|
|---------------------------------------------|
|---------------------------------------------|
|-9-------------------------------------------|
|-7-------------------------------------------|


  Q      +S  T T S.   +T      E   S S E       +T  +T  T T
|---------------------------------------------------------|
|------------x-7-7----(7)b7.5-----7-----------------------|
|------------x-7-7----(7)b7.5-----7---9b11====(9)r(9)p7---|
|-9------(9)-x-7-7----(7)b7.5-9-----x-------------------9-|
|---------------------------------------------------------|
|---------------------------------------------------------|
|
| H.                                  Q
|---------------------------------------------------------|
|---------------------------------------------------------|
|---------------------------------------------------------|
|---------------------------------------------------------|
|-7-----------------------------------7-------------------|
|-5-----------------------------------5-------------------|



                ~~~~
  |--3---|                   |--3---|
  S  S   S     +Q.           S  S   S  E        +E.      +S
|----------------------------7------7-------------------------|
|------------------------------10---7-10b12====(10)r====(10)--|
|-7--9---9b11==(9)r-------------------------------------------|
|-------------------------------------------------------------|
|-------------------------------------------------------------|
|-------------------------------------------------------------|
|
| Q.                       E H
|-------------------------------------------------------------|
|-------------------------------------------------------------|
|-------------------------------------------------------------|
|-------------------------------------------------------------|
|-5--------------------------2--------------------------------|
|-3------------------------2-0--------------------------------|




  |--3---|  |--3--| |----3----| |--3--| |--3--| |--3--|  |--3---| |--3--|
  S    S S  S S   S S     +S  S S S   S S S   S S S   S  S  S   S S S   S
|--------7----------------------------------------------------------------|
|------7---10p7-----------------------------------------------------------|
|-9b11------------9-9pb11r(9)p7-9p7-----7---------------------------------|
|-------------------------------------9---9p==7-9p7------7----------------|
|-----------------------------------------------------9-----9---8-7s5-----|
|-----------------------------------------------------------------------7-|
|
| H.                                                    +E.           S
|-------------------------------------------------------------------------|
|-------------------------------------------------------------------------|
|-------------------------------------------------------------------------|
|-------------------------------------------------------------------------|
|-9-----------------------------------------------------(9)-----------9---|
|-7-----------------------------------------------------(7)-----------7---|



  ~           PM----|
  E   e   E   T T T T Q       S S    +S  +S
|---------------------------------------------|
|-----7---------------7---------7b8==(7)r(7)--|
|-----7---------------7-------x-7b8==(7)r(7)--|
|-9-----------9-9-9-9-7-------x-7b8==(7)r(7)--|
|---------------------------------------------|
|---------------------------------------------|
|
| Q       Q           Q       Q
|---------------------------------------------|
|---------------------------------------------|
|---------------------------------------------|
|---------------------------------------------|
|-9-------9-----------9-------9---------------|
|-7-------7-----------7-------7---------------|
|-Rhy Fig 4



  ~~~~~~~~                                 ~                         ~
  Q  +S  S T T S E  T T S E       T T S   E  T T S  E       T T  S  E   T T S  E      T T T T
|---------------------------------------|-----------------------------------------------------|
|-------------------------7b7.5---------|-----------7b7.5----------------------7b7.5----------|
|----------7h9p0-9--9p7---7b7.5---------|----9-7----7b7.5----------------------7b7.5--9p7-9-x-|
|-7--(7)h9--------------9---------9p7---|-7--9p7h9----------9p7-----7---9p7-------------------|
|-------------------------------------9-|-----------------------(9)---------9-----------------|
|---------------------------------------|-----------------------------------------------------|
|
| Q   Q          E  E     Q               Q         E       E       Q          Q
|---------------------------------------|-----------------------------------------------------|
|---------------------------------------|-----------------------------------------------------|
|---------------------------------------|-----------------------------------------------------|
|---------------------------------------|-----------------------------------------------------|
|-7---7----------7--7-----7-------------|-5---------5---------------2----------2--------------|
|-5---5----------5--5-----5-------------|-3---------3-------2-------0----------0--------------|




  a S S T T S S. T S S +S  S S S  S.   T S  T T
|---------------------------------7----7-7---------|
|-----7---7---7--x---7-(7)-x-7-7--7----7-7-10p0----|
|-----7-7-7-x-7--x---7-(7)-x-7-7--7----7-7---------|
|-----7-x---x------9--------------7----7-7---------|
|-7s9----------------------------------------------|
|--------------------------------------------------|
|
|   Q         Q         Q         Q
|--------------------------------------------------|
|--------------------------------------------------|
|--------------------------------------------------|
|--------------------------------------------------|
|---9---------9---------9---------9----------------|
|---7---------7---------7---------7----------------|
                                     end Rhy Fig 4-|

w/Rhy Fig 4 to fade
   ~~~~~                   ~~~~~
            |----3----|
   Q        E    E    E    Q           E.        S
|---------------19---21---21b22-------21b22-----21-|
|-22b24--------------------------------------------|
|--------------------------------------------------|
|--------------------------------------------------|
|--------------------------------------------------|
|--------------------------------------------------|

                  ~~~~~~~~~~~~~~~                    ~~~~~~~~~~~~~
   |------3------|
   E      +E     E         +E      S     +S   T  T  E.      +S   T  T  S  S
|-21pb22r(21)---21pb22====(21)r---21b22r(21)-19h21p19------(19)\------------|
|----------------------------------------------------------------x-17-17-17-|
|---------------------------------------------------------------------------|
|---------------------------------------------------------------------------|
|---------------------------------------------------------------------------|
|---------------------------------------------------------------------------|


   ~~~~~                                ~~~~~~~~~~~~~
                                                  |-------3-------|
   Q           E        +T   +T   T  T  Q        +E     E         E
|---------------------------------------------------------------------|
|-17b19-------17b19====(17)r(17)p15----17-------(17)---15b15.5---17---|
|-----------------------------------16--------------------------------|
|---------------------------------------------------------------------|
|---------------------------------------------------------------------|
|---------------------------------------------------------------------|



                          ~~~~~~~~~~~~~~~~
   T      +T   +T   T  S  S  +Q       +E    a  S  S  a  E    S       S
|----------------------------------------------------------------------|
|-17b18==(17)r(17)p15--------------------------------------------------|
|---------------------16-16-(16)-----(16)-----14-16--------------------|
|-------------------------------------------x-------16s14---12b12.5----|
|-------------------------------------------------------------------14-|
|----------------------------------------------------------------------|



    ~~~                                             ~~
    Q      T  S.    +T   T  S  S  T      +T   S  S  E   S  S
|-------------------------------------------------------0--------|
|---------15------------15----17-17pb18r(17)-15-17--------12b15==|
|-/16--------16----(16)----16----------------------16------------|
|----------------------------------------------------------------|
|----------------------------------------------------------------|
|----------------------------------------------------------------|



                                             ~
   +S.  +T   S  S  a S S T T T T T T T T S S E   S T T
|------------------------------------------------------|
|-(12)r(12)-12-10----------------------------------7-7-|
|-----------------11s9p0-9p7---7-9p7-------------x-7-7-|
|----------------------------9-------9p7---------x-----|
|----------------------------------------8-7-5---------|
|------------------------------------------------------|


                                         ~
                                   |-3-|
  S S     T T S  S.      T S S +S  T T T E    S s T s.
|-----------------------------------------------7-x-7------|
|---7b7.5-x-x----7b7.5---x---7-(7)---7---7----x-7-x-7------|
|---7b7.5-x-x----7b7.5---x---7-(7)h9-7---7----x------------|
|-9-----------9------------9-----------9-------------------|
|----------------------------------------------------------|
|----------------------------------------------------------|



  S. T S s s T T S S T T S T T S  S  S S    S
|-7--7-x-7-7---7-x-7-x-7-x-7-x-7--7-----------|
|-7--7-x-7-7---7-x-7-x-7-x-7-x-7--7-10--------|
|--------------------------------------9b11-9-|
|---------------------------------------------|
|---------------------------------------------|
|---------------------------------------------|



         ~~~~~~~~
  T S.   E   +Q        H
|---------------------------------------*|
|---------------------------------------*|
|-7-------------------------------------*|
|---9----9---(9)------------------------*|
|---------------------------------------*|
|---------------------------------------*|
comments
print report bad tab
1 comment total.
0 reply
doompers7491 wrote on May 18 2009, 05:56 pm

too confusing

I want to post or [tab]
guest
You may want to rate the tab now too:
select rating
Please do not post tabs as comments. Select "correction" instead!