Oops, an error
Loading. Please wait.

Division Bell Tab

53,489 views 49 this week
1 commentread comment
1 2 3 4 5
excellent!
x 6
Autoscroll
+/-
esc
set tempo
stop
Contributor
Hey! There's an official Ultimate Guitar app which is ideal
for learning songs when you're away from computer. Get the app
WARNING: You are trying to view
                                    content from Ultimate-Guitar.com
                                    in an unauthorized application,
                                    which is prohibited.

                                    Please use an official Ultimate
                                    Guitar Tabs application for iPhone,
                                    iPad or Android to access legitimate
                                    chords, guitar, bass, and drum tabs
                                    from Ultimate-Guitar.com database.

                                    Type "ultimate guitar tabs" in Apple
                                    App Store's or Android Market's
                                    search to find the application.
thetabmaker93 presents...


----------------------------------------------------------------------------
----------------------------------------------------------------------------
-----------------------------The Division Bell------------------------------
-----------------------------------(1994)-----------------------------------
----------------------------------------------------------------------------
----------------------------------------------------------------------------

Songs:

 1. Cluster One
 2. What Do You Want From Me?
 3. Poles Apart
 4. Marooned
 5. A Great Day For Freedom
 6. Wearing The Inside Out
 7. Take It Back
 8. Coming Back To Life
 9. Keep Talking
10. Lost For Words
11. High Hopes


---------------------/-------------------------------\----------------------
--------------------/-----------Cluster One-----------\---------------------
--------------------\----Music by Gilmour & Wright----/---------------------
---------------------\-------------------------------/----------------------

Tabbed by: Fender24


E|-----------------------------------------------------------------------|
B|-----------------------------------------------------------------------|
G|---------------------------------------------------------------17------|
D|-----------------------------------------------------------------------|
A|-----------------------------------------------------------------------|
E|-----------------------------------------------------------------------|
                                                      
E|-----------------------------------------------------------------------|
B|-----------------------------------------------------------------------|
G|---15--14--10/12--------14--17^--------14--17^-------------------------|
D|---------------------------------------------------17~~~--12--14-------|
A|-----------------------------------------------------------------------|
E|-----------------------------------------------------------------------|

E|-----------------------------------------------------------------------|
B|-----------------------------------------------------------20^~~~------|
G|-----------------------------------------------------------------------|
D|---~~~-----------17~~~--14p12--9/11--9p7--3/5~~~-----------------------|
A|-----------------------------------------------------------------------|
E|-----------------------------------------------------------------------|

E|-----------------------------------------------------------------------|
B|-----------------------------------------------------------------------|
G|---19------15/17-------------------------------------------------------|
D|-------17---------17^--------------------------------------------------|
A|-----------------------17p15-------------------------------------------|
E|------------------------------17/19--17\15-----14--10/12^~~~-----------|

E|-----------------------------------------------------------------------|
B|-----------------------------------------------------------------------|
G|------20^~~~-----------------------------------------------------------|
D|-----------------------------------------------------------------------|
A|--------------------------------------------17/19\17^-----14~~~--------|
E|-----------------------------------------------------------------------|
                                                      
                 
E|-----------------------------------------------------------------------|
B|-------------------------------------------18--20^~~~------------------|
G|--------------16^~~~----------------15/17--------------------15/17-----|
D|------17^-------------17--12/14----------------------------------------|
A|-----------------------------------------------------------------------|
E|-----------------------------------------------------------------------|

E|-------19^-------------------------------------------------------------|
B|---18------------------------------------------------------------------|
G|-------------------------------------5--4--4--0--2---------------------|
D|---------------17--17--17^~~~------------------------------------------|
A|-------------------------------------5--4--4--0--2---------------------|
E|-----------------------------------------------------------------------|
                                                   
E|-----------------------------------------------------------------------|
B|-----------------------------------------------------------------------|
G|---------15/17^------------17--19^--15--17^--------17--16--14^---------|
D|-----------------------19----------------------------------------------|
A|-----------------------------------------------------------------------|
E|-----------------------------------------------------------------------|

E|-------21^--21---------------------------------------------------------|
B|-------------------19---19---19----------------------------------------|
G|---21--------------18^--18^--18^--17p15--17^--------19^--19^--17-------|
D|-----------------------------------------------------------------------|
A|-----------------------------------------------------------------------|
E|-----------------------------------------------------------------------|

E|-----------------------------------------------------------------------|
B|-----------------------------------------------------------------------|
G|---19--19^-----17^---------------17^------13/15------------------------|
D|--------------------17/19-------------17---------------12/14--14-------|
A|-----------------------------------------------------------------------|
E|-----------------------------------------------------------------------|
                                                      
E|-----------------------------------------------------------------------|
B|-----------------------------------------------------------------------|
G|---12------------------------------------------------------------------|
D|-------14--12-------------------------------------------------16-------|
A|---------------12h14p12~~~--------5/7--0--5--5--5----------------------|
E|---------------------------------------------------3/5-----------------|

E|-----------------------------------------------------------------------|
B|-----------------------------------------------------------------------|
G|---17^--17--16--14--16^~~~--------19^--18--19^-------------------------|
D|-----------------------------------------------------------------------|
A|-----------------------------------------------------------------------|
E|-----------------------------------------------------------------------|

Play the 3s quietly                              
                 
E|-----------------------------------------------------------------------|
B|-----------------------------------------------------------------------|
G|-----------------------------------------------------------------------|
D|-----------------------------------------------------------------------|
A|---3-----3-----3-----3--3--3--------------3----------------------------|
E|-----------------------------------------------------------------------|



--------------/-----------------------------------------------\-------------
-------------/-----------What Do You Want From Me?-------------\------------
-------------\----Words & music by Gilmour, Wright & Samson----/------------
--------------\-----------------------------------------------/-------------

Tabbed by: thetabmaker93

This tab contains only the lead guitar.


E||-------|-------|-------|-------|-------|-------|-------|-------|-------|
B||-------|-------|-------|-------|-------|-------|-------|-------|-------|
G||-------|-------|-------|-------|-------|-------|-------|-------|-------|
D||-------|-------|-------|-------|-------|-------|-------|-------|-------|
A||-------|-------|-------|-------|-------|-------|-------|-------|-------|
E||-------|-------|-------|-------|-------|-------|-------|-------|-------|
  
----------------------------------|---------------------------------|
--15b---17~-L----L------(17)-(17)-|--(17)\-----------------12--15b--|
----------------------------------|-------------------14b-----------|
----------------------------------|---------------------------------|
----------------------------------|---------------------------------|
----------------------------------|---------------------------------|

---------------------------------------------|
--15br~----L--L-12-15------------------------|
-----------------------14b--14--12b----------|
-------------------------------------14--12--|
---------------------------------------------|
---------------------------------------------|
 
-----------------------------------|---------------------------------------|
-------------------x-15---L-15-----|-15----15----15----15----15--15---15---|
-------------------x-14b--L-14b----|-14b---14b---14b---14b---14b-14b--14b--|
--14s----L-(5)---------------------|---------------------------------------|
-----------------------------------|---------------------------------------|
-----------------------------------|---------------------------------------|

-----------------------12---------------------|
--------------------12----15p-12--------------|
--14p-12-------14b---------------14br-L-12----|
-----------14------------------------------14-|
----------------------------------------------|
----------------------------------------------|
                                                    
--------------------------------------|---------------------|------|-------|
--------------------------------------|---------------------|------|-------|
-----------------14b--L-12-14----12b--|--L--L---------------|------|-------|
--14s----(2)------------------14------|---------------------|------|-------|
--------------------------------------|---------------------|------|-------|
--------------------------------------|-------------12------|------|-------|
  
-----------------------------------|----------------------|
-----------------------------------|----------------------|
-----2br--L--0--<>2~--0------------|----------------------|
-------------------------2p-0h-2~--|--L-------------------|
-----------------------------------|-------2--------------|
-----------------------------------|----------------------|
     
--------------------------|-------12---------------|
--0--0--------------------|-------15b--------------|
--0--0----0--2p-0---------|------------------------|
--2--2--------------------|------------------------|
--------------------------|------------------------|
--------------------------|------------------------|
 
---------------------------------|-----------------x--x-x-x-x-x-x-|
-------15----15--15-----15-------|-----------------x--x-x-x-x-x-x-|
-------14b---14b-14b----14b--12--|--------------------------------|
---------------------------------|--14s-----L---12----------------|
---------------------------------|--------------------------------|
---------------------------------|--------------------------------|

--------------------------|-----------------------|----------------------|
--------------------------|-----------------------|----------------------|
--------2--2--x--2--------|-----------------------|----------------------|
--2---2-2--2--x--2--------|-----------------------|--2------------L------|
--0---0-0--0--x--0-----0--|--0~--------0----------|--0------------L------|
--------------------------|---------------3b------|------------------0-0-|

----------------------|----------------------------------|
----------------------|--x----------0--------------------|
----------------------|-----2b--2b-----2br--L--2p-0------|
--2--------L----------|-----------------------------2p-0-|
--0--------L--7\------|----------------------------------|
----------------------|----------------------------------|
   
-------------12---------12--------|--------------------------------------|
-------------15b--(17)--15pbr--L--|--------------------------------------|
----------------------------------|-----14br--L--12--14br--L-L-12b-------|
--2~------x-----------------------|---------------------------------14~--|
----------------------------------|--------------------------------------|
----------------------------------|--------------------------------------|

----------------------|-----------------------|--------------------|-------|
----------------------|-----------------------|--------------------|-------|
----------------------|-----------------------|--------------------|-------|
--L-------------------|--2--------------x-----|--2-----------------|-------|
----------------------|--0------------0-x--0--|--0------0----------|-------|
---------------12\----|-----------------------|--------------------|-------|

-------|------------------|-----------x-x-x-x---------|--------------------|
-------|------------------|-----------x-x-x-x--4------|--------------------|
-------|------------------|-----------x-x-x-x--4------|--------------------|
-------|------------------|-------------------(4)~----|--4--------6--------|
-------|------------------|---------------------------|--------------------|
-------|--2---------------|--L------------------------|--2--------4--------|

--------------------|------------------------|
--------------------|------------------------|
--------------------|------------------------|
--7--------9--------|--10------------10/-----|
--------------------|------------------------|
--5--------7--------|---8-------------L------|

-------------12--15-12--------------|---------------x---------|
-----15b~--------------15b--15b~----|--L----\12-----x---------|
------------------------------------|-------------------------|
------------------------------------|-------------------------|
------------------------------------|-------------------------|
------------------------------------|-------------------------|
    
-----------------------|------------------------|
-----------------------|--15---------------L----|
-----------------------|--14br~------------L----|
-----------------------|------------------------|
-----------------------|------------------------|
-------12\-------------|------------------------|
 
---------------------------------------|--------------------17b--17b--|
--L----15-----15-----15-----15----L--L-|----------------x-x-----------|
--L----14b----14b----14b----14br--L-12-|----------------x-x-----------|
---------------------------------------|--14~--------L----------------|
---------------------------------------|------------------------------|
---------------------------------------|------------------------------|

--17b------19\------------3p-0-|-------0--L--L----L---------------|
--------------------------3p-0-|-------0--L--L----L----12-12---12-|
---------------------2g4-------|--4g2--0h-2p-0----L----12-12---12-|
-------------------------------|-----------------------12-12---12-|
-------------------------------|----------------------------------|
-------------------------------|----------------------------------|
  
--12---------L--------------|----------------------------------------|
--12---------L------15b--L--|--15g17--17br----L--15--17--------------|
--12~--------L--------------|----------------------------16g14--12b--|
----------------14----------|----------------------------------------|
----------------------------|----------------------------------------|
----------------------------|----------------------------------------|
      
-------------------------|--------------------|--12/-------------------|
-------------------------|--------------------|------------------------|
-------------------------|--------------------|------------------------|
--14~--------------------|--------------------|------------------------|
-------------------------|--------------------|------------------------|
-------------12\---------|--0~----------------|------------------------|

----------------------------------|------------------------------------|
-----12----12---12---12-12--12-12-|--x-x-12-x-x-12-x-x-12---12-12--12--|
-----12----12---12---12-12--12-12-|--x-x-12-x-x-12-x-x-12---12-12--12--|
-----12----12---12---12-12--12-12-|--x-x-12-x-x-12-x-x-12---12-12--12--|
----------------------------------|------------------------------------|
----------------------------------|------------------------------------|

-----------|-----------|-------------12----12--------12-12---------------|
-----------|-----------|----------12----15--------12-------15p-12-----12-|
-----------|-----------|-----14b--------------14b-----------------14b----|
-----------|-----------|-------------------------------------------------|
-----------|-----------|-------------------------------------------------|
-----------|-----------|-------------------------------------------------|

--12-12-------------------------------------|----------------------|
--------15p-12------------------------------|----------------------|
---------------14b-L-12----14--12-----------|----------------------|
------------------------14------------------|----------------------|
--------------------------------------------|--0---------------0-0-|
-----------------------------------12-0-3b--|----------------------|
  
---------------------|-------------------------|--------------------------|
---------------------|-------------------------|--------------------------|
---------------------|-------------------------|---------0--2-2---0-0--0--|
---------------------|-------------------------|--2------0--2-2---0-0--0--|
--0------------------|--0--0-----0--0----0--0--|--L---------0----------x--|
---------------3b----|--------3----------------|-----------------------3--|
       
-----------------------|-----------------------------|--------------------|
-----------------------|----------------------4--x-4-|--------------------|
-----------------------|----------------------4--x-4-|--------------------|
--4------4-4-4------4--|--4---4-4--4--4-4-4-4-4--x-4-|--4--------6--------|
-----------------------|-----------------------------|--------------------|
--2------2-2-2------2--|--2---2-2--2--2-2-2-2--------|--2--------4--------|

--------------------|---------------------|-------x----x-------------------|
--------------------|---------------------|-------x----x-----19--L--19s-17-|
--------------------|---------------------|-------x----x-------------------|
--7--------9--------|--10~----------------|--L--------17s-19--L--L--19s-17-|
--------------------|---------------------|--------------------------------|
--5--------7--------|---8-----------------|--L-----------------------------|

--------------------|-------------------0-0--|------0-0---0----------------|
--17----------------|--L----------------3-3s-|--5---5-3---3----------------|
--------------------|------------------------|--------------4g2--0---------|
--17----------------|--L---------------------|----------------------2p--0--|
--------------------|------------------------|-----------------------------|
--------------------|-----------17\----------|-----------------------------|
   
-----------------------------|-------------------------------|
-----------------------------|-------------------x--15--15b--|
-----------------0--2b--2p-0-|--2p-0-------------------------|
--2~------0------------------|-------2~--L----L--------------|
-------------3b--------------|-------------------------------|
-----------------------------|-------------------------------|
                                       
-----------------------|----|----|----|----||-----|----|----|----|----|----|
--L--------\(5)--------|----|----|----|----||-----|----|----|----|----|----|
-----------------------|----|----|----|----||*----|----|----|----|----|----|
-----------------------|----|----|----|----||*----|----|----|----|----|----|
-----------------------|----|----|----|----||-----|----|----|----|----|----|
-----------------------|----|----|----|----||-----|----|----|----|----|----|

----|-----||----|---------------------|------------------4--4-4-|
----|-----||----|---------------------|------------------4--4-4-|
----|----*||----|---------------------|------------------4--4-4-|
----|----*||----|--(4)----------------|--L--------4--x-x--------|
----|-----||----|---4-----------------|--L--------4--x-x--------|
----|-----||----|---2-----------------|--L--------2--x-x--------|
               
--------------------|--------------------|---------------------|
--------------------|--------------------|---------------------|
--------------------|--------------------|---------------------|
--4--------6--------|--7--------9--------|--10-----------------|
--------------------|--------------------|---------------------|
--2--------4--------|--5--------7--------|---8~----------------|
              
-------x---------------------------|--------------------|
-------x--0---------19--L--17s-19s-|--17----------------|
----------0------------------------|--------------------|
--L----------17s-19--L--L--17s-19s-|--17----------------|
-----------------------------------|--------------------|
--L--------------------------------|--------------------|
             
------------------------|-------------------||
------------------------|-------------------||
------------------------|-------------------||
------------------------|-------------------||
-----------3--2--0------|-------------------||
--------------------3b--|--0----------------||



Poles Apart--------------------------\------
-------\---Words & music by Gilmour, Wright, Samson & Laird-Clowes---/------
--------\-----------------------------------------------------------/-------

Tabbed by: Jack Prenger
Solo by: thetabmaker93



D|------------0-----------------0--------|
A|------0-----------0-----0-----------0--|
G|---7-----------------6-----------------|
D|---------5-----5-----------5-----5-----|
A|---------------------------------------|
D|---------------------------------------|

D|------------0-----------------0--------|
A|------0-----------0-----0-----------0--|
G|---4-----------------6-----------------|
D|---------5-----5-----------5-----5-----|
A|---------------------------------------|
D|---------------------------------------|

D|------------0-----------------0--------|
A|------0-----------0-----0-----------0--|
G|---7-----------------6-----------------|
D|---------5-----5-----------5-----5-----|
A|---------------------------------------|
D|---------------------------------------|


D|------------0-----------------0----------------------|
A|------0-----------0-----0-----------0----------------|
G|---4-----------------6-------------------------------|
D|---------5-----5-----------5-----5-------------------| repeat=
A|----------------------------------------|    3    ---|
D|----------------------------------------|  times  ---|
_____________________________________________________|


D|------------0-----------------0--------|
A|------0-----------0-----0-----------0--|
G|---4-----------------2-----0-----0-----|
D|---------5-----5-----------------------|
A|---------------------------------------|
D|---------------------------------------|

figure 1
D|-----------------------------------------|
A|------------------0----------------------|
G|------------0-----------------0----------|
D|------4--------4--------4-------------4--|
A|---------0-----------------0-------------|
D|---0-----------------0-------------------|

D|-----------------------------------------|
A|------------------0----------------------|
G|------------0-----------------0----------|
D|------4--------4--------4-------------4--|
A|---------0-----------------0-------------|
D|---0-----------------0-------------------|

D|-----------------------------------------|
A|------------------0----------------------|
G|------------0-----------------0----------|
D|------4--------4--------4-------------4--|
A|---------0-----------------0-------------|
D|---0-----------------0-------------------|

D|-----------------------------------------|
A|------------------0----------------------|
G|------------0-----------------0----------|
D|------4--------4--------4-------------4--|
A|---------0-----------------0-------------|
D|---0-----------------0-------------------|

figure 2
D|------------------------------------|
A|------------------0-----------------|
G|------------0-----------------0-----|
D|------0--------0--------0--------0--|
A|---------5-----------------5--------|
D|---5-----------------5--------------|

D|------------------------------------|
A|------------------0-----------------|
G|------------0-----------------0-----|
D|------0--------0--------0--------0--|
A|---------5-----------------5--------|
D|---5-----------------5--------------|

D|------------------------------------|
A|------------------0-----------------|
G|------------0-----------------0-----|
D|------0--------0--------0--------0--|
A|---------5-----------------5--------|
D|---5-----------------5--------------|

D|------------------------------------||
A|------------------0-----------------||
G|------------0-----------------0-----||
D|------0--------0--------0--------0--||
A|---------5-----------------5--------||
D|---5-----------------5--------------||

Sung with figures 1 and 2
====================
fig. 1
Did you know
it was all going to go
----------------------
fig. 2
so wrong for you?
----------------------
fig. 1
And did you see
it was all going to be
----------------------
fig. 2
so right for me?
====================

D|-------------------|-----------------------|-----------|
A|-------------------|-----------------------|-----0-----|
G|-------------------|-----------------------|-----------|
D|---2/4-- 2----0----|-----------------------|-----4-----|
A|-------------------|--2/4----2----0--------|-----------|
D|-------------------|-----------------------|-----------|
      Why  did   we      tell  you  then....       You

D|----------------------|-----------------------------|-----------------|
A|---0--0---------------|-----------------------------|--0--0----0------|
G|----------------------|----0------------0-----0-----|-----------------|
D|---5--4---2-----0-----|-----------------------------|--4--5----4------|
A|----------------------|--2h4-------2p0--2-----2--0--|-----------------|
D|----------------------|-----------------------------|-----------------|
     were  al-ways the     gold-en   boy        then,    And that you'd

D|--------------|------------------------------|
A|--------------|------------------------------|
G|--------------|------------------------------|
D|--------------|----0--0--0----0---------4----|
A|-----2--0-----|--2h4--4--2p0-----------------|
D|--------------|---------------5---------0----|


Guitar Solo:   
|---------------------------|
|---------------------------|
|--9b----Lpbr--L------7~----|
|---------------------------|
|---------------------------|
|---------------------------|
 
|-----------------------------|-----------------------------|
|-----------------------------|-----7----8p--7--------------|
|-----------------------------|-------------------9----7----|
|--<>9b----Lpbr--L------7~----|-----------------------------|
|-----------------------------|-----------------------------|
|-----------------------------|-----------------------------|
  
|------------------------------|--------------------------------------|
|------------------------------|-------7--Lb--Lpbr----Lp----5---------|
|--6---<>6---------------------|---------------------------------7----|
|------------9p-7h-9---5s-7----|--------------------------------------|
|------------------------------|--------------------------------------|
|------------------------------|--------------------------------------|
             
|-------------------------------|-------------------|-------------------|
|-------------------------------|-------------------|-------------------|
|--5~---------------------------|-------------------|-------------------|
|----------9p-7-9----9----7\----|-------------------|-------------------|
|-------------------------------|--5----------------|--L----------------|
|-------------------------------|-------------------|-------------------|

|--2~----------------|--L~---------------------------|
|--------------------|------------7h-10-x--10-x--10b-|
|--------------------|-------------------------------|
|--------------------|-------------------------------|
|--L~----------------|--L~---------------------------|
|--------------------|-------------------------------|
  
|-------------------------------|----------------------|
|---L~-------------Lbr---L--8-0-|----------------------|
|-------------------------------|--14b-----------------|
|-------------------------------|----------------------|
|-------------------------------|----------------------|
|-------------------------------|----------------------|
   
|--------------------------------------|-----------------------------------|
|----------------------------12b--12b--|--12~-----12--12br--12--12--(12)\--|
|-------14b----14b----14b--------------|-----------------------------------|
|--------------------------------------|-----------------------------------|
|--------------------------------------|-----------------------------------|
|--------------------------------------|-----------------------------------|

|--------------------|-------------------------------|---------------------|
|--------------------|-----7----7----7----7br----L-5-|--7----L\------------|
|--14~---------------|-------------------------------|---------------------|
|--------------------|-------------------------------|---------------------|
|--------------------|-------------------------------|---------------------|
|--------------------|-------------------------------|---------------------|
  
|------------------------------|-------------------------------|
|-----------7h-10-x--10-x--10b-|---L~-------------Lbr---L--12--|
|------------------------------|-------------------------------|
|------------------------------|-------------------------------|
|------------------------------|-------------------------------|
|------------------------------|-------------------------------|
     
|--------------------------|--------------------------------------------|
|--12~------------12b---L--|--15----15----14----15b----15pb----15pbr----|
|--------------------------|--------------------------------------------|
|--------------------------|--------------------------------------------|
|--------------------------|--------------------------------------------|
|--------------------------|--------------------------------------------|
   
|--------------------------|----------------------|
|--12----------------------|----------------------|
|-----------------11-14----|--12~-----------------|
|--------------------------|----------------------|
|--------------------------|----------------------|
|--------------------------|----------------------|
        
|---------------------------------------------|----------------------|
|-------17b----17pb----17pb----18pbr------17--|---Lb-----------------|
|---------------------------------------------|----------------------|
|---------------------------------------------|----------------------|
|---------------------------------------------|----------------------|
|---------------------------------------------|----------------------|
   
|-------------------------|-----------------------------|
|-------------------------|--12~------------14br---Lbr--|
|----------------11s-14---|-----------------------------|
|-------------------------|-----------------------------|
|-------------------------|-----------------------------|
|-------------------------|-----------------------------|

|-------------------------|------------------------------------------------|
|---Lb----------------14b-|---Lpb----14pb----14pb---14pbr----L---Lp-12p-10-|
|-------------------------|------------------------------------------------|
|-------------------------|------------------------------------------------|
|-------------------------|------------------------------------------------|
|-------------------------|------------------------------------------------|
 
|----------------------------------------------|------------------------|
|--12------12p-10p-8h-12----10----10p-8p-7h-8h-|--10---------L\---------|
|----------------------------------------------|------------------------|
|----------------------------------------------|------------------------|
|----------------------------------------------|------------------------|
|----------------------------------------------|------------------------|

|---------------------------------------------|----------------------------|
|------17br-----Lbr-----Lb-----Lpb----17pb----|--17-------------17p-16p-15-|
|---------------------------------------------|----------------------------|
|---------------------------------------------|----------------------------|
|---------------------------------------------|----------------------------|
|---------------------------------------------|----------------------------|

|---------------------------------------------------------|
|--17br--17b---Lpbr---L-15h-17-15h-17p-15-----------------|
|-----------------------------------------16s-14--11---Ls-|
|---------------------------------------------------------|
|---------------------------------------------------------|
|---------------------------------------------------------|

|-------------------------|--------------------------|
|--------------------15---|--15----------------14-15-|
|--16-----------16--------|--------------------------|
|-------------------------|--------------------------|
|-------------------------|--------------------------|
|-------------------------|--------------------------|

|---------------------------------------------------|----------------------|
|--15b--Lpbr---L----15--14--15--14------14----------|----------------------|
|-----------------------------------16------16--14--|--16--------16---14---|
|---------------------------------------------------|----------------------|
|---------------------------------------------------|----------------------|
|---------------------------------------------------|----------------------|
 
|------------------------------|-------------------------------------------|
|------------------------------|-------------------------------------------|
|--11h-14p-12p-11--------------|-----------7---------9-----------11--------|
|------------------------------|-----7--L------7--L------(7)--L-------(7)--|
|------------------------------|-------------------------------------------|
|------------------------------|-------------------------------------------|

|---------------------------|--------------------------------|
|---------------------------|--------------------------------|
|-----9b---9b---9b---9---7--|--9---9-Lb--9g9--7--------------|
|---------------------------|----------------------7----7----|
|---------------------------|--------------------------------|
|---------------------------|--------------------------------|
 
|---------------------|-----------------------------|
|---------------------|-----------------------------|
|---------------------|-----9b--------9-----7-------|
|--9--------L---------|------------7-----9----------|
|---------------------|-----------------------------|
|---------------------|-----------------------------|
 
|---------------------------------|--------------------------------|
|--10----10--8--7--10----7--8--7--|--5----7----8----7----8----5----|
|---------------------------------|--------------------------------|
|---------------------------------|--------------------------------|
|---------------------------------|--------------------------------|
|---------------------------------|--------------------------------|

|--------------------|----------------------------------------|
|--------------------|-------5b----5pb----5pb----6pbr------5--|
|--------------------|----------------------------------------|
|--/7----------------|----------------------------------------|
|--------------------|----------------------------------------|
|--------------------|----------------------------------------|
   
|--------------------|---------------------------||
|--7~----------------|--L--------------7----7----||
|--------------------|---------------------------||
|--------------------|---------------------------||
|--------------------|---------------------------||
|--------------------|---------------------------||



----------------------/------------------------------\----------------------
---------------------/------------Marooned------------\---------------------
---------------------\---Music by Wright & Gilmour----/---------------------
----------------------\------------------------------/----------------------

Tabbed by: thetabmaker93/the piper




E||-------|--17b----------------|---L--------17s------(14)--|
B||-------|---------------------|---------------------------|
G||-------|---------------------|---------------------------|
D||-------|---------------------|---------------------------|
A||-------|---------------------|---------------------------|
E||-------|---------------------|---------------------------|

---------------------|--------------------------|
--17b----------------|---L-------------------15-|
---------------------|--------------------16----|
---------------------|--------------------------|
---------------------|--------------------------|
---------------------|--------------------------|

-------------------------------|-------------------------------|
--17b-------L--L-15-17~--------|---L----------------17s-15s-14-|
-------------------------------|-------------------------------|
-------------------------------|-------------------------------|
-------------------------------|-------------------------------|
-------------------------------|-------------------------------|
   
---------------------|------------(x)-24--L--------|--Ls------------12----|
---L~----------------|---L-----L-------------------|----------------------|
---------------------|-----------------------------|----------------------|
---------------------|-----------------------------|----------------------|
---------------------|-----------------------------|----------------------|
---------------------|-----------------------------|----------------------|
    
---L------------(x)---17b-19-21pb-19-|--21br~---------L----L-21pb-21br---|
-------------------------------------|-----------------------------------|
-------------------------------------|-----------------------------------|
-------------------------------------|-----------------------------------|
-------------------------------------|-----------------------------------|
-------------------------------------|-----------------------------------|

---L-----L----L----------21b----L-|---L-----L---L---L---L------------|
-----------------x-xg19-----------|--------------------------21pb-19-|
----------------------------------|----------------------------------|
----------------------------------|----------------------------------|
----------------------------------|----------------------------------|
----------------------------------|----------------------------------|

-------------------------------------------|
--------------------<>17p-5------17p-15----|
--21br~-------L-------------(16)--------16-|
-------------------------------------------|
-------------------------------------------|
-------------------------------------------|
    
----------------------17--------------|--------------------------|
--17b-----L~-----L----(0)--17--(17)b--|--17b~--------Ls--5~------|
--------------------------------------|--------------------------|
--------------------------------------|--------------------------|
--------------------------------------|--------------------------|
--------------------------------------|--------------------------|
  
-----------------------------|-----------------------------------|
--L----------------12-15p-12-|--15br---------L---L-----15-15--Lb-|
-----------------------------|-----------------------------------|
-----------------------------|-----------------------------------|
-----------------------------|-----------------------------------|
-----------------------------|-----------------------------------|
 
------------------------------|
--------19~---L-----L---------|
--19-19-----------------------|
------------------------------|
------------------------------|
------------------------------|

-----------------------------------------------17b---19-|
----17b---17br--L-15----17----15-17-17br--L-15----------|
---------------------16----16---------------------------|
--------------------------------------------------------|
--------------------------------------------------------|
--------------------------------------------------------|
 
--19-19~----L-----L-----L--19--19--|
-----------------------------------|
-----------------------------------|
-----------------------------------|
-----------------------------------|
-----------------------------------|

--19-19-21br---L-----L--L-19-21b--L-21-19-21-|
---------------------------------------------|
---------------------------------------------|
---------------------------------------------|
---------------------------------------------|
---------------------------------------------|

--21br--L--L-19s-30--Lpb-------------30pb-30pb-30pb-L-|
------------------------------------------------------|
------------------------------------------------------|
------------------------------------------------------|
------------------------------------------------------|
------------------------------------------------------|

--L--29----26----24-26-24----------|----------------------------|
--------------------------26---L-L-|---L---Ls--24s--19--------L-|
-----------------------------------|----------------------------|
-----------------------------------|----------------------------|
-----------------------------------|----------------------------|
-----------------------------------|----------------------------|
 
-------------------17b--|---19~------------17b---L-19~---|
------------------------|--(19)~-------------------------|
------------------------|--------------------------------|
------------------------|--------------------------------|
------------------------|--------------------------------|
------------------------|--------------------------------|
  
---L------17-------------------------|----------------------------------17-|
-------------17b--Lb--L~-------15----|--17p~----15---------------17s-19----|
----------------------------------16-|-------------16----------------------|
-------------------------------------|-------------------------------------|
-------------------------------------|-------------------------------------|
-------------------------------------|-------------------------------------|
 
-------/19--21--21pb--21--21pb--24--21pb--24--25--|
--------------------------------------------------|
--------------------------------------------------|
--------------------------------------------------|
--------------------------------------------------|
--------------------------------------------------|

--26----(26)----(26)----26~------27s-26s-24-|
--------------------------------------------|
--------------------------------------------|
--------------------------------------------|
--------------------------------------------|
--------------------------------------------|

--26s~--------(24)---29-26--29-29b-|---Ls--------19---------|
-----------------------------------|------------------------|
-----------------------------------|------------------------|
-----------------------------------|------------------------|
-----------------------------------|------------------------|
-----------------------------------|------------------------|
 
---------------14------------------------|-------12-----------------------|
-------15b~--------15b--15--12----15-15~-|---L------15b~-----Ls----10--L--|
-------------------------------14--------|--------------------------------|
-----------------------------------------|--------------------------------|
-----------------------------------------|--------------------------------|
-----------------------------------------|--------------------------------|

-----------5----10b---7-------7-------|-------------------------|
-------5b--L-L-(10)b----7-10b---7h-10-|--10---------------------|
--------------------------------------|---9br--------L--L-------|
--------------------------------------|-------------------------|
--------------------------------------|-------------------------|
--------------------------------------|-------------------------|

      this doesnt really play in the song             
-----------------------------------------------------|
-----(2)---------------------------------(3)------L--|
-----(2)---------------------------------(4)------L--|
-----(2)---------------------------------(4)------L--|
-----------------------------------------------------|
-----------------------------------------------------|

--17b~---------L-----L--------------|--------------------------------------|
--17b~---------L-----L-17brb~--L--L-|---L--L--L---L-----L------------------|
------------------------x~----------|--------------------16--18p-16-19p-18-|
------------------------------------|--------------------------------------|
------------------------------------|--------------------------------------|
------------------------------------|--------------------------------------|

----------------------------------|
--17b---------L-------------17----|
-----------------16--18b--L----18-|
----------------------------------|
----------------------------------|
----------------------------------|

-----------------------------------------------|
--17----19-------17--19-------17--19-------17--|
------------19b----------19b----------19b------|
-----------------------------------------------|
-----------------------------------------------|
-----------------------------------------------|

-----------------------------------------------------|
--19br--L--L-17-19s---(12)----19--19--19br---L--L-17-|
-----------------------------------------------------|
-----------------------------------------------------|
-----------------------------------------------------|
-----------------------------------------------------|

----------------------------------------|----------------------------------|
--19--19S------30b----L--30b--30--|--30b-----30b~---L--30b--30b-30b~---L---|
----------------------------------|------(30)b-----------------------------|
----------------------------------|----------------------------------------|
----------------------------------|----------------------------------------|
----------------------------------|----------------------------------------|

----------------------------------------------------------|
--30b-30b-30b-30b-----------------------------------------|
------------------30b-30b-30b-30b-30b-30-30-30-28pbr--26--|
----------------------------------------------------------|
----------------------------------------------------------|
----------------------------------------------------------|
    
------------------------------------|-----------19h-22-19b-(22)--22-24-22b-|
--24~---------L-----L-(26)-24-22-24-|--24~---------------------------------|
------------------------------------|--------------------------------------|
------------------------------------|--------------------------------------|
------------------------------------|--------------------------------------|
------------------------------------|--------------------------------------|
                                      
--22b--22b--22b--22b-22b-22b-22b-22b-22b-22b---Ls--21-22p-21-19-21b-|
--------------------------------------------------------------------|
--------------------------------------------------------------------|
--------------------------------------------------------------------|
--------------------------------------------------------------------|
--------------------------------------------------------------------|

---L--21b--21b-21p-19----19-------------------------------|
----------------------22----22br--L---L-19-------22brb--L-|
-------------------------------------------21-------------|
----------------------------------------------------------|
----------------------------------------------------------|
----------------------------------------------------------|

----------------------------------------------------|
---L----L--L-19------22br--L---L-19----22br----L-20-|
----------------21------------------21--------------|
----------------------------------------------------|
----------------------------------------------------|
----------------------------------------------------|
  
-------22b-----L-22-21-22-24-26----|
-----------------------------------|
-----------------------------------|
-----------------------------------|
-----------------------------------|
-----------------------------------|

---Ls----19--------19--19--21b--21--21br--L-|
--------------------------------------------|
--------------------------------------------|
--------------------------------------------|
--------------------------------------------|
--------------------------------------------|

---L-19----Ls--(14)-----------------|
------------------------12(15)------|
------------------------------------|
------------------------------------|
------------------------------------|
------------------------------------|

-------------------------------------------|
--15b----L--L-----L--12--15--(15)b~---(17)-|
-------------------------------------------|
-------------------------------------------|
-------------------------------------------|
-------------------------------------------|

---------------------------------------|
----------15p-12-15br-----L-12-15b~--L-|
---------------------------------------|
---------------------------------------|
---------------------------------------|
---------------------------------------|
 
-----------------------------------------------|---------------x---------7-|
---L-----L--15---14p-12-15--L-14-12----12------|--12~-----L------------7---|
------------------------------------14----14b--|------------------9b-L-----|
-----------------------------------------------|---------------------------|
-----------------------------------------------|---------------------------|
-----------------------------------------------|---------------------------|

---------------------------------------|
--10p-7-10S---L---22~--L-----L---------|
--------------------------------10s-14-|
---------------------------------------|
---------------------------------------|
---------------------------------------|

                                    I`m totally not sure if this is right. 
---------------------------------------------------------------------------|
--22S-------------------------------(19)S-17S-10S-19s--L--L--L-(17)-10S-L-2|
---------------------------------------------------------------------------|
---------------------------------------------------------------------------|
---------------------------------------------------------------------------|
---------------------------------------------------------------------------|
 
-------------------------------------------------------------------|
--10S-19S-20S-19S-(6)S-19S-22S-19S-21S--L-20S-22S---L-19S-22-22b~--|
-------------------------------------------------------------------|
-------------------------------------------------------------------|
-------------------------------------------------------------------|
-------------------------------------------------------------------|
 
-----------22p-19---24p-22----------------|--------------------------------|
---L------------------------24b--(27)s-29-|--27~------26-26~--L-----24-24~-|
------------------------------------------|--------------------------------|
------------------------------------------|--------------------------------|
------------------------------------------|--------------------------------|
------------------------------------------|--------------------------------|

---------------------------------|
---L-------19b-22~--L------19-19-|
---------------------------------|
---------------------------------|
---------------------------------|
---------------------------------|
 
----------------------------------------------------|
--19--22b---L--19-22-----19-19----------------------|
---------------------21b--------19--18--------------|
----------------------------------------21--19------|
------------------------------------------------21--|
----------------------------------------------------|
   
---------------17-----------------17-|--19~------19-19-21~-----L--19--21--|
-------------------17~-----L-17b-----|------------------------------------|
-------------------------------------|------------------------------------|
--19~-------x------------------------|------------------------------------|
-------------------------------------|------------------------------------|
-------------------------------------|------------------------------------|
   
--22-21-22--22b~-----L------22-24-|--24b---------L--24-----24b--|
----------------------------------|-----------------------------|
----------------------------------|-----------------------------|
----------------------------------|-----------------------------|
----------------------------------|-----------------------------|
----------------------------------|-----------------------------|

--26-24-24~---L-----L--22--22-21-------|-----------------------------------|
---------------------------------22----|--24~--------(22)~------22s-20s-19-|
------------------------------------23-|-----------------------------------|
---------------------------------------|-----------------------------------|
---------------------------------------|-----------------------------------|
---------------------------------------|-----------------------------------|

----------------------------------------|----------------------------------|
----------------------------------------|----------------------------------|
----------------------------------------|----------------------------------|
--14pbr~---------L-------12--14br--L-12-|--14~---------L-14br--L-12----12h-|
--------------------12b-----------------|----------------------------14----|
----------------------------------------|----------------------------------|
                     
--------------------------------------------|------------------------------|
--------------------------------15----17----|--17------17-19-19~-----19-22-|
------------------14--16p-14----------------|------------------------------|
--14-----L-14-16-------------16----16----16-|------------------------------|
--------------------------------------------|------------------------------|
--------------------------------------------|------------------------------|

-----------------------------------------|
--22s---30pb~--L-----L--30b---L--30b-30b-|
-----------------------------------------|
-----------------------------------------|
-----------------------------------------|
-----------------------------------------|

---------------------------------------|
--29br~---------L--29--27--26br--L--26-|
---------------------------------------|
---------------------------------------|
---------------------------------------|
---------------------------------------|
 
------------------------------------------|--------------------------|
---------------------------15--17br--L-15-|--------------------------|
--26-26~----L--------14g16----------------|--------------------------|
------------------------------------------|--------------------------|
------------------------------------------|--14pbr-------------L-----|
------------------------------------------|--------------------------|

----------7g9-9-9br--L-L-10--12--|--12~---------L--10--9h-10----9-|
---------------------------------|---------------------------12---|
---------------------------------|--------------------------------|
---------------------------------|--------------------------------|
---------------------------------|--------------------------------|
---------------------------------|--------------------------------|
  
--------------------------14-------|--14b----------26-26-------29-29-------|
--10b------------------------------|---------------------------------------|
----------------14b-16--L----16-16-|---------26b-28-------28-28------28-28-|
-----------------------------------|---------------------------------------|
-----------------------------------|---------------------------------------|
-----------------------------------|---------------------------------------|

--26-26---------------------------------30b-30b-------|
-----------------19-19-------19-----------------------|
-----------------------------------26b----------28-28-|
--------21pbr-21-------21-21----21--------------------|
------------------------------------------------------|
------------------------------------------------------|

                                 
--26~---------L--24--26----------|---------------------|-------------------|
-------------------------24------|--24~----------------|-------------------|
-----------------------------26--|---------------------|-------------------|
---------------------------------|---------------------|-------------------|
---------------------------------|---------------------|-------------------|
---------------------------------|---------------------|-------------------|

-------------------||
-------------------||
-------------------||
-------------------||
-------------------||
-------------------||


-------------------/-----------------------------------\--------------------
------------------/--------A Great Day For Freedom------\-------------------
------------------\--Words & Music by Gilmour & Samson--/-------------------
-------------------\-----------------------------------/--------------------

Tabbed by: info2new



Verse:
Cm                Cm(add b5)        Cm               Cm (add b5)
On the day the wall came down, they threw the locks on to the ground
Fm/Ab                                     Gsus4              G
And with glasses high we raised a cry for freedom had arrived

Cm                 Cm(add b5)
And on the day the wall came down
Cm                    Cm(add b5)
The ship of fools had finally run aground
Fm/Ab           Gsus4            G
Promises lit up the night like paper doves in flight


Chorus:
     F        G/F      F                       G/F  F        F/C  C
I dreamed you had left my side. No warmth not even pride remained--
     F/C           F           G/F    F                        G/F     F
              And even though you needed me, it was clear that I could not
      F/C  C         C   G/C   G/B
do a thing for you


Verse:
Cm               Cm(add b5)
Now life devalues day by day
Cm               Cm(add b5)
As friends and neighbours turn away
Fm/Ab                          Gsus4                    G
And there's a change that even with regret can not be undone

Cm                     Cm(add b5)
Now frontiers shift like desert sands,
Cm                      Cm(add b5)
while nations wash their bloodied hands

Fm/Ab                   Gsus4            G
Of loyalty, of history, in shades of grey


Chorus:
     F        G/F      F
I woke to the sound of drums
   G/F           F        F/C          C
The music played, the morning sun streamed in
F/C     F           G/F    F
I turned and I looked at you,
 G/F                F              F/C    C
and all but the bitter residue slipped away,
C   G/C   G/B
slipped away


Outro Solo:

E|----------------------------------------------------|
B|-------------------------8b(10)8--10bb--8---/-------|
G|-----5-(7)-5--7bb-(7)-5-----------------------------|
D|-5/7------------------------------------------------|
A|----------------------------------------------------|
E|----------------------------------------------------|

E|------------------------------------------------------|
B|----8-------------------5--h6p5h6p5-------------------|
G|-/7---7b-7b--^r--5---/7------------7br7-5-7-5~--(/7)--|
D|------------------------------------------------------|
A|------------------------------------------------------|
E|------------------------------------------------------|

E|-------------------------12-----------------------------------------|
B|----8--(10p8)--10p8--13b----13br-13--12br(12)(12br12)---------------|
G|-/7--------------------------------------------------12-------------|
D|--------------------------------------------------------(12)/14-----|
A|--------------------------------------------------------------------|
E|--------------------------------------------------------------------|

E|-------------------------------------------------------|
B|----------------------------------------8/10--10--10---|
G|-5*-7*p5--7b*7b*-5~---/-------5-7b|5-------------------|
D|--------------------------/(7)-------------------------|
A|-------------------------------------------------------|
E|-------------------------------------------------------|

E|-------------------------------------------------------------------|
B|-13b--13-12br(12)--------------------------------------------------|
G|------------------(14)-(12)---(7p5)--5~--7p5-5-----5-7p5-7p5-5-7b--|
D|--------------------------------------------7-7p5-7---------7------|
A|-------------------------------------------------------------------|
E|-------------------------------------------------------------------|

E|---------------------------------------------------8~8~--7---------|
B|--6----------------------------------6--(6)/-8b---8b~------8--8b---|
G|----7b-r-5-5*-7*-7b*-7b*p-5-----5~~----5---------------------7-----|
D|----------------------------7--------------------------------------|
A|-------------------------------------------------------------------|
E|-------------------------------------------------------------------|

E|----------------------------------15--------15b-15b-15----|
B|-10-~--/12brbr--13p12h13-h15-/17--~-15r-13----------------|
G|----------------------------------------------------------|
D|----------------------------------------------------------|
A|----------------------------------------------------------|
E|----------------------------------------------------------|

E|--------------------------------------------------------------|
B|--17h20p17--17------------------------------------------------|
G|----------19---19b--19rp17----17-19b-17~--16h17p1617brp16\14--|
D|----------------------------19--------------------------------|
A|--------------------------------------------------------------|
E|--------------------------------------------------------------|

E|-----------------------|
B|-----------------------|
G|-14h16-16b-16b--17r14--|
D|-----------------------|
A|-----------------------|
E|-----------------------|

E|-----------------15b-~--15--------------------------|
B|-13h15-15b-15rp13-----------------------------------|
G|-------------------------------5-7-7b--7-5-7-7b-5---|
D|--------------------------(3)/5---------------------|
A|----------------------------------------------------|
E|----------------------------------------------------|

E|----------------------------------------------------|
B|----------------------------------------------------|
G|----------------------------------------------------|
D|-7p5------------------------------------------------|
A|------7p6p5--5------5----2------------3p2-3-3/5-----|
E|------------8--8-5-8--8~~--3-3/5~-------------------|

E|------------------------------------------------------------------------|
B|---------------------------------------------------6--6-8b~-r-b-r-b-10--|
G|-------------------------------------5--7r*-5-7-7b*--5-----5------------|
D|---------------------------------5-7------------------------------------|
A|-3-p2--2-----------------3--5/-7----------------------------------------|
E|-----5--5--5/7-5/7--3~-5------------------------------------------------|

E|-------------------------------------|
B|-8h10p8-6h8p6-5h6p5------------------|
G|-------------------7h9p7-5h7p5-5-----|  . . . (*)     (FADES OUT)
D|-------------------------------------|
A|-------------------------------------|
E|-------------------------------------|



--------------------/-----------------------------------\-------------------
-------------------/-------Wearing The Inside Out--------\------------------
-------------------\---Words & music by Wright & Moore---/------------------
--------------------\-----------------------------------/-------------------

Chords by: echoess
Solo by: blitz3696


    Cm			 Ab
From morning to night I stayed out of sight
Gm			  F
  Didn't recognize I'd become
   Cm		       Ab
No more than alive I'd barely survive
Gm		   F
  In a word...overrun

	     Cm
Won't hear a sound
	 Ab
From my mouth
	       Cm
I've spent too long
	      Ab
On the inside out
	   Cm
My skin is cold 
	      Ab
To the human touch
	       Cm
This bleeding heart's
	    Ab
Not beating much

  Cm		    Ab
I murmured a vow of silence and now
Gm				   F
  I don't even hear when I think aloud
  Cm			Ab	
Extinguished by light I turn on the night
Gm				    F
  Wear its darkness with an empty smile

Fm
I'm creeping back to life
   Cm
My nervous system all awry
Ab			 Gm
  I'm wearing the inside out

Cm		      Ab
Look at him now, he's paler somehow
Gm		   F
  But he's coming round
      Cm			     Ab
He's starting to choke, it's been so long since he spoke
Gm					    F
  Well he can have the words right from my mouth

	       Cm
And with these words
       Ab
I can see
		    Cm
Clear through the clouds
	     Ab
that covered me
	     Cm
Just give it time
	      Ab
then speak my name
	    Cm
Now we can hear
	   Ab
ourselves again

	    Cm
I'm holding out
	Ab
For the day
	      Cm
When all the clouds
	    Ab	
Have blown away
	     Cm
I'm with you now
	       Ab
Can speak your name
	   Cm
Now we can hear
	   Ab
Ourselves again


Guitar solo:
(5:14)
|--------------------------------------------------------------------------|
|--------------------------------------------------------------------------|
|-17b~~--17b-15-17-----15-17--(b)17bp15-17---14h15p14----------------------|
|------------------17--------------------------------15--------------------|
|------------------------------------------------------15------------------|
|--------------------------------------------------------------------------|

(5:21)
|--------------------------------------------------------------------------|
|----------------------------------------------------18--------------------|
|--------------------------------------17b-17----17b----(b)17--------------|
|--------15-17bA.H.-15--17----15h17~~--------------------------------------|
|-15-17--------------------17----------------------------------------------|
|--------------------------------------------------------------------------|

(5:27)
|-----17p15-17b~~(b)17-15-----------------------------20b~bp18-20bp18-20---|
|---x--------------------18b-(b)18------------15~~\------------------------|
|-x--------------------------------17---15-17------------------------------|
|--------------------------------------------------------------------------|
|--------------------------------------------------------------------------|
|--------------------------------------------------------------------------|

(5:36)
|---------15-18-----15-18--------------------------------------------------|
|-----18b-------18b-------18b~\----18---18---------------------------------|
|---x------------------------------17b-----17-15---15b----17----15---------|
|-x----------------------------------------------------17----17----17------|
|--------------------------------------------------------------------------|
|--------------------------------------------------------------------------|

                          (5:46)
|---------------------------------------------------------3----3-----------|
|-----------------------------------------3-3---------5/7------------------|
|-----------------------------------------3-3---------5/7---5b---5bp3---3--|
|----------------------------------------------5~---------------------5----|
|-/15-15--13b-----3-1~-----------------------------------------------------|
|-------------15----------/3-3-1-3--3-1------------------------------------|

         (5:53)
|------------------3---------------------------------------1-------1-1-----|
|-------------3------3-------------------------------------1-------1-1-----|
|-5p3----5b~~---5b-----5bp3-5p3---3------------------------2-------2-2-----|
|-------------------------------5---5-3--------------------3-------3-3-----|
|---------------------------------------3bp1---------------3-------3-3-----|
|--------------------------------------------3---6-3-1~~---1-------1-1-----|

(6:02)                                      (6:07)
|---------------------------------------------6-6--5-5-5--3--1-1--1/3-3----|
|--------------------------------------------------------------------------|
|--------------3-5b-3-5b-5---3-5b-5bp3-5~-----7-7--5-5-5--3--0-0--1/3-3----|
|-------5bA.H.-------------5----------------1/8-8--------------------------|
|--------------------------------------------------------------------------|
|-1/3----------------------------------------------------------------------|

                                               (6:25)
|-3-5b~~----5b~p3------------------------------------10~~~-----10/18~~~~~--|
|-----------------6~~~-----------------------------------------------------|
|-------------------------------3~~~------------//11~~---------------------|
|-------------------------------3~~~---------------------------------------|
|-------------------------------1~~~---------------------------------------|
|--------------------------------------------------------------------------|


**This should be very close--but feel free to improvise on parts...




---------/----------------------------------------------------------\-------
--------/-----------------------Take It Back-------------------------\------
--------\---Words & music by Gilmour, Samson, Laird-Clowes & Ezrin---/------
---------\----------------------------------------------------------/-------

Tabbed by: Jack Prenger



HEAVEY ECHO THROUGHOUT
	G
e:------------|
B:------3--3--|
G:----0-------|
D:--5-----5---|  First sequence.....Repeat 12 times
A:------------| (mute D string with wrist)
E:------------|
	G		      ^--let ring (LOTS of echo)
e:-------------------3---3----3--------------------------------|
B:------3--3-----3-----3------1-(pause-------3---3-------------|
G:----0--------0---0-------0-----with------0-------------------|
D:--5-----5--5-------------------echo)----5-----5--------------|
A:-------------------------------------------------------------|
E:-------------------------------------------------------------|

Repeat first sequence a few more times

e:---------------3--3------------------------------------------|
B:------3--3------3-1------(pause with echo again)-------------|
G:----0--------0-----------------------------------------------|
D:--5-----5--5-------------------------------------------------|
A:-------------------------------------------------------------|
E:-------------------------------------------------------------|

repeat first sequence

e:-------3----|
B:---3---3----|
G:----0--0----|<----starts into lyrics
D:-5-----5----|
A:------------|
E:------------|


(G)
Her love rains down on me, easy as the breeze
I listen to her breathing, it sounds like the waves on the seas
(C)
I was thinking all about her, burning with rage and desire
(G)
We were spinning into darkness, and the earth was on fire

She could (Cadd9) Take it back, She might (Csus) take it back

   (G)
Someday


So I spied on her, I lied to her, I made promises I could not keep.
And I here her laughter rising, rising from the deep.

And make here prove her love to me, I take all that I can take.

I push her to the limit, to see if she would break.

She might take it back, She could take it back

Someday
(continuous G for a moment)


           ^-----let the 8 ring with 10-------------------|
e:-------------------10-----------------------------------|
B:-8(hold)/10--12--8-----(12-10-8)---------| <---(12-10-8-|=hit string once,
G:--------------------------------------------------------|  
D:--------------------------------------------------------|
A:--------------------------------------------------------|
E:--------------------------------------------------------|

e:-------------5h7----3------5/7---10-10h12--12bend13--12/10--|
B:-8/5---5(p)-------3---3-------------------------------------|  (p) shake/
G:------------------------------------------------------------|hammer finger
D:------------------------------------------------------------|when note is
A:------------------------------------------------------------|played
E:------------------------------------------------------------|

e:-7/3---------------------------------------------------------|
B:----3----0h3--3h5-5--5h7-7/8-8/10--12---12/(mute after 8)----|
G:------0------------------------------------------------------|
D:-------------------------------------------------------------|
A:-------------------------------------------------------------|
E:-------------------------------------------------------------|

			(h)=hit 3, let 3 finger up with other finger on 2
e:--3h2--3h0----3h2--3h0-----3h2-3-------3h2-3------------|-------------| \
B:---------------------------------3-----------3------------------------|  \
G:--------------------------------------------------------|   > Repeat--| x3
D:----------------------------------------------------------------------|  /
A:----------------------------------------------------------------------| /
E:----------------------------------------------------------------------|


At the end of the 3rd repeat, a secound guitar comes in with this
(you'll get the idea)
e:---15h14--15h12----15h14--15h12----15h14--15-----15h14-------|
B:---------------------------------------------15--------15----|
G:-------------------------------------------------------------|
D:-------------------------------------------------------------|
A:-------------------------------------------------------------|
E:-------------------------------------------------------------|

e:---15h14--15h12----15h14--15h12-----15h14--17----15----------|
B:-------------------------------------------------15----------|
G:-------------------------------------------------0-----------|
D:-------------------------------------------------17----------|
A:-------------------------------------------------------------|
E:-------------------------------------------------------------|

Now I have seen the warnings, screaming from all sides
It's easy to ignore them, God knows I've tried

All of of this temptation, (inner turned my faithfull eyes?)

Till I couldn't see the danger, or here the rising tide

She could take it back, she will take it back

Someday

She will take it back. She will take it back

Someday(Cadd9)   G

				Then more of the same at the end



---------------------/----------------------------\-------------------------
--------------------/------Coming Back To Life-----\------------------------
--------------------\---Words & music by Gilmour---/------------------------
---------------------\----------------------------/-------------------------


Tabbed by: The.White.Rider



INTRO:
   No Chord              (C)
    (keyboard fade in) 
e-|--------------------|----------|--------------------------------|
B-|--------------------|----------|------------5-------------------|
G-|--------------------|----------|--7---b(9)-----(9)b(10)r(9)r7---|
D-|--------------------|--5---5---|--------------------------------|
A-|--------------------|----------|--------------------------------|
E-|--------------------|----------|--------------------------------|

                                   Fmaj7
e-|------------------------------|--------------------------------|
B-|------------------------------|--------------------------------|
G-|----------5-7-7b(9)----r7-----|------------5--7--7b(9)r7p5-----|
D-|--------5------------------5--|-5~------7-------------------7--|
A-|------------------------------|--------------------------------|
E-|------------------------------|--------------------------------|

                              G        Am
e-|----------------------------------|-----------------------------|
B-|----------------------------------|-----------------------------|
G-|--5---------7p5------7--7b(9)-----|----------7---5\4--5/7~------|
D-|----------------------------------|-----------------------------|
A-|----------------------------------|-----------------------------|
E-|----------------------------------|-----------------------------|

    G                             F
e-|----------------------------|------------------------------------------|
B-|----------------------------|------------------------------------------|
G-|-----------------5--4-------|--5-----4---------------------------------|
D-|------------------------7---|-----7-----5/7---5------------------------|
A-|----------------------------|----------------------6p5p3-----5-----3~--|
E-|----------------------------|-----------------------------5-----5------|

                       Fsus2    C
e-|---------------------------|------------12--------------|
B-|---------------------------|-15---b(17)--------(17)r15--|
G-|--------------------12--12-|----------------------------|
D-|---------------------------|----------------------------|
A-|---------------------------|----------------------------|
E-|---------------------------|----------------------------|

                                   Fmaj7
e-|------------------------------|-----------------------------------------|
B-|-----13-15-15b(17)~---r15-----|------------------13-----15b(17)13-15----|
G-|--12-----------------------12-|-12~------12/14-------14--------------14-|
D-|------------------------------|-----------------------------------------|
A-|------------------------------|-----------------------------------------|
E-|------------------------------|-----------------------------------------|

                                      Am
e-|---------------------------------|-----5-------------------------|
B-|-13-15--15b(17)r15p13------------|---5----8----------------------|
G-|----------------------14---------|-x--------7b(9)~-------7--5\4--|
D-|---------------------------------|-------------------------------|
A-|---------------------------------|-------------------------------|
E-|---------------------------------|-------------------------------|

     G                            F
e-|----------------------------|-------------------------------------------|
B-|----------------------------|-------------------------------------------|
G-|--5/7~---------5-4---5---4--|-----------------------5-----5-7b(9)r7p5---|
D-|-------------------7---7----|-5--7----------------5---7---------------7-|
A-|----------------------------|-------6p5p3---3-5/7-----------------------|
E-|----------------------------|-------------5-----------------------------|

                                    Am7
e-|-------------------------------|----------------------------|
B-|----------------------15b(17)~-|--------------------13-15---|
G-|-------------------------------|-------------12/14----------|
D-|-------------------------------|----------------------------|
A-|-------------------------------|----------------------------|
E-|-------------------------------|----------------------------|

    F                             Am7
e-|-----------------------------|---------------------------------|
B-|-15-b(17)r15p13-15~----------|-------------------------------8-|
G-|-----------------------------|-5-7--7b(9)~------------7b(9)----|
D-|--------------------------7--|---------------------------------|
A-|-----------------------------|---------------------------------|
E-|-----------------------------|---------------------------------|

    Bb                             Am7
e-|------------------------------|----------------------------|
B-|-8--6--8p6p5-h6--6-5h6p5----5-|----------------------------|
G-|--------------------------7---|-7b(9)------r7p5---5-7-7----|
D-|------------------------------|-----------------7----------|
A-|------------------------------|----------------------------|
E-|------------------------------|----------------------------|

    Gsus4                      C
e-|-------------------------------|--------------------------||
B-|-------------------------------|--------------------------||
G-|------b(9)r7p5-7---p5p4----h5--|--------------------------||
D-|-------------------------------|--------------------------||
A-|-------------------------------|--------------------------||
E-|-------------------------------|--------------------------||


VERSE:
C                                    Fmaj7
Where were you when I was burned and broken,
          Am               G              F
While the days slipped by, from my window watching?
    C                                        Fmaj7
And Where were you when I was hurt and I was helpless?
           Am                     Gadd9             F
Beause the things you say and the things you do surround me
               Am7                 F
While you were hanging yourself on someone else's words,
Am                           Bb
Dying to believe in what you heard,
Am7           Gsus4             G       Csus2
I was staring straight into the shining sun

Csus2               Fsus2           F 
Lost in thought and lost in time,
          Am                    G5                   F
While the seeds of life and the seeds of change were planted
   Csus2         C             Fsus2
Outside the rain fell dark and slow,
        Am               G                          Fsus2
While I pondered on this dangerous but irresistible pastime
         Am                        Fsus2
I took a heavenly ride through our silence
           Am              Bbsus2
I knew the moment had arrived
    Am                   Gsus4             Csus2
For killing the past and coming back to life

GUITAR SOLO:  
e:------------------------------------------------------------------------
B:-----------8---------------------------8--10--10b13==r10--8--10---------
G:-----7b9===---b9r7--5-----5--7b9===-7---------------------------9p7--5--
D:--5--------------------7------------------------------------------------
A:------------------------------------------------------------------------
E:------------------------------------------------------------------------

--------------------------------------------------------------------------
--------------------10--8-------------------------------------------------
-----5--h7-----7b9---------9--9s7--5--7b8r------------5--7-----5--7b9-----
--7-----------------------------------------7--5--h7--------7-------------
--------------------------------------------------------------------------
--------------------------------------------------------------------------

--------------------------------------------------|--3/8--10--10b12--15---
------------------8--5----------------------------|-----------------------
--7p5-----5--7b9--------7b8--5-----7=--5--7b--/0--|-----------------------
-------7------------------------7-----------------|-----------------------
--------------------------------------------------|-----------------------
--------------------------------------------------|-----------------------

    s.r.
--b12rrrr10--8------8--/17--17--15--15--13--13--12h13p12------------------
----------------10----------------------------------------13------11/15---
--------------------------------------------------------------12----------
--------------------------------------------------------------------------
--------------------------------------------------------------------------
--------------------------------------------------------------------------

--12\8----/20--20--20--19h20--20--19--19--17--17--19--15--17--12--15--10--
--------------------------------------------------------------------------
--------------------------------------------------------------------------
--------------------------------------------------------------------------
--------------------------------------------------------------------------
--------------------------------------------------------------------------

--12b--8----------8------10b12r10--8--10------8--8s0----------------------||
----------10--10-----10-------------------10------------------------------||
--------------------------------------------------------------------------||
--------------------------------------------------------------------------||
--------------------------------------------------------------------------||
--------------------------------------------------------------------------||

SECOND VERSE : 
-------------8/10--8-----|---------------13p10------10------------|-------
----xxx-x----8/10--10----|----------------------13------13b15r13--|-------
----xxx-x----------------|----------------------------------------|-------
----xxx-x----------------|----------------------------------------|-------
-------------------------|----------------------------------------|-------
-------------------------|----------------------------------------|-------
 ...silence              | ...had begun                           |

----11p9p8--h9 9--9\2----------------
-------------------------------------
-------------------------------------
-------------------------------------
-------------------------------------
-------------------------------------
 ...shining  sun                 

         Am                        Fsus2
I took a heavenly ride through our silence
           Am               Bbsus2
I knew the waiting had begun
Am                       G                Csus2
And headed straight... Into the shining sun

OUTRO SOLO:
-----------------8--10--10/12===12\0--|-----------------------------------
-------8--8--10-----------------------|-----------------------------------
--0/7---------------------------------|--0--0--7b9r8b10r7b9r7p5h7p5--/9---
--------------------------------------|-----------------------------------
--------------------------------------|-----------------------------------
--------------------------------------|-----------------------------------
                                               ^ 
----------------------||--12--12--12==--12------12------12==--12--||------
------8---------------||--13--13--13==--13--13--13--13--13==--13--||------
--10-----9\5-----5/9--||--12--12--12==--12--12--12--12--12==--12--||------
--------------7-------||------------------------------------------||------
----------------------||------------------------------------------||------
----------------------||------------------------------------------||------
release immediately  ^   ^------- repeat this section 3 times ------^

--/15--15------15------15--/17--17--15===--12--15--17b20===---\15h17------
---13--13--13--13--13--13-------------------------------------------------
--------------------------------------------------------------------------
--------------------------------------------------------------------------
--------------------------------------------------------------------------
--------------------------------------------------------------------------

--b20==r17--15h17p15p12--15--12b13--10--10\8--8\7--7\5--5------7--8/10----
-----------------------------------------------------------10-------------
--------------------------------------------------------------------------
--------------------------------------------------------------------------
--------------------------------------------------------------------------
--------------------------------------------------------------------------

--8--7--8--7------7/8---------------------7--8----------------------------
--------------10-------8--8--8-----8--10--------0--0/8--------------------
--------------------------------9-----------------------9--7--7/9--5-5----
--------------------------------------------------------------------------
--------------------------------------------------------------------------
--------------------------------------------------------------------------

--------------------------------------------------------------------------
--------------------------------------------------------------------------
------5-5---0-5-5---0-5-5---0-5-5--7/9--5--5--5--4--5--4------------------
--7-7-----7-------7-------7-------------------------------7--5--5/7--5----
--------------------------------------------------------------------------
--------------------------------------------------------------------------

                                            s.r.
----------------------------|---------------------------------------------
----------------------------|---------------------------------------------
----------------------------|--9--9--9--9b10rrrr5--7p5--12\9--9--7/9\7p5\-
----------------------------|---------------------------------------------
--7\5--3-----------3/5--p3--|---------------------------------------------
----------5--3--5-----------|---------------------------------------------

-----------------------------------------8/10--8----------------5---------
------------------------------------xxx--8/10--8-----5/8---5/8-----8--5h8-
--5---------------------------------xxx-----------------------------------
-----7------------------------------xxx-----------------------------------
--------7\5--3--5--5--5--3--3=====----------------------------------------
----------------5--5--5--3--3=====----------------------------------------

--------------------------------------------------------------------------
-----5---------------------------5--6--8--(3)/5----------------0----------
--7-----5------------------5--5------------------5--0--5======\0----------
----------------------5h7------------------------------5======\0----------
-------------------------------------------------------3======\-----------
--------------------------------------------------------------------------
                                 ^ v.rapid slide from 3rd fret


--------------/-----------------------------------------------\-------------
-------------/------------------Keep Talking-------------------\------------
-------------\----Words & music by Gilmour, Wright & Samson----/------------
--------------\-----------------------------------------------/-------------


This tab contains parts from both my (thetabmaker93) tab and Bissette-n`s tab.


= susatain
~ vibrato
/ slide up
\ slide down
2^(4)^2 pick second fret then bend to pitc corresponding fourth fret
        then release back
(4)^2 the same as above, but prebend and then pick and release
p pulloff
h hammeron
<7> natural or artificial harmonics at seventh fret
[7] pinch harmonic at seventh fret
dive means dive with your whammy or tremolo arm

It begins with theese notes played with an e-bow

e-------------------|
B--8==-10==-12==----|
G-------------------|
D-------------------|
A-------------------|
E-------------------| repeat until first solo

First solo with clean sound and delay and some flanger like sound
e--0-----------------------------------------------12~------|
B--0--------------------------------------------15----------|
G--0---14^(16)(16)^14~-^(16)^14p12-14~--14^(16)-------------|
D--2--------------------------------------------------------|
A--2--------------------------------------------------------|
E--0--------------------------------------------------------|


e--12h15-14~-15p14p12h14~---------------------------------------|
B---------------------------15----------------------------------|
G------------------------------14~--14^(16)^14p12~-12h14p12\11~-|
D---------------------------------------------------------------|
A---------------------------------------------------------------|
E---------------------------------------------------------------|

e----------------------------------------------------------------|
B----------------------------------------------------------------|
G--11h12p11\9~--7-/12-12~-7h9/11-^(12)^11p9-11~----9-11-11^(12)~-|
D----------------------------------------------------------------|
A----------------------------------------------------------------|
E----------------------------------------------------------------|

e-----------------------------------------------------------|
B-12~--15^(17)^(17)^(17)^15~--------------------------------|
G-----------------------------------------------------------|
D-----------------------------------------------------------|
A-----------------------------------------------------------|
E-----------------------------------------------------------|


Then theres the repeating bagcking guitar, played with heavy delay.
e--------------------------------------------|
B--------------------------------------------|
G--------------------------------------------|
D--------------------------------------------|
A-------5-----7-----7-----7-----5-----5------|
E----0----(0)-----0-----0-----0-----0--------|


Em
Theres a silence around me

i can't seem to think straight
D/E
i sit in the corner
C/E
and no-one can bother me


Em
I think i sould speak now (why won't you talk to me?)

I can't seem to speak now (you never talk to me)
Am
My words won't come out right (what are you thinging?)
Em
I feel like i'm drowning (what are you feeling?)

I'm feeling weak now (why won't you talk to me?)

But i can't show my weakness (you never talk to me)
D/E
I sometimes wonder (what are you thinging?)
C/E                                              Em
Were do we go from here (what are you feeling?)

Bridge
Cmaj7                                            Bm7
It doesn't have to be like this, all we need to do is keep talking

Solo

Guitar 2 (with distortion)
e-------------------------------------------------12--|
B-15-------15-----------------------------12---15b17--|
G-14b16--pb16r14p12-14--14p12-------12----12----------|
D-----------------------------14p12----14-------------|
A-----------------------------------------------------|
E-----------------------------------------------------|

e-12----12--------12--x-----------------------------14----|
B----15b17-----15b17--x--7---------7-----7-7h8------------|
G---------------------x--7--7\4/7--7-----7-7h9----------9-|
D---------------------x--7---------7-9---7-7h9-9-9--------|
A---------------------------------------------------------|
E---------------------------------------------------------|

e--------12---------------------------------------0--------------|
B------12---15b17~----15b17r15p12-------------------3------------|
G-14b16--------------------------14-12~-------2b4-----2p0--------|
D---------------------------------------------------------2p0-2~-|
A----------------------------------------12\---------------------|
E----------------------------------------------------------------|

e-----------------------------------------------------|
B-----3---------0----------7-7h8-------7-7-8p7--8p7---|
G-------0-0--2--0----------7-7h9-------7-7-9p7--9p7-9-|
D--------------------------7-7h9-------7-7-9p7--9p7---|
A-----------------------------------------------------|
E-10\-------------------------------------------------|

e--------------------------------------------------|
B------5--8b10~------------------------------------|
G-7b9---------------7b8r7p5---5~-------------------|
D---------------------------7-----7-(5)------------|
A----------------------------------------5p3p0-----|
E----------------------------------------------3-0-|

e----------------------------------------12---------|
B-------------7------7-7---------0-15b17-----pb17~~-|
G-------------7--(9)-7-7-9~-------------------------|
D---------------------------------------------------|
A-7-7-5-x---x---------------------------------------|
E---------7-----------------------------------------|
 p.m------------------------------------------------|


Synth solo:

  Guitar 2 (no distortion)
e-0----------------------------0-----------0--------|
B-0----------------------------7-----------5--------|
G-0----------------------------7-----------5--------|
D-2----------------------------7-----------5--------|
A-2----------------------------5-----------3--------|
E-0----------------------------0-----------0--------|

e-0-----------0--------0---------0------------|
B-0--0-0--3-3-0--------0--0--3-3-0------------|
G-0--0-0--2-2-0--------0--0--2-2-0------------|
D-2--2-2------2--------2--2------2------------|
A-2-----------2--------2---------2------------|
E-0-----------0--------0---------0------------|

e-0--0-0----------------------------------------------------0-|
B-1--1-1----------------------------------------0--0-0--3-3-0-|
G-2--2-2----------------------------------------0--0-0--2-2-0-|
D-2--2-2----------------------------------------2--2-2------2-|
A-0--0-0---------------0---0-0--2p0---2p0-------------------2-|
E-----------------------------------3-----3p2p0-------------0-|


Em
(why won't you talk to me?) I feel like i'm drowning

(you never talk to me) you know i can't breathe now
D/E
(what are you thinging?) were going no-were
C/E                                       Em
(what are you feeling?) were going no-were


Talkbox solo:

e-----------------------------------------------------------|
B-----------------------------------------------------------|
G--14^(16)^(16)^(15)^(15)-14-12-----------------------------|
D-----------------------------------------------------------|
A-----------------------------------------------------------|
E-----------------------------------------------------------|
      slow release while picking

e--------------------------------------------------------------|
B--------------------------------------------------------------|
G--0-2-^(4)^2-0-2-0--------------------------------------------|
D-------------------2-dive--------2^(3)^2p0-2-2^(3)-2p0--------|
A-------------------------------------------------------2-dive-|
E--------------------------------------------------------------|

"where do we go from heeeeeeere"
e-----------------------------------------------------------|
B---------------------------------15^(17)^(17)^(17)---------|
G-----------------------------------------------------------|
D-----------------------------------------------------------|
A-----------------------------------------------------------|
E-----------------------------------------------------------|
                                                  Slow release


e-------------------------------------------------------|
B--15p12-15^(17)~----15p12-15^(17)~----12---------------|
G-----------------------------------------14-12~--------|
D-------------------------------------------------------|
A-------------------------------------------------------|
E-------------------------------------------------------|

e-----------------------------------------------------------|
B-----------------------------------------------------------|
G---14^(16)^(16)-14p12-14^(16)~-----12-14~---14-^(16)-------|
D-----------------------------------------------------------|
A-----------------------------------------------------------|
E-----------------------------------------------------------|

e-----------------------------------------------------------|
B-----------------------------15----------------------------|
G--12-14-^(16)--12-14^(16)~------^(16)^14-------------------|
D-----------------------------------------------------------|
A-----------------------------------------------------------|
E-----------------------------------------------------------|
                                   slow release

"... keep .. talking"
e---------------------------------------------------|
B---------------------------------------------------|
G---------------------------------------------------|
D---------------------------------------------------|
A---------------------------------------------------|
E-------------------------7------------0-dive-slow--|
                          oa oa oa oa  oaaaahhh.....


Lost For Words-------------\------------------
---------------\----Words & music by Gilmour & Samson----/------------------
----------------\---------------------------------------/-------------------


Tabbed by: Mikko Laaninen


--7(9)---| =Bend up
--(10)9--| =Bend, then play note & release
--4(5)4--| =Bend up & back
--8/10---| =Slide up
--9V7----| =Slide down
--0>2----| =Hammer on

Intro (gtrs 1&2):
               F               C                 F
e-----------vv---------------v-----------------v---------------v--|
B-----------vv---------------v-----------------v---------------v--|
G--------0--vv-0>2---2-2--0--v--------------0--v-0>2---2-2--0--v--|
D----0>2----vv---------------v-0>2------0>2----v---------------v--|
A-3---------vv---------------v-------3---------v---------------v--|
E-----------vv---------------v-----------------v---------------v--|

  C                 F               Am      G               F      C
e-----------------v---------------v-------v---------------v----------------|
B-----------------v---------------v-------v---------------v----------------|
G--------------0--v-0>2---2-2--0--v-------v---------------v------------0---|
D-0>2------0>2----v---------------v-2-----v-0---0>2-0-----v--------0>2-----|
A-------3---------v---------------v-------v------------3--v-0---3----------|
E-----------------v---------------v-------v---------------v----------------|

Solo 1 (gtr 1 continues intro fig.):

  F                        C           F
e------------------------v-----------v------------------------v--|
B-------8----------------v-----------v-0-1-1--1---------------v--|
G---7/9----9V7-5--7-5----v-5--7(9)---v-0-2-2--2--0----0-------v--|
D---------------------7--v-----------v---3-3--3----3--0--0>2--v--|
A------------------------v-----------v------------------------v--|
E------------------------v-----------v------------------------v--|

  C                 F                       Am
e------------8-7--v-----------------------v-------------v--|
B----------8------v-8/10--8---------------v-------------v--|
G------7/9--------v---------9V7-5--7-5----v-5--7(9)-5---v--|
D-2---------------v--------------------7--v-------------v--|
A-3---------------v-----------------------v-------------v--|
E-----------------v-----------------------v-------------v--|

  G                   F                         F    C
e-------------------v-------------------------v-----------v--|
B-------------------v-------------------------v-----------v--|
G-4(5)4-------------v-------------------------v-----------v--|
D-------5-5------5--v-5/7--5--5---------------v-----------v--|
A------------5/7----v-----------7V5-3--5-3-0--v-3---------v--|
E-------------------v-------------------------v-----------v--|
                                                     I was...

      F                       C
I was spending my time in the doldrums
      F                       C
I was caught in a cauldron of hate
       F              Am
I felt persecuted and paralysed
               G                          F
I thought that everything else would just wait

While you are wasting your time on your enemies
Engulfed in a fever of spite
Beyond your tunnel vision reality fades
Like shadows into the night

To martyr yourself to caution
Is not going to help at all
Because there'll be no safety in numbers
When the Right One walks out of the door


D  F  Bb  Am  Bb  Dm  F  D

        C                         G
Can you see your days blighted by darkness?
      C                               G
Is it true you beat your fists on the floor?
C                      Em
Stuck in a world of isolation
          D                  C
While the ivy grows over the door

So I open my doors to my enemies
And I ask could we wipe the slate clean
But the tell me please go fuck myself
You know you just can't win

Solo 2:
           C                G                   C
e--------v----------------v-------------------v------------------------v-|
B--------v----------------v-------------------v--------------3--3--3-5-v-|
G--------v----------------v-------------------v-2/4--0---2/4-----------v-|
D------5-v-5/7--5-------5-v--------------2----v------------------------v-|
A--5/7---v----------5/7---v-5/7--5---2/5----3-v------------------------v-|
E--------v----------------v-------------------v------------------------v-|

  G                C                   Em
e----------------v-------------------v-------------v-|
B-3----------8-7-v-------------------v-------------v-|
G----------7-----v-9---7-7--9--------v-------------v-|
D------7/9-------v-------------9V7-5-v-7/9-5--5--7-v-|
A----------------v-------------------v-------------v-|
E----------------v-------------------v-------------v-|

  D                          C              C
e--------------------------v--------------v----3/5-5--3-------v-|
B--------------------------v--------------v----3/5-5--3--3/5--v-|
G--------------------------v--------------v--------------2/4--v-|
D-4--4>5-5/7---5--4--2--0--v--------------v-------------------v-|
A--------------------------v-3--3--2------v-------------------v-|
E--------------------------v----------3---v-------------------v-|

  G            C                              G
e------------v------------10--10------------v-----12-12--v-|
B-3--3/5-5---v-------8/10---------12V10-8---v-8----------v-|
G-2--2/4-4---v---7/9----------------------9-v------------v-|
D------------v------------------------------v------------v-|
A------------v------------------------------v------------v-|
E------------v------------------------------v------------v-|

  C                       Em                       D
e-12(13)12--------------v------------------------v----------------------v-|
B----------13-13--------v-10/12--12V10-10-8-8-7(8v)7--------------------v-|
G-----------------12-12-v------------------------v---7-7--------(10)9-7-v-|
D-----------------------v------------------------v-------7>9-7----------v-|
A-----------------------v------------------------v----------------------v-|
E-----------------------v------------------------v----------------------v-|

  C                      C            C
e----------------------v------------v------------------------v-|
B----------------------v------------v------------------------v-|
G-9--7--7--------------v------------v--------7---------------v-|
D---------9V7-5--7-5---v-5--------5-v-5--7/9----9V7-5--7-5---v-|
A--------------------7-v------5/7---v----------------------7-v-|
E----------------------v------------v------------------------v-|

  G                 C                       G
e-----------------v-----------------------v----------------------------v-|
B----------------8v--10-8---12(13)-(13)12-v-12(13)-12/13V12--10V8--8V7-v-|
G--------7---7/9--v-----------------------v----------------------------v-|
D-5--7/9----------v-----------------------v----------------------------v-|
A-----------------v-----------------------v----------------------------v-|
E-----------------v-----------------------v----------------------------v-|

  C             Em                    D
e-------------v---------------------v---------------------v-|
B-------------v---------------------v---------------------v-|
G-9---7-------v-------------7-------v---------------------v-|
D-------9V7-5-v-5-5---7-7/9---9V7-5-v-5/7-7--7/9-7--5--4--v-|
A-------------v---------------------v---------------------v-|
E-------------v---------------------v---------------------v-|

  C                   C           G                  C            G
e-------------------v-----------v------------------v------------v--------|
B-------------------v-----------v------------------v------------v--------|
G-------------------v-----------v------------------v------------v--------|
D-4>5--4--2--0------v-----------v------------------v------------v--------|
A---------------2-0-v-----2/3-2-v-0----------5-5---v-7--7-5-5---v-5------|
E-------------------v-3---------v----3---5/7-----7-v----------7-v--------|



-------------------/---------------------------------------\----------------
------------------/--------------High Hopes-----------------\---------------
------------------\----Words & music by Gilmour & Samson----/---------------
-------------------\---------------------------------------/----------------


Tabbed by: thetabmaker93 and an unregistered user



Play this part with a pitch-transposer. It's one octave higher than written.

  (piano)                                                      (repeat 4X)
E-|-----15--------15--------18--------18--------11--------11--------------|
B-|-----13--------13--------16--------16---------9---------9--------------|
G-|----------------------------------------------------------------------*|
D-|----------------------------------------------------------------------*|
A-|-----------------------------------------------------------------------|
E-|-----------------------------------------------------------------------|
     ^                 ^                    ^                      ^
  (bells sound on accent marks above)

   (piano) (Lyrics start)                                      (repeat 4X)
E-|------3--------3--------6--------6-------------------------------------|
B-|------1--------1--------4--------4--------1--------1-------------------|
G-|*-----------------------------------------1--------1------------------*|
D-|*---------------------------------------------------------------------*|
A-|---------------------------------------------------------3----------3--|
E-|-----------------------------------------------------------------------|


   The low notes in the following are doubled by another guitar and a bass:
E-|-------------------------------------------|
B-|---4----4----3----3----1----1----0---------|
G-|---5----5----3----3----1----1----0---------|
D-|-------------------------------------------|
A-|---3----------------------------------2----|
E-|-------------4---------3---------3---------|


E-|---------------------------------------------|
B-|----4----4----3----3----1----1----0----------|
G-|----5----5----3----3----1----1----0----------|
D-|---------------------------------------------|
A-|----3-----3--1-------------------------------|
E-|--------------4---------3----------3----3----|


                                                               (repeat 4X)
E-|------3--------3--------6--------6-------------------------------------|
B-|------1--------1--------4--------4--------1--------1-------------------|
G-|*-----------------------------------------1--------1------------------*|
D-|*---------------------------------------------------------------------*|
A-|---------------------------------------------------------3----------3--|
E-|-----------------------------------------------------------------------|


   Chorus (piano)
   ("The grass was greener....")
E-|------------------------------------------------------------------------|
B-|------------------------------4-----------3-----------------------3-----|
G-|*-----------------------------5-----------3-----------5-----------3-----|
D-|*--------------------------5-----5-----5-----5--------6--------3-----3--|
A-|------------------------3--------------------------6-----6--1-----------|
E-|------------------------------------3-----------4-----------------------|
  |                                                                        |
  | (Gtr doubled by bass)                                                  |
E-|------------------------------------------------------------------------|
B-|------------------------------------------------------------------------|
G-|*-----------------------------------------------------------------------|
D-|*-----------------------------------------------------------------------|
A-|------------------------3--------3--------------------------------------|
E-|------------------------------------3--------3--4--------4--6--------6--|


   (Piano and Gtr. 1)
E-|------------------------------------------------------|
B-|------------4-----------3-----------------------3-----|
G-|------------5-----------3-----------5-----------3----*|
D-|---------5-----------5-----5--------6--------3-----3-*|
A-|------3--------3-----------------6-----6--1-----------|
E-|------------------3-----------4-----------------------|
  |                                                      |
  |                                                      |
  | (Gtr. 2 and bass)                                    |
E-|------------------------------------------------------|
B-|------------------------------------------------------|
G-|-----------------------------------------------------*|
D-|---------------------------5--5--------5--6----------*|
A-|------3--------3-5-6----------------------------------|
E-|------------------------------------------------------|

                                                               (repeat 4X)
E-|------3--------3--------6--------6-------------------------------------|
B-|------1--------1--------4--------4--------1--------1-------------------|
G-|*-----------------------------------------1--------1------------------*|
D-|*---------------------------------------------------------------------*|
A-|---------------------------------------------------------3----------3--|
E-|-----------------------------------------------------------------------|

   The bass notes in the following are doubled by another guitar and a bass:
E-|-------------------------------------------|
B-|---4----4----3----3----1----1----0---------|
G-|---5----5----3----3----1----1----0---------|
D-|-------------------------------------------|
A-|---3----------------------------------2----|
E-|-------------4---------3---------3---------|


E-|--------------------------------------------|
B-|----4----4----3----3----1----1----0---------|
G-|----5----5----3----3----1----1----0---------|
D-|--------------------------------------------|
A-|----3-----3--1------------------------------|
E-|--------------4---------3---------3----3----|


    Bridge:
    (Gtr. 1)
E-|------------------------------------------------------------------------|
B-|------------------------------------------------------------------------|
G-|------------------------------------------------------------------------|
D-|-2----2/4-4----4/5-5----5/-9--9--7--------------------------------------|
A-|------------------------------------------------------------------------|
E-|------------------------------------------------------------------------|
  |                                                                        |
  | Gtr 2                                                                  |
E-|------------------------------------------------------------------------|
B-|------------------------------------------------------------------------|
G-|------------------------------------------------------------------------|
D-|--------------------------------7--9--10--7--9--5--7--7h9p7-5h7p5-3h5p3-|
A-|---------------------------------------^-----^-----^--------------------|
E-|------------------------------------------------------------------------|

    Gtr 1
E-|------------------------------------------------------------------------|
B-|------------------------------------------------------------------------|
G-|------------------------------------------------------------------------|
D-|-2----2/4-4----4-5-5----5/-9--9--9----5--7------------------------------|
A-|------------------------------------------------------------------------|
E-|------------------------------------------------------------------------|
  |                                                                        |
  |  Gtr 2                                                                 |
E-|------------------------------------------------------------------------|
B-|------------------------------------------------------------------------|
G-|------------------------------------------------------------------------|
D-|---------------------------------------------7--10--9/-12----10p9--7----|
A-|------------------------------------------------------------------------|
E-|------------------------------------------------------------------------|

     Gtr 1
E-|------------------------------------------------------------------------|
B-|------------------------------------------------------------------------|
G-|------------------------------------------------------------------------|
D-|-2----2/4-4----4/5-5----5/-9--9--7--------------------------------------|
A-|------------------------------------------------------------------------|
E-|------------------------------------------------------------------------|
  |                                                                        |
  |  Gtr 2                                                                 |
E-|------------------------------------------------------------------------|
B-|------------------------------------------------------------------------|
G-|------------------------------------------------------------------------|
D-|--------------------------------------7--10--9----5--9--7----5--7--7/9--|
A-|------------------------------------------------------------------------|
E-|------------------------------------------------------------------------|

    Gtr 1
E-|------------------------------------------------------------------------|
B-|------------------------------------------------------------------------|
G-|------------------------------------------------------------------------|
D-|-2---2/4-4----4-5-5----5/-9--9--9---5--7--------------------------------|
A-|------------------------------------------------------------------------|
E-|------------------------------------------------------------------------|
  |                                                                        |
  |Gtr 2                                                                   |
E-|------------------------------------------------------------------------|
B-|------------------------------------------------------------------------|
G-|------------------------------------------------------------------------|
D-|-------------------------------------------7\5--3--2--3--0--2-----------|
A-|---------------------------------------------------------------3--0-----|
E-|---------------------------------------------------------------------3--|

Play this part with a pitch-transposer. It's one octave higher than written.

  (piano)
E-|-----15--------15--------18--------18--------11--------11--------------|
B-|-----13--------13--------16--------16---------9---------9--------------|
G-|*---------------------------------------------------------------------*|
D-|*---------------------------------------------------------------------*|
A-|-----------------------------------------------------------------------|
E-|-----------------------------------------------------------------------|
     ^                 ^                    ^                      ^
  (bells sound on accent marks above)

                                                               (repeat 4X)
E-|------3--------3--------6--------6-------------------------------------|
B-|------1--------1--------4--------4--------1--------1-------------------|
G-|*-----------------------------------------1--------1------------------*|
D-|*---------------------------------------------------------------------*|
A-|---------------------------------------------------------3----------3--|
E-|-----------------------------------------------------------------------|


   Chorus
E-|------------------------------------------------------------------------|
B-|------------------------------4-----------3-----------------------3-----|
G-|------------------------------5-----------3-----------5-----------3-----|
D-|---------------------------5-----5-----5-----5--------6--------3-----3--|
A-|------------------------3--------------------------6-----6--1-----------|
E-|------------------------------------3-----------4-----------------------|
  |                                                                        |
  | (Gtr. doubled by bass)                                                 |
E-|------------------------------------------------------------------------|
B-|------------------------------------------------------------------------|
G-|------------------------------------------------------------------------|
D-|------------------------------------------------------------------------|
A-|------------------------3--------3--------------------------------------|
E-|------------------------------------3--------3--4--------4--6--------6--|

    (Piano)
E-|------------------------------------------------------|
B-|------------4-----------3-----------------------3-----|
G-|------------5-----------3-----------5-----------3-----|
D-|---------5-----------5-----5--------6--------3-----3--|
A-|------3--------3-----------------6-----6--1-----------|
E-|------------------3-----------4-----------------------|
  |                                                      |
  |                                                      |
  | (Gtr. and bass)                                      |
E-|------------------------------------------------------|
B-|------------------------------------------------------|
G-|------------------------------------------------------|
D-|---------------------------5--5--------5--6-----------|
A-|------3--------3-5-6----------------------------------|
E-|------------------------------------------------------|


Lap Steel solo: 
          ...forever and ever
e|-----------------------------|
B|-----------------------------|
G|-----------------------------|
D|-------------10//////////17--|
A|-----------------------------|
E|-----------------------------|
 
|----------------------------|-------------------------------------|
|-----------------16--15~----|-------------------------------------|
|--17~---------L-------------|--15g17----15~-----L---------17--15--|
|----------------------------|----------------------15g17----------|
|----------------------------|-------------------------------------|
|----------------------------|-------------------------------------|
 
|------------------------------|-----------------------------------|
|------------------------------|-----------------------------------|
|--17~----L-15----12g10~----8--|--8g10----10--12--12g10--8---------|
|------------------------------|----------------------------10--8--|
|------------------------------|-----------------------------------|
|------------------------------|-----------------------------------|

|--------------------------------------|------------------------------|
|----------------------------------11--|--11g13---15---16---18-18--20-|
|-----------------12------12~---L------|------------------------------|
|--8g10~-----L-13----(13)--------------|------------------------------|
|--------------------------------------|------------------------------|
|--------------------------------------|------------------------------|
  
|-------------20~----18---18-|--20----18~------------------------|
|--20------23----------------|---------------20-18-----18g20~----|
|----------------------------|---------------------20------------|
|----------------------------|-----------------------------------|
|----------------------------|-----------------------------------|
|----------------------------|-----------------------------------|
 
|----------------------------------|-----------------------------------|
|---L-----L----L---------------15--|--16~----15---(11)-9g11------------|
|--------------------------17------|---------------------------10---12-|
|-------------------15g17----------|-----------------------------------|
|----------------------------------|-----------------------------------|
|----------------------------------|-----------------------------------|
 
|-------------------------------------|-----------------------------------|
|-------------------------------------|---------------11--11--13----------|
|--12~-----L-10----10g12-10-----------|-----------12--------------12--15--|
|---------------------------13~---L---|----12g13--------------------------|
|-------------------------------------|-----------------------------------|
|-------------------------------------|-----------------------------------|
  
|---------------------------------|-------------------------------------|
|---------------------8-16--20----|--20~----20-21-18----20~---20-21-18--|
|--15--17--17~----L---------------|-------------------------------------|
|---------------------------------|-------------------------------------|
|---------------------------------|-------------------------------------|
|---------------------------------|-------------------------------------|
 
|----------------------------------|
|--20--20~----20-25-25---27-27~----|
|----------------------------------|
|----------------------------------|
|----------------------------------|
|----------------------------------|

|---------------------------------------------|
|--28~----<>18---<>20-<>20---<>23-<>23---<>25-|
|---------------------------------------------|
|---------------------------------------------|
|---------------------------------------------|
|---------------------------------------------|
                                 
|-------------------------------------------|------------------------------|
|--<>25----<>(25)---<>25-<>25---28-----<>25-|------------16~---15~---------|
|-----------------------------------27------|-------8-15-------------15~---|
|-------------------------------------------|--(8)-------------------------|
|-------------------------------------------|------------------------------|
|-------------------------------------------|------------------------------|

|------------------------------|--------------------------------|
|------------------------------|--------------------------------|
|--12~--------L--12--12g10--x--|--10~-----L-15----8g10--8--7----|
|------------------------------|--------------------------------|
|------------------------------|--------------------------------|
|------------------------------|--------------------------------|

|-----------------------------------|-------------------------------------|
|-----------------------------------|------------15g16---15-15~---18---17-|
|----------------10-12-12g15~--15~--|--15g17~-----------------------------|
|--8g10~------L---------------------|-------------------------------------|
|-----------------------------------|-------------------------------------|
|-----------------------------------|-------------------------------------|

|--------------13g15-13-15~-----L---20-|--20~----23--23-22-22~---------|
|--16~---16-15-------------------------|--------------------------23---|
|--------------------------------------|-------------------------------|
|--------------------------------------|-------------------------------|
|--------------------------------------|-------------------------------|
|--------------------------------------|-------------------------------|

|------------------------------|-------------------------------|
|------20--16--16~-----18--13--|---L------13-16-15~------------|
|------------------------------|-----------------------15---10-|
|------------------------------|-------------------------------|
|------------------------------|-------------------------------|
|------------------------------|-------------------------------|

|---------------------------------|-----------------------------------|
|-----------------13~---15-15~----|--16---15-15~---13--11-------------|
|-12~------10g12------------------|------------------------12g15---17-|
|---------------------------------|-----------------------------------|
|---------------------------------|-----------------------------------|
|---------------------------------|-----------------------------------|

|-------------------|---------------------------------|
|-------------------|---------20--16--16~----18--13~--|
|--17~--------------|---L-----------------------------|
|-------------------|---------------------------------|
|-------------------|---------------------------------|
|-------------------|---------------------------------|
 
|-----------------------------|--------------------------------------|
|---L---13--8--6g11----8g13---|--------------------------------------|
|-----------------------------|--12g10--10--10-12-10~---L~----L---17-|
|-----------------------------|--------------------------------------|
|-----------------------------|--------------------------------------|
|-----------------------------|--------------------------------------|

|--20~------------22g23---22-|--22~----18-----18~----20--------|
|----------------------------|---------------------------20-18-|
|----------------------------|---------------------------------|
|----------------------------|---------------------------------|
|----------------------------|---------------------------------|
|----------------------------|---------------------------------|

|-----------------18g20--23--|----20--18-18--20--20g23---22-22~----|
|--20~-------L---------------|-------------------------------------|
|----------------------------|-------------------------------------|
|----------------------------|-------------------------------------|
|----------------------------|-------------------------------------|
|----------------------------|-------------------------------------|

|--18g20~-----L-18-20~---L--19-20-|--19-20~----L-20-18-20-18-20----L---18-|
|---------------------------------|---------------------------------------|
|---------------------------------|---------------------------------------|
|---------------------------------|---------------------------------------|
|---------------------------------|---------------------------------------|
|---------------------------------|---------------------------------------|

|--20~-----L---20-23--22---L-22-25-23-|
|-------------------------------------|
|-------------------------------------|
|-------------------------------------|
|-------------------------------------|
|-------------------------------------|
        
|--23-23-27~---L--<>20------<>20-<>18-<>20--<>20--|--<>20-------------|
|-------------------------------------------------|-------------------|
|-------------------------------------------------|-------------------|
|-------------------------------------------------|-------------------|
|-------------------------------------------------|-------------------|
|-------------------------------------------------|-------------------|
 
|---<>L--------<>20---------|----18g<>20----L-----L---------|
|---------------------------|-------------------------------|
|---------------------------|-------------------------------|
|---------------------------|-------------------------------|
|---------------------------|-------------------------------|
|---------------------------|-------------------------------|
   
|-----18g<>20-------L--------|
|----------------------------|
|----------------------------|
|----------------------------|
|----------------------------| 
|----------------------------|  fade out


comments
print report bad tab
1 comment total.
0 reply
the piper wrote on August 22 2007, 11:12 pm

nice job, good thing you put the GP ASCII export on Marooned, it would've been a disaster if you havent.

I want to post or [tab]
guest
You may want to rate the tab now too:
select rating
Please do not post tabs as comments. Select "correction" instead!