Oops, an error
Loading. Please wait.

Empty Spaces Tab

ver4
ver4

Whole song

Interactive

More versions @911Tabs.com
2,331 views 3 this week
no commentswrite comment
1 2 3 4 5
please rate
Autoscroll
+/-
esc
set tempo
stop
Contributor
Hey! There's an official Ultimate Guitar app which is ideal
for learning songs when you're away from computer. Get the app
WARNING: You are trying to view
                                    content from Ultimate-Guitar.com
                                    in an unauthorized application,
                                    which is prohibited.

                                    Please use an official Ultimate
                                    Guitar Tabs application for iPhone,
                                    iPad or Android to access legitimate
                                    chords, guitar, bass, and drum tabs
                                    from Ultimate-Guitar.com database.

                                    Type "ultimate guitar tabs" in Apple
                                    App Store's or Android Market's
                                    search to find the application.

    intro                    empty spaces/what shall we do now
-----5--------7-------5>7>8----7-----8---7---5---5------5------7----5>7>8-|
--------------------------------------------------------------------------|
--------------------------------------------------------------------------|
--------------------------------------------------------------------------|
--------------------------------------------------------------------------|
--------------------------------------------------------------------------|
                                    loud part
----------------------19------19>17>19-----19-19-------------------------|
---7----8-7---5---5--------------------------------19--19>17>14----------|
-------------------------------------------------------------------------|
-------------------------------------------------------------------------|
-------------------------------------------------------------------------|
-------------------------------------------------------------------------|

---------19----19>17>19--19--19------------------------------------------|
-19----------------------------------19>17>14---19-----------------------|
-------------------------------------------------------------------------|
-------------------------------------------------------------------------|
-------------------------------------------------------------------------|
-------------------------------------------------------------------------|

----19--20>19-------19-19------------------------------------------------|
----------------------------19---19>17>14-----19-----17---19---19--------|
-------------------------------------------------------------------------|
-------------------------------------------------------------------------|
-------------------------------------------------------------------------|
-------------------------------------------------------------------------|
bass sound
-------------------------------------------------------------------------|
-------------------------------------------------------------------------|
-----4----2--------------------------------------------------------------|
-------------2-----------------------------------------------------------|
---------------2---------------------------------------------------------|
------------------2---0--------------------------------------------------|
end of empty spaces
-------------------------------------------------------------------------|
-------------------------------------------------------------------------|
-------------------------------------------------------------------------|
-------------------------------------------------------------------------|
-------------------------------------------------------------------------|
----0----2--0>2>3----2--3>2--0-0-------0-----2--0--2>3-3>2---0----0------|

-------------------------------------------------------------------------|
-------------------------------------------------------------------------|
-------------------------------------------------------------------------|
-------------------------------------------------------------------------|
-------------------------------------------------------------------------|
-----0---2-----0>2>3--2---3>2--0--0---0----2---0>2>3---2---3>2---0---0---|
what shall we do now             ahhh              ahhh
-------------------------------------------------------------------------|
-------------------------------------------------------------------------|
------9--9-9-----11-11-11---12--12--12---11---11--11---9-9-9---11-11-11--|
------9--9-9-----11-11-11---12--12--12---11---11--11---9-9-9---11-11-11--|
------7--7-7-----9---9--9---10--10--10----9----9---9---7-7-7----9--9--9--|
-------------------------------------------------------------------------|

-------------------------------------------------------------------------|
-------------------------------------------------------------------------|
----12--12--12----11--11--11---------------------------------------------|
----12--12--12----11--11--11---------------------------------------------|
----10--10--10-----9---9---9---------------------------------------------|
-------------------------------------------------------------------------|
i dont know what the rest is but do know the lyrics
---------------------------------------------------
              lyrics

        shall we buy a new guitar
        shall we try a more powerful car
        shall we work straight through the night
        shall we get in to fights leave the lights on
        drop bombs
        do tours of the east
        contract disease
        bury bones
        break up homes
       send flower by phone

       take to drink
       go to shrinks
       give up meat
      rarely sleep
      keep people as pets
      train dogs
      race rats
      fill the attic with cash
      bury treasure
      store up leisure
      but never relax at all
      with our backs to the wall

tab from benjenkins123

   special thanks to
   roger waters
   David gilmour
   nick mason
   rick wright
comments
We did not receive enough feedback on this tab! Please rate:
print report bad tab
1 2 3 4 5
I want to post or [tab]
guest
You may want to rate the tab now too:
select rating
Please do not post tabs as comments. Select "correction" instead!