Oops, an error
Loading. Please wait.

Marooned Tab

ver2
ver2

Solo

Whole song

Interactive

More versions @911Tabs.com
11,982 views 24 this week
3 commentsread comments
1 2 3 4 5
accurate
x 5
Autoscroll
+/-
esc
set tempo
stop
Contributor
NEW! There's an official Ultimate Guitar app which is ideal
for learning songs when you're away from computer. Get the app
WARNING: You are trying to view
                                    content from Ultimate-Guitar.com
                                    in an unauthorized application,
                                    which is prohibited.

                                    Please use an official Ultimate
                                    Guitar Tabs application for iPhone,
                                    iPad or Android to access legitimate
                                    chords, guitar, bass, and drum tabs
                                    from Ultimate-Guitar.com database.

                                    Type "ultimate guitar tabs" in Apple
                                    App Store's or Android Market's
                                    search to find the application.
By: thetabmaker93

                                  Marooned                    
                                 Pink Floyd
                              The Division Bell


 
E||-------|--17b----------------|---L--------17s------(14)--|
B||-------|---------------------|---------------------------|
G||-------|---------------------|---------------------------|
D||-------|---------------------|---------------------------|
A||-------|---------------------|---------------------------|
E||-------|---------------------|---------------------------|


---------------------|--------------------------|
--17b----------------|---L-------------------15-|
---------------------|--------------------16----|
---------------------|--------------------------|
---------------------|--------------------------|
---------------------|--------------------------|


-------------------------------|-------------------------------|
--17b-------L--L-15-17~--------|---L----------------17s-15s-14-|
-------------------------------|-------------------------------|
-------------------------------|-------------------------------|
-------------------------------|-------------------------------|
-------------------------------|-------------------------------|

   
---------------------|------------(x)-24--L--------|--Ls------------12----|
---L~----------------|---L-----L-------------------|----------------------|
---------------------|-----------------------------|----------------------|
---------------------|-----------------------------|----------------------|
---------------------|-----------------------------|----------------------|
---------------------|-----------------------------|----------------------|

    
---L------------(x)---17b-19-21pb-19-|--21br~---------L----L-21pb-21br---|
-------------------------------------|-----------------------------------|
-------------------------------------|-----------------------------------|
-------------------------------------|-----------------------------------|
-------------------------------------|-----------------------------------|
-------------------------------------|-----------------------------------|


---L-----L----L----------21b----L-|---L-----L---L---L---L------------|
-----------------x-xg19-----------|--------------------------21pb-19-|
----------------------------------|----------------------------------|
----------------------------------|----------------------------------|
----------------------------------|----------------------------------|
----------------------------------|----------------------------------|


-------------------------------------------|
--------------------<>17p-5------17p-15----|
--21br~-------L-------------(16)--------16-|
-------------------------------------------|
-------------------------------------------|
-------------------------------------------|

      
----------------------17--------------|--------------------------|
--17b-----L~-----L----(0)--17--(17)b--|--17b~--------Ls--5~------|
--------------------------------------|--------------------------|
--------------------------------------|--------------------------|
--------------------------------------|--------------------------|
--------------------------------------|--------------------------|

  
-----------------------------|-----------------------------------|
--L----------------12-15p-12-|--15br---------L---L-----15-15--Lb-|
-----------------------------|-----------------------------------|
-----------------------------|-----------------------------------|
-----------------------------|-----------------------------------|
-----------------------------|-----------------------------------|


  
------------------------------|
--------19~---L-----L---------|
--19-19-----------------------|
------------------------------|
------------------------------|
------------------------------|


  
-----------------------------------------------17b---19-|
----17b---17br--L-15----17----15-17-17br--L-15----------|
---------------------16----16---------------------------|
--------------------------------------------------------|
--------------------------------------------------------|
--------------------------------------------------------|

 
--19-19~----L-----L-----L--19--19--|
-----------------------------------|
-----------------------------------|
-----------------------------------|
-----------------------------------|
-----------------------------------|


 
--19-19-21br---L-----L--L-19-21b--L-21-19-21-|
---------------------------------------------|
---------------------------------------------|
---------------------------------------------|
---------------------------------------------|
---------------------------------------------|


--21br--L--L-19s-30--Lpb-------------30pb-30pb-30pb-L-|
------------------------------------------------------|
------------------------------------------------------|
------------------------------------------------------|
------------------------------------------------------|
------------------------------------------------------|


--L--29----26----24-26-24----------|----------------------------|
--------------------------26---L-L-|---L---Ls--24s--19--------L-|
-----------------------------------|----------------------------|
-----------------------------------|----------------------------|
-----------------------------------|----------------------------|
-----------------------------------|----------------------------|

  
-------------------17b--|---19~------------17b---L-19~---|
------------------------|--(19)~-------------------------|
------------------------|--------------------------------|
------------------------|--------------------------------|
------------------------|--------------------------------|
------------------------|--------------------------------|


   
---L------17-------------------------|----------------------------------17-|
-------------17b--Lb--L~-------15----|--17p~----15---------------17s-19----|
----------------------------------16-|-------------16----------------------|
-------------------------------------|-------------------------------------|
-------------------------------------|-------------------------------------|
-------------------------------------|-------------------------------------|


  
-------/19--21--21pb--21--21pb--24--21pb--24--25--|
--------------------------------------------------|
--------------------------------------------------|
--------------------------------------------------|
--------------------------------------------------|
--------------------------------------------------|

 
--26----(26)----(26)----26~------27s-26s-24-|
--------------------------------------------|
--------------------------------------------|
--------------------------------------------|
--------------------------------------------|
--------------------------------------------|


--26s~--------(24)---29-26--29-29b-|---Ls--------19---------|
-----------------------------------|------------------------|
-----------------------------------|------------------------|
-----------------------------------|------------------------|
-----------------------------------|------------------------|
-----------------------------------|------------------------|

  
---------------14------------------------|-------12-----------------------|
-------15b~--------15b--15--12----15-15~-|---L------15b~-----Ls----10--L--|
-------------------------------14--------|--------------------------------|
-----------------------------------------|--------------------------------|
-----------------------------------------|--------------------------------|
-----------------------------------------|--------------------------------|

-----------5----10b---7-------7-------|-------------------------|
-------5b--L-L-(10)b----7-10b---7h-10-|--10---------------------|
--------------------------------------|---9br--------L--L-------|
--------------------------------------|-------------------------|
--------------------------------------|-------------------------|
--------------------------------------|-------------------------|


      this doesnt really play in the song             
-----------------------------------------------------|
-----(2)---------------------------------(3)------L--|
-----(2)---------------------------------(4)------L--|
-----(2)---------------------------------(4)------L--|
-----------------------------------------------------|
-----------------------------------------------------|

 
--17b~---------L-----L--------------|--------------------------------------|
--17b~---------L-----L-17brb~--L--L-|---L--L--L---L-----L------------------|
------------------------x~----------|--------------------16--18p-16-19p-18-|
------------------------------------|--------------------------------------|
------------------------------------|--------------------------------------|
------------------------------------|--------------------------------------|


----------------------------------|
--17b---------L-------------17----|
-----------------16--18b--L----18-|
----------------------------------|
----------------------------------|
----------------------------------|

-----------------------------------------------|
--17----19-------17--19-------17--19-------17--|
------------19b----------19b----------19b------|
-----------------------------------------------|
-----------------------------------------------|
-----------------------------------------------|


-----------------------------------------------------|
--19br--L--L-17-19s---(12)----19--19--19br---L--L-17-|
-----------------------------------------------------|
-----------------------------------------------------|
-----------------------------------------------------|
-----------------------------------------------------|


----------------------------------------|----------------------------------|
--19--19S------30b----L--30b--30--|--30b-----30b~---L--30b--30b-30b~---L---|
----------------------------------|------(30)b-----------------------------|
----------------------------------|----------------------------------------|
----------------------------------|----------------------------------------|
----------------------------------|----------------------------------------|


  
----------------------------------------------------------|
--30b-30b-30b-30b-----------------------------------------|
------------------30b-30b-30b-30b-30b-30-30-30-28pbr--26--|
----------------------------------------------------------|
----------------------------------------------------------|
----------------------------------------------------------|
 
   
------------------------------------|-----------19h-22-19b-(22)--22-24-22b-|
--24~---------L-----L-(26)-24-22-24-|--24~---------------------------------|
------------------------------------|--------------------------------------|
------------------------------------|--------------------------------------|
------------------------------------|--------------------------------------|
------------------------------------|--------------------------------------|

                                      
 
--22b--22b--22b--22b-22b-22b-22b-22b-22b-22b---Ls--21-22p-21-19-21b-|
--------------------------------------------------------------------|
--------------------------------------------------------------------|
--------------------------------------------------------------------|
--------------------------------------------------------------------|
--------------------------------------------------------------------|


---L--21b--21b-21p-19----19-------------------------------|
----------------------22----22br--L---L-19-------22brb--L-|
-------------------------------------------21-------------|
----------------------------------------------------------|
----------------------------------------------------------|
----------------------------------------------------------|


----------------------------------------------------|
---L----L--L-19------22br--L---L-19----22br----L-20-|
----------------21------------------21--------------|
----------------------------------------------------|
----------------------------------------------------|
----------------------------------------------------|

  
-------22b-----L-22-21-22-24-26----|
-----------------------------------|
-----------------------------------|
-----------------------------------|
-----------------------------------|
-----------------------------------|


---Ls----19--------19--19--21b--21--21br--L-|
--------------------------------------------|
--------------------------------------------|
--------------------------------------------|
--------------------------------------------|
--------------------------------------------|


---L-19----Ls--(14)-----------------|
------------------------12(15)------|
------------------------------------|
------------------------------------|
------------------------------------|
------------------------------------|


-------------------------------------------|
--15b----L--L-----L--12--15--(15)b~---(17)-|
-------------------------------------------|
-------------------------------------------|
-------------------------------------------|
-------------------------------------------|


---------------------------------------|
----------15p-12-15br-----L-12-15b~--L-|
---------------------------------------|
---------------------------------------|
---------------------------------------|
---------------------------------------|

 
-----------------------------------------------|---------------x---------7-|
---L-----L--15---14p-12-15--L-14-12----12------|--12~-----L------------7---|
------------------------------------14----14b--|------------------9b-L-----|
-----------------------------------------------|---------------------------|
-----------------------------------------------|---------------------------|
-----------------------------------------------|---------------------------|


---------------------------------------|
--10p-7-10S---L---22~--L-----L---------|
--------------------------------10s-14-|
---------------------------------------|
---------------------------------------|
---------------------------------------|


   I'm totally not sure if this is right.                                       
---------------------------------------------------------------------------|
--22S-------------------------------(19)S-17S-10S-19s--L--L--L-(17)-10S-L-2|
---------------------------------------------------------------------------|
---------------------------------------------------------------------------|
---------------------------------------------------------------------------|
---------------------------------------------------------------------------|


   
-------------------------------------------------------------------|
--10S-19S-20S-19S-(6)S-19S-22S-19S-21S--L-20S-22S---L-19S-22-22b~--|
-------------------------------------------------------------------|
-------------------------------------------------------------------|
-------------------------------------------------------------------|
-------------------------------------------------------------------|

  
-----------22p-19---24p-22----------------|--------------------------------|
---L------------------------24b--(27)s-29-|--27~------26-26~--L-----24-24~-|
------------------------------------------|--------------------------------|
------------------------------------------|--------------------------------|
------------------------------------------|--------------------------------|
------------------------------------------|--------------------------------|


---------------------------------|
---L-------19b-22~--L------19-19-|
---------------------------------|
---------------------------------|
---------------------------------|
---------------------------------|

  
----------------------------------------------------|
--19--22b---L--19-22-----19-19----------------------|
---------------------21b--------19--18--------------|
----------------------------------------21--19------|
------------------------------------------------21--|
----------------------------------------------------|
  
  
---------------17-----------------17-|--19~------19-19-21~-----L--19--21--|
-------------------17~-----L-17b-----|------------------------------------|
-------------------------------------|------------------------------------|
--19~-------x------------------------|------------------------------------|
-------------------------------------|------------------------------------|
-------------------------------------|------------------------------------|

   
--22-21-22--22b~-----L------22-24-|--24b---------L--24-----24b--|
----------------------------------|-----------------------------|
----------------------------------|-----------------------------|
----------------------------------|-----------------------------|
----------------------------------|-----------------------------|
----------------------------------|-----------------------------|


--26-24-24~---L-----L--22--22-21-------|-----------------------------------|
---------------------------------22----|--24~--------(22)~------22s-20s-19-|
------------------------------------23-|-----------------------------------|
---------------------------------------|-----------------------------------|
---------------------------------------|-----------------------------------|
---------------------------------------|-----------------------------------|


----------------------------------------|----------------------------------|
----------------------------------------|----------------------------------|
----------------------------------------|----------------------------------|
--14pbr~---------L-------12--14br--L-12-|--14~---------L-14br--L-12----12h-|
--------------------12b-----------------|----------------------------14----|
----------------------------------------|----------------------------------|

                     
--------------------------------------------|------------------------------|
--------------------------------15----17----|--17------17-19-19~-----19-22-|
------------------14--16p-14----------------|------------------------------|
--14-----L-14-16-------------16----16----16-|------------------------------|
--------------------------------------------|------------------------------|
--------------------------------------------|------------------------------|


-----------------------------------------|
--22s---30pb~--L-----L--30b---L--30b-30b-|
-----------------------------------------|
-----------------------------------------|
-----------------------------------------|
-----------------------------------------|

---------------------------------------|
--29br~---------L--29--27--26br--L--26-|
---------------------------------------|
---------------------------------------|
---------------------------------------|
---------------------------------------|

  
------------------------------------------|--------------------------|
---------------------------15--17br--L-15-|--------------------------|
--26-26~----L--------14g16----------------|--------------------------|
------------------------------------------|--------------------------|
------------------------------------------|--14pbr-------------L-----|
------------------------------------------|--------------------------|


----------7g9-9-9br--L-L-10--12--|--12~---------L--10--9h-10----9-|
---------------------------------|---------------------------12---|
---------------------------------|--------------------------------|
---------------------------------|--------------------------------|
---------------------------------|--------------------------------|
---------------------------------|--------------------------------|

  
--------------------------14-------|--14b----------26-26-------29-29-------|
--10b------------------------------|---------------------------------------|
----------------14b-16--L----16-16-|---------26b-28-------28-28------28-28-|
-----------------------------------|---------------------------------------|
-----------------------------------|---------------------------------------|
-----------------------------------|---------------------------------------|


--26-26---------------------------------30b-30b-------|
-----------------19-19-------19-----------------------|
-----------------------------------26b----------28-28-|
--------21pbr-21-------21-21----21--------------------|
------------------------------------------------------|
------------------------------------------------------|

                                 
--26~---------L--24--26----------|---------------------|-------------------|
-------------------------24------|--24~----------------|-------------------|
-----------------------------26--|---------------------|-------------------|
---------------------------------|---------------------|-------------------|
---------------------------------|---------------------|-------------------|
---------------------------------|---------------------|-------------------|


-------------------||
-------------------||
-------------------||
-------------------||
-------------------||
-------------------||



Tablature Legend
----------------
L - tied note
x - dead note
g - grace note
(n) - ghost note
> - accentuded note
NH - natural harmonic
AH - artificial harmonic
TH - tapped harmonic
SH - semi harmonic
PH - pitch harmonic
h - hammer on
p - pull off
b - bend
br - bendRelease
pb - preBend
pbr - preBendRelease
brb - bendReleaseBend
\n/ - tremolo bar dip
\n - tremolo bar dive
-/n - tremolo bar Release up
/n\ - tremolo bar inverted dip
/n - tremolo bar return
-\n - tremolo bar Release down
S - shift slide
s - legato slide
/ -  slide into from below or out of upwards
\ -  slide into from above or out of downwards
~ - vibrato
W - wide vibrato
tr - trill
TP - tremolo picking
T - tapping
S - slap
P - pop
< - fade in
^ - brush up
v - brush down
comments
print report bad tab
3 comments total.
+1 reply
SRV16 wrote on June 12 2007, 11:30 am

5 stars i think, it sounds gd from where im sat.

+1 reply
Thefallofman wrote on September 6 2007, 09:37 am

He plays this on his Strat, with 21 frets and hits the high notes with a Digitech Whammy pedal.

0 reply
TheReFiller wrote on February 20 2008, 05:00 pm

30 frets?

What the hell?

I want to post or [tab]
guest
You may want to rate the tab now too:
select rating
Please do not post tabs as comments. Select "correction" instead!