Oops, an error
Loading. Please wait.

Marooned Tab

ver3
ver3

Solo

Whole song

Interactive

More versions @911Tabs.com
40,614 views 141 this week
4 commentsread comments
1 2 3 4 5
excellent!
x 12
Autoscroll
+/-
esc
set tempo
stop
Hey! There's an official Ultimate Guitar app which is ideal
for learning songs when you're away from computer. Get the app
WARNING: You are trying to view
                                    content from Ultimate-Guitar.com
                                    in an unauthorized application,
                                    which is prohibited.

                                    Please use an official Ultimate
                                    Guitar Tabs application for iPhone,
                                    iPad or Android to access legitimate
                                    chords, guitar, bass, and drum tabs
                                    from Ultimate-Guitar.com database.

                                    Type "ultimate guitar tabs" in Apple
                                    App Store's or Android Market's
                                    search to find the application.
-------------------------------------------------------------------------------
			     Marooned – Pink Floyd
-------------------------------------------------------------------------------

Tabbed by: A. Wheeler


This song is played with a whammy pedal set at one octave higher.  The // symbol means 
pedal is pressed down and is not released until the symbol \\ appears.


Tuning: Standard

e|--14-17/19---17\-/14----------------------------//--0-22-22-22-22-22---------|
B|------------------------15-17-b--15-17---17/14--//---------------------------|
G|---------------------16-------------------------//---------------------------|
D|------------------------------------------------//---------------------------|
A|------------------------------------------------//---------------------------|
E|------------------------------------------------//---------------------------|

			      rake                                  hold bend
e|-------------------14-------9---9b--9----------------------------------------|
B|--/12-12-15-12-15b----15b----7---------10p7-------------------10-------------|
G|--------------------------------------------9b---9p7-9p7—9b-------9b-9-9-----|
D|-----------------------------------------------------------------------------|
A|-----------------------------------------------------------------------------|
E|-----------------------------------------------------------------------------|

e|--\\---------------------------------------------------------------------/19-|
B|--\\------12-15-15b---15-15-17p15-17b—-17b-17rb-15----17----15-17-17b-15-----|
G|--\\--9--------------------------------------------16----16------------------|
D|--\\-------------------------------------------------------------------------|
A|--\\-------------------------------------------------------------------------|
E|--\\-------------------------------------------------------------------------|

e|--19-19-19-19-20b-19-20b-20-20b-20rb-19-//-—17/19-19-19-17-14-----14---------|
B|----------------------------------------//---------------------17----15-14---|
G|----------------------------------------//-----------------------------------|
D|----------------------------------------//-----------------------------------|
A|----------------------------------------//-----------------------------------|
E|----------------------------------------//-----------------------------------|

e|-----------------------------------------------------------------------------|
B|-----------------------------------------------------------------------------|
G|-16----------14—16-—14b—14p11---------------------------------14-------------|
D|---16--------------------------14/16--12----14-b-12-14—-14/16----14----------|
A|-----------------------------------------14----------------------------------|
E|-----------------------------------------------------------------------------|

   rake
e|-------------------------------------------------17-17-17/19--\\-------------|
B|----12-14-15-14-15-17-15-17-18-19--19-19b-17-19---------------\\-------------|
G|--11----------------------------------------------------------\\-------------|
D|--------------------------------------------------------------\\-------------|
A|--------------------------------------------------------------\\-------------|
E|--------------------------------------------------------------\\-------------|

e|------14-----14--------------12-----------------7----10-7----7---------------|
B|--15b----15b------15-12--15-----15/17------5/7----7-------10---7-10----------|
G|-----------------------14--------------------------------------------9b------|
D|-----------------------------------------------------------------------------|
A|-----------------------------------------------------------------------------|
E|-----------------------------------------------------------------------------|

e|--17~------------------------------------------------------------------------|
B|--19~—--17b-17b-17b-----------------19--------17---17--19-----17-19----17-19-|
G|---------------------16-18p16-19p18-----16-18b--18--------19b-------19B------|
D|-----------------------------------------------------------------------------|
A|-----------------------------------------------------------------------------|
E|-----------------------------------------------------------------------------|

e|-------------------------------------//-------------19-19-19----19-17-17-17--|
B|-----17-19—19b-17-19\--19-19b-17-19--//--19-17-19----------------------------|
G|--19b--------------------------------//--------------------------------------|
D|-------------------------------------//--------------------------------------|
A|-------------------------------------//--------------------------------------|
E|-------------------------------------//--------------------------------------|

e|--14-12-12-12----------------------------------------------------------------|
B|---------------15-14-14-14--12-10-12—--12b-10-12--12-15-14-15-15b—-rb15------|
G|-----------------------------------------------------------------------------|
D|-----------------------------------------------------------------------------|
A|-----------------------------------------------------------------------------|
E|-----------------------------------------------------------------------------|

e|-----------------------------------------------------------------------------|
B|--15p14p12--14-15—-15p14p12----------------------------------------15b-------|
G|----------------------------14-14b---14b-14b-p11—-14b-p11—-14b-p11-----------|
D|-----------------------------------------------------------------------------|
A|-----------------------------------------------------------------------------|
E|-----------------------------------------------------------------------------|

e|--------------------------------------------\\-------------------------------|
B|--15-14-15--17-19----12-12-15-14-15p14p-12--\\--12h15p12h15p12h15p12h15—17b--|
G|--------------------------------------------\\-------------------------------|
D|--------------------------------------------\\-------------------------------|
A|--------------------------------------------\\-------------------------------|
E|--------------------------------------------\\-------------------------------|

								      Hold bend
e|------------12---------------------------------------------------------------|
B|--12-15-15b------15p12-17b--12-15-15b---15-14-12-15---12-----12--------------|
G|---------------------------------------------------------14b-----14b-14------|
D|-----------------------------------------------------------------------------|
A|-----------------------------------------------------------------------------|
E|-----------------------------------------------------------------------------|




** Keep hitting those notes while pressing the whammy pedal up and down

				 * *
e|-------7----------//------\\--------//---------------------------------------|
B|--/7-7---10p7-10--//--10--\\----10--//--12—--15p12—-15p12--/17-15--14-14-14--|
G|------------------//------\\--11----//---------------------------------------|
D|------------------//------\\--------//---------------------------------------|
A|------------------//------\\--------//---------------------------------------|
E|------------------//------\\--------//---------------------------------------|


e|----------------------------------7------------------------------------------|
B|--12-12-12---/10-10-10---7-7-7-10---7-10----------------------------10-------|
G|-----------------------------------------9b-9rb--7-6------------x------9-----|
D|-----------------------------------------------------9-7---7-----------------|
A|---------------------------------------------------------9-------------------|
E|-----------------------------------------------------------------------------|

e|-----------------------------------------------------------------------------|
B|--7-10-/12---12-12-/14---12-14-15-14-15-/17---15-17-/19---17b-17-------------|
G|-----------------------------------------------------------------------------|
D|-----------------------------------------------------------------------------|
A|-----------------------------------------------------------------------------|
E|-----------------------------------------------------------------------------|

e|-----------------------------\\----------------------------------------------|
B|--15-15-14-------------------\\----------------------------------------------|
G|-----------14----16--14—14\--\\--11------7-9b-p7-9----pb9-p7---7-9-----------|
D|--------------16-------------\\-------/9---------------------9---------------|
A|-----------------------------\\----------------------------------------------|
E|-----------------------------\\----------------------------------------------|

e|----------------10-12----12---12/14-14--14/17--\\--17--14---12-14-12/14------|
B|--/7-10—12p10----------------------------------\\----------------------------|
G|-------------11-------11-----------------------\\----------------------------|
D|-----------------------------------------------\\----------------------------|
A|-----------------------------------------------\\----------------------------|
E|-----------------------------------------------\\----------------------------|

					       rake
e|--12-10-------------------------\\------------7—-9-9b-10--12-12--------------|
B|--------14b-12------------------\\-----------7-------------------------------|
G|---------------14-------7-9b-p7-\\---------7---------------------------------|
D|---------------------/9---------\\--9----------------------------------------|
A|--------------------------------\\-------------------------------------------|
E|--------------------------------\\-------------------------------------------|

e|---------------------------------14--------17--//---------14--14-------17-17-|
B|--15-14-15-12-14-------------------------------//----------------------------|
G|-----------------14/16----/16-16----16-16------//---16-16--------16-16-------|
D|-----------------------------------------------//----------------------------|
A|-----------------------------------------------//----------------------------|
E|-----------------------------------------------//----------------------------|

e|--------14-14--\\--------17-17-------14--//----17-17-------14---12-14--------|
B|---------------\\------------------------//---------------------------12—-12-|
G|--16-16--------\\--16-16-------16-16-----//-16--------------------------14---|
D|---------------\\------------------------//----------16-16-------------------|
A|---------------\\------------------------//----------------------------------|
E|---------------\\------------------------//----------------------------------|


 // whammy pedal pressed down
 \\ whammy pedal up
 b  bend
 rb release bend
 h  hammer-on
 p  pull-off
 ~  vibrato
 x  Mute note
 /  slide up
 \  slide down
comments
print report bad tab
4 comments total. Showing first comments.
0 reply
onlymodestmouse wrote on December 13 2007, 03:53 pm

definitely like this one better...other tabs (the ones written out from the sheet music) say that first very high
pitched note is a natural harmonic on 24th...don't think so
good job

0 reply
soulfetcher wrote on March 18 2011, 05:25 pm

by the way, that was a fantastic job.

0 reply
tjhowey wrote on January 28 2014, 12:20 am

What key is this written in? I think it's the key of C but I'm not sure.

I want to post or [tab]
guest
You may want to rate the tab now too:
select rating
Please do not post tabs as comments. Select "correction" instead!