Oops, an error
Loading. Please wait.

Pulse Tab

24,966 views 12 this week
11 commentsread comments
1 2 3 4 5
not so good
x 6
Autoscroll
+/-
esc
set tempo
stop
Contributor
Difficulty
intermediate
Hey! There's an official Ultimate Guitar app which is ideal
for learning songs when you're away from computer. Get the app
WARNING: You are trying to view
                                    content from Ultimate-Guitar.com
                                    in an unauthorized application,
                                    which is prohibited.

                                    Please use an official Ultimate
                                    Guitar Tabs application for iPhone,
                                    iPad or Android to access legitimate
                                    chords, guitar, bass, and drum tabs
                                    from Ultimate-Guitar.com database.

                                    Type "ultimate guitar tabs" in Apple
                                    App Store's or Android Market's
                                    search to find the application.
SHINE ON YOU CRAZY DIAMOND PART 1
Pink Floyd
(Wright, Waters, Gilmour)

Fade in Synth. and Keyboards for approx 30 bars

    Gm
e-|---------------------------|----------------------------------------|
B-|----18b(20)~--18--18b(20)~-|----------------------------------------|
G-|---------------------------|--------15--17--17b(19)--17--17b(19)~---|
D-|---------------------------|----17----------------------------------|
A-|---------------------------|----------------------------------------|
E-|---------------------------|----------------------------------------|

			  	Dm
e-|---------------------------|-------------------------|
B-|---------------------------|-------------------------|
G-|--------17b(19)r17p15--17--|-17b(19)--17-17b(19)-----|
D-|---------------------------|-------------------------|
A-|---------------------------|-------------------------|
E-|---------------------------|-------------------------|

							  Cm
e-|--------------------------------|--------------------|---------------------|
B-|-----10h11p10----10-------------|--------------------|---------------------|
G-|--------------12----10-10----10-|--------12-b(15)r12-|--12b(15)----(15)r12-|
D-|--------------------------12----|--------------------|---------------------|
A-|--------------------------------|--------------------|---------------------|
E-|--------------------------------|--------------------|---------------------|

e-|----------------------|----------------------|----------------------------|
B-|----------------------|----------------------|-------------------------18-|
G-|--10h12--12b(15)~-----|---------12b(15)-r12--|--10--12--12~---17b(19)-----|
D-|----------------------|----------------------|----------------------------|
A-|----------------------|----------------------|----------------------------|
E-|----------------------|----------------------|----------------------------|

     Gm
e-|-----------------|--------15--18~-----18b(20)-|--18\~---------------------|
B-|--18b(20)--------|18b(20)---------------------|---------------------------|
G-|-----------------|----------------------------|-----------17-b(18)r17-15--|
D-|-----------------|----------------------------|---------------------------|
A-|-----------------|----------------------------|---------------------------|
E-|-----------------|----------------------------|---------------------------|

e-|----------------------------|-----------------------------|---------------|
B-|----------------------------|-----------------------------|---------------|
G-|--------------10--12~-------|--12b(15)-(15)-(15)---r12----|--10h12~-------|
D-|----------12----------------|-----------------------------|---------------|
A-|----------------------------|-----------------------------|---------------|
E-|----------------------------|-----------------------------|---------------|

				     Dm
e-|-------------------------------|----------------|--------------------|
B-|-------------------------------|----------------|------------18------|
G-|------------17b(19)r17p15--17--|--17b(19)~------|----17b(19)---------|
D-|-------------------------------|----------------|--------------------|
A-|-------------------------------|----------------|--------------------|
E-|-------------------------------|----------------|--------------------|

e-|----------15-----------------------------|---------------------------------|
B-|-18b(20)------18b(20)~-----18b(20)r18-15-|---------------------------------|
G-|-----------------------------------------|-17b(19)~-------17b(19)r17p15-17-|
D-|-----------------------------------------|---------------------------------|
A-|-----------------------------------------|---------------------------------|
E-|-----------------------------------------|---------------------------------|

    Cm						    Dm
e-|------------------|----------------------------|--------------------------|
B-|------------------|----------------------------|-----------------------18-|
G-|-17---------------|---15~-----17b(19)r17p15-17-|-17b(19)-------17b(19)----|
D-|-----------15/17--|----------------------------|--------------------------|
A-|------------------|----------------------------|--------------------------|
E-|------------------|----------------------------|--------------------------|

				  Gm
e-|-------------------------15--|--18-------------18--20b(22)-|
B-|-----------------18b(20)-----|-----------------------------|
G-|-17b(19)---------------------|-------------19--------------|
D-|-----------------------------|-----------------------------|
A-|-----------------------------|-----------------------------|
E-|-----------------------------|-----------------------------|

				     		         Segue to Part II
e-|----18-b(20)-r18--17------|-15-----------------|-----------------------|
B-|----------------------18--|--------------------|-----------------------|
G-|--------------------------|--------------------|-----------------------|
D-|--------------------------|--------------------|-----------------------|
A-|--------------------------|--------------------|-----------------------|
E-|--------------------------|--------------------|-----------------------|SHINE ON YOU CRAZY DIAMOND PART 2
Pink Floyd
(Gilmour, Waters, Wright)

---------------0------------|
------6-------------    <---| repeat 4 times.
----------0---(0)-----------|
---8----------(8)-----------|
----------------------------|
----------------------------|

C						 Gm7
-------------0----------------------------------------------------0---|
------6-----------------------------------------------------6---------|
---------0-----------------------------------------------------0------|
---8-----------------------------------------------------8------------|
-----------------3--3--3--3--3--3--3--3--3--3/5-----------------------|
-----------------1--1--1--1--1--1--1--1--1--1/3-----------------------|

		Eb		D					Gm7
------------------------------------------------------------------------|
------6-----------------------------------------------------------------|
----------0---8------------8---7----------------------------------------|
--8-----------8------------8---7----------------------------------------|
-------------------------------------3--3--3--3--3--3--3--3--3--3/5-----|
-------------------------------------1--1--1--1--1--1--1--1--1--1/3-----|

------------------0---|
-------6--------------|
------------0---------|
---8------------------|
----------------------|
----------------------|


SOLO:
-------------------------------------3---------------------------------------|
----------------------------------3-----3------------------------------------|
---17>(19)>17---15--17----------------------5>(7)----(7)>5>3------5---3------|
------------------------17\------------------------------------5----------5--|
-----------------------------------------------------------------------------|
-----------------------------------------------------------------------------|

--18>15-----18---17>(18)--17vvv---------------------------------------------|
--15----15--15---------------------18>15--18>(20)----18>(20)>18>15--18vvvv--|
----------------------------------------------------------------------------|
----------------------------------------------------------------------------|
----------------------------------------------------------------------------|
----------------------------------------------------------------------------|

--18>15------18>15-----18>(20)---18>(20)>1815--18------------------|
---------15--------15------------------------------18>(20)--18\----|
-------------------------------------------------------------------|
-------------------------------------------------------------------|
-------------------------------------------------------------------|
-------------------------------------------------------------------|

--------------------------------------------------------------------------|
--------------------------------------------------------------------------|
--15>(17)>(19)>15--12--15>(16)vvv-12------6\5--3>(4)----------------------|
-------------------------------------------------------5------------------|
-----------------------------------------------------------4\3---1--3/5---|
--------------------------------------------------------------------1/3---|

--------------------------6--------------------------------------|
-----------------------------5/6--8/-------(11)>10>8------8/-----|
------3--------------6>7------------------------------10---------|
------3--3/5vvvvvv-----------------------------------------------|
--4/5------------------------------------------------------------|
-----------------------------------------------------------------|

-------------------------------------------------------------------------|
-------------------------------------------------------------------------|
---15--17>(19)>17>(19)----17>(19)>(20)vvvvv----17>(19)>(20)---17>(20>17--|
-------------------------------------------------------------------------|
-------------------------------------------------------------------------|
-------------------------------------------------------------------------|

--------------------------------15----15-----15--------------15---15--|
----------------------------18>(20)------18>(20)>18>15---18>(20)------|
----------------------------------------------------------------------|
--16---16>17>16\14>16--16---------------------------------------------|
----------------------------------------------------------------------|
----------------------------------------------------------------------|

--17>(18)--17>(18)---17-----------------------------------------------|
-------------------------18>(20)----(20)>18>15---18-------------------|
-----------------------------------------------------17>(19)=====>17--|
----------------------------------------------------------------------|
----------------------------------------------------------------------|
----------------------------------------------------------------------|

---------------------------------------------------------------------------|
---------------------------------------------------------------------------|
--(19)>17>15-----------------3---5---5>(7)>(8)>5---(8)>5--3--5--5>(7)vvvv--|
--------------17\---------5------------------------------------------------|
---------------------------------------------------------------------------|
---------------------------------------------------------------------------|

-----------------------------------------------------------------------|
----------3----6-------------------------------------------------------|
---5>(7)-----------5>(8)==========>5--(7)>5>3-----5--5>(7)vvvvvvvv>5---|
-----------------------------------------------------------------------|
-----------------------------------------------------------------------|
-----------------------------------------------------------------------|

KEYBOARD SOLO:
Gm					 Cm
------------------------------------------------------------|
---------5\3-------------------5\3-------------------10\8---|
------------------------------------------------------------|
---3/5---5\3--------------3/5--5\3-------------8/10--10\8---|
---------------------------------------5--------------------|
------------------------------------6-----------------------|

Gm		   Eb	   D	 Eb		D    Gm    Cm   Gm    D7#9
----------------------------------------------------------------------------|
--------5\3-----8------7------8------11\---7---------------------------6----|
-----------------------------------------------------------------------5----|
---3/5--5\3-----8------7------8------11\---7---------------------------4----|
-----------------------------------------------------------------------5----|
----------------------------------------------------------------------------|

SOLO:
------15------------15---18>15-------------------3----------------0----------|
--15-------18>(20)--------------18>(20)\------3------6-----------------------|
---------------------------------------------------------5>(7)----5>3--5--3--|
-----------------------------------------------------------------------------|
-----------------------------------------------------------------------------|
-----------------------------------------------------------------------------|

-----------------------------------------------------------18-----------------|
--------------------------------------11----11-----18>(20)-----18>(20)vvvv18\-|
----------15>(17)>15>(19)>15----11/12----12-----------------------------------|
--5vvvv-----------------------------------------------------------------------|
------------------------------------------------------------------------------|
------------------------------------------------------------------------------|

-------6>5--------------------------------------------------------------|
------------6/8\--------------------------------------------------------|
--6/7--------------(17)>15>(19)>15--------15--17>(18)>17>15--17--17>15--|
------------------------------------15/17-------------------------------|
------------------------------------------------------------------------|
------------------------------------------------------------------------|

-------------------------------3----------------------------------------------|
----------------------------------6--------------------3----------------------|
--17--17--17>15--17>(19)vvvv\--------5>(7)---5--3>(5)--3---3---5----3\2-------|
---------------------------------------------------------5-------5------3-----|
--------------------------------------------------------------------------3/5-|
------------------------------------------------------------------------------|

-----------------------------------------------15-------------------------|
-------------------------------------18>(20)--------18>(20)-----18>(20)---|
--------3---------15>(17)>15>(19)>0--------------------------0------------|
-----------3>5------------------------------------------------------------|
--4/5---------------------------------------------------------------------|
--------------------------------------------------------------------------|

--15--18>15--18>(20)vvv-----18>(20)>18>15--18---------------------------------|
-----------------------------------------------18>(20)------------------------|
-------------------------0-----------------------------------15--17--17>(19)--|
---------------------------------------------------------17-------------------|
------------------------------------------------------------------------------|
------------------------------------------------------------------------------|

--------------------------------------------------------------------|
--------------------------------------------------------------------|
--17>(20)---17>(20)>17---------------------------------14--15vvvv\--|
-------------------------16vvvv---16>17>16\14--16--17--16--17vvvv\--|
--------------------------------------------------------------------|
--------------------------------------------------------------------|

-----3-----------------------------------------------------------|
--3----6---------------------------------------------------------|
----------5>(7)vvvv>5---(8)>5>3---5--3----3----------------------|
----------------------------------------5----5-------------------|
------------------------------------------------5\3--1--3/5--5\--|
-----------------------------------------------------------------|
SHINE ON YOU CRAZY DIAMOND PART 3
Pink Floyd
(Waters, Gilmour, Wright)

VERSE:
Remember when you where young.......
-------------------------------------3-------|
----------------------------------3--3-------|
-----3-----5>(7)>5----------------3----------|
--5-----5------------4---------3-------------|
-------------------------------1----------5--|
---------------------------------------------|


Shine on you crazy.......

--------------------------------------------------|
--------------------------------------------------|
--------------------------------------------------|
--8---8---5---3---3-------------------------------|
--6---5---3---1---3---3>(5)>3---------------------|
------------------1-------------1vvvv---1--2vvvv--|


Now there's a look.....

-----------------------------------------------|
----6>(8)>6---------2------------3--3--3-------|
-------------5>(7)---------------3--3--3-------|
-----------------------------3---3--3----------|
-----------------------------1-------------5\--|
-----------------------------------------------|

Shine on you crazy.....
-------------------------13--13--13--10--8/10--1--|
-------------------------13--13--13--10--8/10--1--|
---8---8---5---3----------------------------------|
---6---5---3---1----------------------------------|
--------------------1-----------------------------|
--------------------------------------------------|


You were cought in the crossfire....
and
Well you wore out your welcome...


-----------------------------------------------------------------|
-----------------------------------------------------------------|
-----3--5--5>(7)>5-------3--5--5>(7)>5>3-----3--5--5>(7)>5-------|
--5-------------------4-------------------3------------------2---|
-----------------------------------------------------------------|
-----------------------------------------------------------------|


-----------------------------------------------------------------------1---2---|
-----------------------------------------5-----------------6-----------------3-|
-----------------8-----8--------------6-----6-----------7-----7----------------|
-----------------8>10--8-----------5------------------8----------8--0----0-----|
--3--5--6--8/10-----------10\7--7----------------7--8--------------------------|
-------------------------------------------------------------------------------|


interlude is part 4

You reached for the ...
---------------------------------------------------------3-------------|
----------------------11--13>(15)>13-----------------3---3---3---------|
-----------------------3---5>(7)>5--->3--------------3-------3---------|
---5-----------------------------------------4---3---------------------|
-------------------------------------------------1------------------5--|
---3-------------------------------------------------------------------|


Shine on you crazy....
------------------------------------------------------------|
------------------------------------------------------------|
------------------------------------------------------------|
---8---8---5---3--------------------------------------------|
---6---5---3---1--------3---3>(5)--3------------------------|
--------------------1---1-------------3>(5)---1vvvvvv--1/2--|

threatened by shadows...
-------------------------------------------------------------|
---6>(8)>6>(8)>6--6-----------------------------3-----3------|
---------------------5>(7)---3>5>3vvvvvv--------3--3--3------|
---------------------------------------------3--3--3-----3---|
---------------------------------------------1---------------|
-------------------------------------------------------------|

Shine on you crazy.....
------------------------13--13--13--10--8\1--|
------------------------13--13--13--10--8\1--|
---------------------------------------------|
---8--8--5--3--------------------------------|
---6--5--3--1--------------------------------|
-----------------1---------------------------|

SHINE ON YOU CRAZY DIAMOND PART 4
Pink Floyd
(Waters, Gilmour, Wright)

Two Guitars:
-----------------------------------------------------|
--13>(15)vvvvvvvvv--(15)>13>11--13>(15)vvvvvvvvvvv---|
---5>(7)vvvvvvvvvv---(7)>5>3-----5>(7)vvvvvvvvvvvv---|
-----------------------------------------------------|
-----------------------------------------------------|
-----------------------------------------------------|

-----------------------------------------13--15>(16)--15vvvvv\--|
--(15)>13--11--13--14--15vvvv---15--16----6---8>(9)----8vvvvv---|
---(7)>5----3---5---6---7vvvv----7---8--------------------------|
----------------------------------------------------------------|
----------------------------------------------------------------|
----------------------------------------------------------------|

----------------------------------------------------------------------------|
--15>(16)-----15-------16>(18)--16>15---13vvv-------------------------------|
---7>(8)-------7--------8>(10)---8>7-----5vvv----12>10vvvvvv----------------|
--------------------------------------------------------------------4vvvvv--|
----------------------------------------------------------------------------|
-----------------------------------------------3>(5)>3--1vvvv---1---2vvvvv--|
SHINE ON YOU CRAZY DIAMOND PART 5
Pink Floyd
(Waters)

---------------0------------------------------0----|
------6-----------------------------6--------------|
---------0----(0)------------------------0---(0)---|
--8-----------(8)---------------8------------(8)---|
---------------------------------------------------|
---------------------1>3>1>3-----------------------|

--8-------10------8------0------8------10-------8--------|
----6--------6------6------6------6-------6--------6-----|
---------------------------------------------------------|
-------8-------8------8------8------8-------8---------8--|
---------------------------------------------------------|
---------------------------------------------------------|

-0--------8--------10------8-------0------8--------10-------8--------|
----6--------6---------6-----6-------6-------6--------6--------6-----|
---------------------------------------------------------------------| repeat
-------8--------8--------8------8-------8-------8--------8-------8---|	3
---------------------------------------------------------------------| times.
---------------------------------------------------------------------|

--6---6------6-------5-------6-------6--------6------5------6---------|
---------------8-------8-------8--------8-------8------8-------8------|
----------------------------------------------------------------------|
---------8--------8-------8-------8--------8-------8-----8--------8---|
----------------------------------------------------------------------|
----------------------------------------------------------------------|

--5-------5-------4-------5--------6-----5--------4-----5---------|
----7-------7-------7--------7--------7-----7--------7-----7------|
------------------------------------------------------------------|
------7--------7-------7--------7-------------7---------------7---|
------------------------------------------------------------------|
------------------------------------------------------------------|

--0-------8--------10--------8-------0-------8-------10--------8-------|
----6-------6----------6-------6-------6--------6--------6-------6-----|
-----------------------------------------------------------------------| repeat
------8--------8---------8--------8-------8--------8--------8-------8--|	 8
-----------------------------------------------------------------------| times.
-----------------------------------------------------------------------|

--6------6------5------6------6------6-----5-------6---------|
----8------8------8-------8-----8-------8-----8------8-------|
-------------------------------------------------------------|
------8-------8------8------8------8-------------8------8\7--|
-------------------------------------------------------------|
-------------------------------------------------------------|

--5-----5-----4-----5-----6------5-----4-----5---------|
-----7----7-----7-----7-----7-------7-----7-----7------|
-------------------------------------------------------|
------------7-----7-----7-----7--------------------7---|
-------------------------------------------------------|
-------------------------------------------------------|

--0-------8-------10------8------0--------8-------10--------8----------|
-----6-------6-------6------6-------6-------6---------6--------6-------|
-----------------------------------------------------------------------| repeat
-------8-------8--------8------8-------8-------8---------8---------8---|  and
-----------------------------------------------------------------------| fade
-----------------------------------------------------------------------|
Learing To Fly

rhythm figure: verse

	   v-- with bar
-----------/9\\7----0----2--2---------------------------------|
---3-------/10\8----0----3--3---------------------------------|
---0-------/9\\7----0----2--2---------------------------------|
---0----------------0-----------------------------------------|
--------------------2-----------------------------------------|
---3---------------------------|  (piano----------------------|                                                      (repeat 4X)
E-|-----15--------15--------18--------18--------11--------11--|
B-|-----13--------13--------16--------16---------9---------9--|
G-|-----------------------------------------------------------|
D-|-----------------------------------------------------------|
A-|-----------------------------------------------------------|
E-|-----------------------------------------------------------|
     ^                 ^                    ^                      ^
  (bells sound on accent marks above)

   (piano) (Lyrics start)                                      (repeat 4X)
E-|------3--------3--------6--------6-------------------------------------|
B-|------1--------1--------4--------4--------1--------1-------------------|
G-|*-----------------------------------------1--------1------------------*|
D-|*---------------------------------------------------------------------*|
A-|---------------------------------------------------------3----------3--|
E-|-----------------------------------------------------------------------|


   The low notes in the following are doubled by another guitar and a bass:
E-|-------------------------------------------|
B-|---4----4----3----3----1----1----0---------|
G-|---5----5----3----3----1----1----0---------|
D-|-------------------------------------------|
A-|---3----------------------------------2----|
E-|-------------4---------3---------3---------|


E-|---------------------------------------------|
B-|----4----4----3----3----1----1----0----------|
G-|----5----5----3----3----1----1----0----------|
D-|---------------------------------------------|
A-|----3-----3--1-------------------------------|
E-|--------------4---------3----------3----3----|


                                                               (repeat 4X)
E-|------3--------3--------6--------6-------------------------------------|
B-|------1--------1--------4--------4--------1--------1-------------------|
G-|*-----------------------------------------1--------1------------------*|
D-|*---------------------------------------------------------------------*|
A-|---------------------------------------------------------3----------3--|
E-|-----------------------------------------------------------------------|


   Chorus (piano)
   ("The grass was greener....")
E-|------------------------------------------------------------------------|
B-|------------------------------4-----------3-----------------------3-----|
G-|*-----------------------------5-----------3-----------5-----------3-----|
D-|*--------------------------5-----5-----5-----5--------6--------3-----3--|
A-|------------------------3--------------------------6-----6--1-----------|
E-|------------------------------------3-----------4-----------------------|
  |                                                                        |
  | (Gtr doubled by bass)                                                  |
E-|------------------------------------------------------------------------|
B-|------------------------------------------------------------------------|
G-|*-----------------------------------------------------------------------|
D-|*-----------------------------------------------------------------------|
A-|------------------------3--------3--------------------------------------|
E-|------------------------------------3--------3--4--------4--6--------6--|


   (Piano and Gtr. 1)
E-|------------------------------------------------------|
B-|------------4-----------3-----------------------3-----|
G-|------------5-----------3-----------5-----------3----*|
D-|---------5-----------5-----5--------6--------3-----3-*|
A-|------3--------3-----------------6-----6--1-----------|
E-|------------------3-----------4-----------------------|
  |                                                      |
  |                                                      |
  | (Gtr. 2 and bass)                                    |
E-|------------------------------------------------------|
B-|------------------------------------------------------|
G-|-----------------------------------------------------*|
D-|---------------------------5--5--------5--6----------*|
A-|------3--------3-5-6----------------------------------|
E-|------------------------------------------------------|

                                                               (repeat 4X)
E-|------3--------3--------6--------6-------------------------------------|
B-|------1--------1--------4--------4--------1--------1-------------------|
G-|*-----------------------------------------1--------1------------------*|
D-|*---------------------------------------------------------------------*|
A-|---------------------------------------------------------3----------3--|
E-|-----------------------------------------------------------------------|

   The bass notes in the following are doubled by another guitar and a bass:
E-|-------------------------------------------|
B-|---4----4----3----3----1----1----0---------|
G-|---5----5----3----3----1----1----0---------|
D-|-------------------------------------------|
A-|---3----------------------------------2----|
E-|-------------4---------3---------3---------|


E-|--------------------------------------------|
B-|----4----4----3----3----1----1----0---------|
G-|----5----5----3----3----1----1----0---------|
D-|--------------------------------------------|
A-|----3-----3--1------------------------------|
E-|--------------4---------3---------3----3----|


    Bridge:
    (Gtr. 1)
E-|---------------------------------------------------------------------------|
B-|---------------------------------------------------------------------------|
G-|---------------------------------------------------------------------------|
D-|-2----2/4-4----4/5-5----5/-9--9--7-----------------------------------------|
A-|---------------------------------------------------------------------------|
E-|---------------------------------------------------------------------------|
  |                                                                           |
  |  Gtr 2                                                                    |
E-|---------------------------------------------------------------------------|
B-|---------------------------------------------------------------------------|
G-|---------------------------------------------------------------------------|
D-|-----------------------------------7--9--10--7--9--5--7--7h9p7-5h7p5-3h5p3-|
A-|------------------------------------------^-----^-----^--------------------|
E-|---------------------------------------------------------------------------|

    Gtr 1
E-|---------------------------------------------------------------------------|
B-|---------------------------------------------------------------------------|
G-|---------------------------------------------------------------------------|
D-|-2----2/4-4----4-5-5----5/-9--9--9----5--7---------------------------------|
A-|---------------------------------------------------------------------------|
E-|---------------------------------------------------------------------------|
  |                                                                           |
  |                   Gtr 2                                                   |
E-|---------------------------------------------------------------------------|
B-|---------------------------------------------------------------------------|
G-|---------------------------------------------------------------------------|
D-|------------------------------------------------7--10--9/-12----10p9--7----|
A-|---------------------------------------------------------------------------|
E-|---------------------------------------------------------------------------|

     Gtr 1
E-|---------------------------------------------------------------------------|
B-|---------------------------------------------------------------------------|
G-|---------------------------------------------------------------------------|
D-|-2----2/4-4----4/5-5----5/-9--9--7-----------------------------------------|
A-|---------------------------------------------------------------------------|
E-|---------------------------------------------------------------------------|
  |                                                                           |
  | Gtr 2                                                                     |
E-|---------------------------------------------------------------------------|
B-|---------------------------------------------------------------------------|
G-|---------------------------------------------------------------------------|
D-|-----------------------------------------7--10--9----5--9--7----5--7--7/9--|
A-|---------------------------------------------------------------------------|
E-|---------------------------------------------------------------------------|

    Gtr 1
E-|---------------------------------------------------------------------------|
B-|---------------------------------------------------------------------------|
G-|---------------------------------------------------------------------------|
D-|-2----2/4-4----4-5-5----5/-9--9--9----5--7---------------------------------|
A-|---------------------------------------------------------------------------|
E-|---------------------------------------------------------------------------|
  |                                                                           |
  | Gtr 2                                                                     |
E-|---------------------------------------------------------------------------|
B-|---------------------------------------------------------------------------|
G-|---------------------------------------------------------------------------|
D-|----------------------------------------------7\5--3--2--3--0--2-----------|
A-|------------------------------------------------------------------3--0-----|
E-|------------------------------------------------------------------------3--|

Play this part with a pitch-transposer. It's one octave higher than written.

  (piano)
E-|-----15--------15--------18--------18--------11--------11--------------|
B-|-----13--------13--------16--------16---------9---------9--------------|
G-|*---------------------------------------------------------------------*|
D-|*---------------------------------------------------------------------*|
A-|-----------------------------------------------------------------------|
E-|-----------------------------------------------------------------------|
     ^                 ^                    ^                      ^
  (bells sound on accent marks above)

                                                               (repeat 4X)
E-|------3--------3--------6--------6-------------------------------------|
B-|------1--------1--------4--------4--------1--------1-------------------|
G-|*-----------------------------------------1--------1------------------*|
D-|*---------------------------------------------------------------------*|
A-|---------------------------------------------------------3----------3--|
E-|-----------------------------------------------------------------------|


   Chorus
E-|------------------------------------------------------------------------|
B-|------------------------------4-----------3-----------------------3-----|
G-|------------------------------5-----------3-----------5-----------3-----|
D-|---------------------------5-----5-----5-----5--------6--------3-----3--|
A-|------------------------3--------------------------6-----6--1-----------|
E-|------------------------------------3-----------4-----------------------|
  |                                                                        |
  | (Gtr. doubled by bass)                                                 |
E-|------------------------------------------------------------------------|
B-|------------------------------------------------------------------------|
G-|------------------------------------------------------------------------|
D-|------------------------------------------------------------------------|
A-|------------------------3--------3--------------------------------------|
E-|------------------------------------3--------3--4--------4--6--------6--|

 High Hopes

   (Piano)
E-|------------------------------------------------------|
B-|------------4-----------3-----------------------3-----|
G-|------------5-----------3-----------5-----------3-----|
D-|---------5-----------5-----5--------6--------3-----3--|
A-|------3--------3-----------------6-----6--1-----------|
E-|------------------3-----------4-----------------------|
  |                                                      |
  |                                                      |
  | (Gtr. and bass)                                      |
E-|------------------------------------------------------|
B-|------------------------------------------------------|
G-|------------------------------------------------------|
D-|---------------------------5--5--------5--6-----------|
A-|------3--------3-5-6----------------------------------|
E-|------------------------------------------------------|


Solo (slide guitar) -- notes in "<>" are very quick grace notes:

    slowly
E-|-------8~~~-11\10--/8-\6~~-----8-6-8~--\------|
B-|--4-/-8---------.-----------/8----------------|
G-|----------------------------------------------|
D-|----------------------------------------------|
A-|----------------------------------------------|
E-|----------------------------------------------|

the ` means to drop off -- a quick slide down:

E-|--------------------------------------------6-<6>/8`-10`-11`-/-13`-|
B-|--<8>\6----\4---/8---6-\-4-------------8-8~------------------------|
G-|---------------------------5-\-3-5~~--/----------------------------|
D-|-------------------------------------------------------------------|
A-|-------------------------------------------------------------------|
E-|-------------------------------------------------------------------|


E-|-/15~~~~-/20-\-18-/20-\18-<15>\13--/15~~-\----8-10-11--10\--/6--|
B-|--------------------------------------------/8.-----------------|
G-|----------------------------------------------------------------|
D-|----------------------------------------------------------------|
A-|----------------------------------------------------------------|
E-|----------------------------------------------------------------|


E-|------------------------------------------6--6-/-8--------|
B-|-6-/-8~~~\--<6>/<8>\<6>/<7.5>-----------8-.------.-8-/-11-|
G-|------------------------------8--\--5/8-.-----------------|
D-|----------------------------------------------------------|
A-|----------------------------------------------------------|
E-|----------------------------------------------------------|


E-|-6-/-8-----/15~~~----|
B-|---------------------|
G-|---------------------|
D-|---------------------|
A-|---------------------|
E-|---------------------|

play fig 5 times. Lyrics start on third time.


chorus fig.

---------------------------------------------------|
---5-----5-----5-----------------------------------|
---5-----5-----5---------------------------5----7--|
---5-----5-----5---------7----5----3----3--5----7--|
---3-----3-----3----2----7----5----3----3--3----5--|
-------------------------5----3----1----1----------|


1st solo

--------------------------------15>14VVVVVV-------------------------------|
--18>(20)vvvvvvvv\-----------------------------15>12--15>(17)vvvv--15>12--|
----------------------14>(16)---------------------------------------------|
--------------------------------------------------------------------------|
--------------------------------------------------------------------------|
--------------------------------------------------------------------------|


----------------------------------------------------|
---(15)>14>12\/-14>12-------------------------------|
------------------------11>(12)===>11--9--9\7-------|
-----------------------------------------------5\---|
----------------------------------------------------|
----------------------------------------------------|

fills during the second verse;


...tips of my wings						 Unheeded ...
------------------------------------------------------------------------------|
----------------------------15------------------------------------------------|
-------------------14>(16)-------(16)>14>12--14--12\11>12---------------------|
------------------------------------------------------------14vvvvvv----------|
------------------------------------------------------------------------------|
------------------------------------------------------------------------------|


... of everything		No navigator...  ... find my way home....
-----------------14---14---15vvvvv-------------------------------15vvvvvvv--|
----------------------------------------------------------------------------|
-----------------14---14---16vvvvv--------------------------16--------------|
----------------------------------------------------------------------------|
----------------------------------------------------------------------------|
----------------------------------------------------------------------------|

... to stone
-----------------------------------------------|
-----------------------------------------------|
--------------(15)>14>12--12--14-12vvvvvvvvv---|
-----------------------------------------------|
-----------------------------------------------|
-----------------------------------------------|

C     (B)  A5			  G5		  F5
	   ... learning to fly
----------------------------------------------------------|
-----------------------------------8----------------------|
----------------------------7>(9)------(9)>7--5>7--5------|
----------------------------------------------------------|
----------------------------------------------------------|
----------------------------------------------------------|


with chorus figure;

... determined to try...
-----------------------------------8---------/8vvvvvvv----|
----5>(6)>5---------------------------10>8----------------|
---------------------------------------------/9vvvvvvv----|
----------------------------------------------------------|
----------------------------------------------------------|
----------------------------------------------------------|


... circling skies...			 ...earthbound misfit....
							      v----v- w/ bar
------------------8----------------------------------------------------------|
-----------------------------------------------------------------------------|
---------------------7>(9)>7-5vvvvvv------------(9)>7>5--7vvvv\/\/\/-\5\4\2--|
-----------------------------------------------------------------------------|
-----------------------------------------------------------------------------|
-----------------------------------------------------------------------------|


---------------------------------------------------5----------|
---/12>(13)vvvvvvvv------------------------------5---8--------|
--------------------------7>(9)--7>9--7\5--7>(9)-------7>(9)--|
--------------------------------------------------------------|
--------------------------------------------------------------|
--------------------------------------------------------------|


----------------------------------------14VVVVVVVV----|
------------------------------------------------------|
----7>(9)>7>5---5-7>(9)vvvvvv\---12/14----------------|
--------------7---------------------------------------|
------------------------------------------------------|
------------------------------------------------------|

C		   (B) 	      A		   G	    F5
  There's no sensation to compare with this, suspended animation...


chorus figure over;

...bliss
------------------------------|
--------------------8-8-8-8---|
---------5--7>(9)-------------|
------------------------------|
------------------------------|
------------------------------|


solo 2

------15\\-------15--------15--------15--------------------15-\--|
--18>(20)\---18>(20)---18>(20)---18>(20)---18>(20)\----18>(20)\--|
-------------------------------------------18>(19)\--------------|
-----------------------------------------------------------------|
-----------------------------------------------------------------|
-----------------------------------------------------------------|


-0---0-0--0-------------------0---0------------------------|
-3/5-5-5--5--3----------------0---0------------------------|
-----------------4--0--2>(3)----------4\2----------0-------|
----------------------------------------------2>0-----2>0--|
-----------------------------------------------------------|
-----------------------------------------------------------|


-------------------------------------------------|
-------------------------------------------------|
--12>(14)>12---14>(16)====>14>12vvvvv-------12---|
----------------------------------------14-------|
-------------------------------------------------|
-------------------------------------------------|


---------------------------------------------------------|
------15----15----15------------15----15---15------------|
--14>(16)--(16)-->14--12----14>(16)--(16)->14--12--------|
----------------------------------------------------14---|
---------------------------------------------------------|
---------------------------------------------------------|


---------------------------------------------------3vvvv-------5-------------|
---15--15------15------------------------------/5----------5------5vvvvvv----|
---12--12--14>(16)--------------------------0--------------------------------|
---------------------16----12---12vvvvvv-------------------------------------|
-----------------------------------------------------------------------------|
-----------------------------------------------------------------------------|


--------------------------------------------------------------------|
--------------------------------------------------------------------|
-------------------------------------------7------------------------|
-----9\7--5------5--7>(8)--7--5-------7/9-----8\7>5------5vvvvvvv---|
-------------7--------------------7-------------------7-------------|
--------------------------------------------------------------------|


--0----0--0--0--0-----------------------------------------------------|
--3/5--5--5--3--0-----------------------------------------------------|
--------------------2>(3)>2>0------2>(3)>2>0------0-2>(3)>2>0---------|
-------------------------------2--------------2----------------2---0--|
----------------------------------------------------------------------|
----------------------------------------------------------------------|

----------------------------------------------------|
-----------------------15---------------------------|
--(15)>14>12--14>(16)-------12>14---12vvvvvvvvvv----|
----------------------------------------------------|
----------------------------------------------------|
----------------------------------------------------|

Take It Back

HEAVEY ECHO THROUGHOUT
	G
e:------------|
B:------3--3--|
G:----0-------|
D:--5-----5---|  First sequence.....Repeat 12 times
A:------------| (mute D string with wrist)
E:------------|
	G		      ^--let ring (LOTS of echo)
e:-------------------3---3----3--------------------------------|
B:------3--3-----3-----3------1-(pause-------3---3-------------|
G:----0--------0---0-------0-----with------0-------------------|
D:--5-----5--5-------------------echo)----5-----5--------------|
A:-------------------------------------------------------------|
E:-------------------------------------------------------------|

Repeat first sequence a few more times

e:---------------3--3------------------------------------------|
B:------3--3------3-1------(pause with echo again)-------------|
G:----0--------0-----------------------------------------------|
D:--5-----5--5-------------------------------------------------|
A:-------------------------------------------------------------|
E:-------------------------------------------------------------|

repeat first sequence

e:-------3----|
B:---3---3----|
G:----0--0----|<----starts into lyrics
D:-5-----5----|
A:------------|
E:------------|


(G)
Her love rains down on me, easy as the breeze
I listen to her breathing, it sounds like the waves on the seas
(C)
I was thinking all about her, burning with rage and desire
(G)
We were spinning into darkness, and the earth was on fire

She could (Cadd9) Take it back, She might (Csus) take it back

   (G)
Someday


So I spied on her, I lied to her, I made promises I could not keep.
And I here her laughter rising, rising from the deep.

And make here prove her love to me, I take all that I can take.

I push her to the limit, to see if she would break.

She might take it back, She could take it back

Someday
(continuous G for a moment)


           ^-----let the 8 ring with 10--------------------|
e:-------------------10------------------------------------|
B:-8(hold)/10--12--8-----(12-10-8)----------| <---(12-10-8-|=hit string once,
G:---------------------------------------------------------|    let fingers up in sequence
D:---------------------------------------------------------|
A:---------------------------------------------------------|
E:---------------------------------------------------------|

e:-------------5h7----3-------5/7---10-10h12--12bend13--12/10--|
B:-8/5---5(p)-------3---3--------------------------------------|  (p) shake/
G:-------------------------------------------------------------|hammer finger
D:-------------------------------------------------------------|when note is
A:-------------------------------------------------------------|played
E:-------------------------------------------------------------|

e:-7/3---------------------------------------------------------|
B:----3----0h3--3h5-5--5h7-7/8-8/10--12---12/(mute after 8)----|
G:------0------------------------------------------------------|
D:-------------------------------------------------------------|
A:-------------------------------------------------------------|
E:-------------------------------------------------------------|

			(h)=hit 3, let 3 finger up with other finger on 2
e:---3h2--3h0-----3h2--3h0-----3h2-3-------3h2-3---------------|\------------|
B:----------------------------------3-----------3----------------------------|  \
G:-------------------------------------------------------------|   > Repeat--| x3
D:---------------------------------------------------------------------------|  /
A:---------------------------------------------------------------------------| /
E:---------------------------------------------------------------------------|


At the end of the 3rd repeat, a secound guitar comes in with this
(you'll get the idea)
e:---15h14--15h12----15h14--15h12----15h14--15-----15h14-------|
B:---------------------------------------------15--------15----|
G:-------------------------------------------------------------|
D:-------------------------------------------------------------|
A:-------------------------------------------------------------|
E:-------------------------------------------------------------|

e:---15h14--15h12----15h14--15h12-----15h14--17----15----------|
B:-------------------------------------------------15----------|
G:-------------------------------------------------0-----------|
D:-------------------------------------------------17----------|
A:-------------------------------------------------------------|
E:-------------------------------------------------------------|

Now I have seen the warnings, screaming from all sides
It's easy to ignore them, God knows I've tried

All of of this temptation, (inner turned my faithfull eyes?)

Till I couldn't see the danger, or here the rising tide

She could take it back, she will take it back

Someday

She will take it back. She will take it back

Someday(Cadd9)   G

Comin Back to life
COMING BACK TO LIFE

"The Division Bell"


INTRO:
   No Chord              (C)
    (keyboard fade in)
e-|--------------------|----------|--------------------------------|
B-|--------------------|----------|------------5-------------------|
G-|--------------------|----------|--7---b(9)-----(9)b(10)r(9)r7---|
D-|--------------------|--5---5---|--------------------------------|
A-|--------------------|----------|--------------------------------|
E-|--------------------|----------|--------------------------------|

                                   Fmaj7
e-|------------------------------|--------------------------------|
B-|------------------------------|--------------------------------|
G-|----------5-7-7b(9)----r7-----|------------5--7--7b(9)r7p5-----|
D-|--------5------------------5--|-5~------7-------------------7--|
A-|------------------------------|--------------------------------|
E-|------------------------------|--------------------------------|

                              G        Am
e-|----------------------------------|-----------------------------|
B-|----------------------------------|-----------------------------|
G-|--5---------7p5------7--7b(9)-----|----------7---5\4--5/7~------|
D-|----------------------------------|-----------------------------|
A-|----------------------------------|-----------------------------|
E-|----------------------------------|-----------------------------|

    G                             F
e-|----------------------------|------------------------------------------|
B-|----------------------------|------------------------------------------|
G-|-----------------5--4-------|--5-----4---------------------------------|
D-|------------------------7---|-----7-----5/7---5------------------------|
A-|----------------------------|----------------------6p5p3-----5-----3~--|
E-|----------------------------|-----------------------------5-----5------|

                       Fsus2    C
e-|---------------------------|------------12--------------|
B-|---------------------------|-15---b(17)--------(17)r15--|
G-|--------------------12--12-|----------------------------|
D-|---------------------------|----------------------------|
A-|---------------------------|----------------------------|
E-|---------------------------|----------------------------|

                                   Fmaj7
e-|------------------------------|------------------------------------------|
B-|-----13-15-15b(17)~---r15-----|-------------------13-----15b(17)13-15----|
G-|--12-----------------------12-|-12~-------12/14-------14--------------14-|
D-|------------------------------|------------------------------------------|
A-|------------------------------|------------------------------------------|
E-|------------------------------|------------------------------------------|

                                      Am
e-|---------------------------------|-----5-------------------------|
B-|-13-15--15b(17)r15p13------------|---5----8----------------------|
G-|----------------------14---------|-x--------7b(9)~-------7--5\4--|
D-|---------------------------------|-------------------------------|
A-|---------------------------------|-------------------------------|
E-|---------------------------------|-------------------------------|

     G                            F
e-|-----------------------------|-------------------------------------------|
B-|-----------------------------|-------------------------------------------|
G-|--5/7~----------5-4---5---4--|-----------------------5-----5-7b(9)r7p5---|
D-|--------------------7---7----|-5--7----------------5---7---------------7-|
A-|-----------------------------|-------6p5p3---3-5/7-----------------------|
E-|-----------------------------|-------------5-----------------------------|

                                    Am7
e-|-------------------------------|----------------------------|
B-|----------------------15b(17)~-|--------------------13-15---|
G-|-------------------------------|-------------12/14----------|
D-|-------------------------------|----------------------------|
A-|-------------------------------|----------------------------|
E-|-------------------------------|----------------------------|

    F                             Am7
e-|-----------------------------|---------------------------------|
B-|-15-b(17)r15p13-15~----------|-------------------------------8-|
G-|-----------------------------|-5-7--7b(9)~------------7b(9)----|
D-|--------------------------7--|---------------------------------|
A-|-----------------------------|---------------------------------|
E-|-----------------------------|---------------------------------|

    Bb                             Am7
e-|------------------------------|----------------------------|
B-|-8--6--8p6p5-h6--6-5h6p5----5-|----------------------------|
G-|--------------------------7---|-7b(9)------r7p5---5-7-7----|
D-|------------------------------|-----------------7----------|
A-|------------------------------|----------------------------|
E-|------------------------------|----------------------------|

    Gsus4                      C
e-|-------------------------------|--------------------------||
B-|-------------------------------|--------------------------||
G-|------b(9)r7p5-7---p5p4----h5--|--------------------------||
D-|-------------------------------|--------------------------||
A-|-------------------------------|--------------------------||
E-|-------------------------------|--------------------------||


VERSE:
C                                    Fmaj7
Where were you when I was burned and broken,
          Am               G              F
While the days slipped by, from my window watching?
    C                                        Fmaj7
And Where were you when I was hurt and I was helpless?
           Am                     Gadd9             F
Beause the things you say and the things you do surround me
               Am7                 F
While you were hanging yourself on someone else's words,
Am                           Bb
Dying to believe in what you heard,
Am7           Gsus4             G       Csus2
I was staring straight into the shining sun

Csus2               Fsus2           F
Lost in thought and lost in time,
          Am                    G5                   F
While the seeds of life and the seeds of change were planted
   Csus2         C             Fsus2
Outside the rain fell dark and slow,
        Am               G                          Fsus2
While I pondered on this dangerous but irresistible pastime
         Am                        Fsus2
I took a heavenly ride through our silence
           Am              Bbsus2
I knew the moment had arrived
    Am                   Gsus4             Csus2
For killing the past and coming back to life

GUITAR SOLO:
e:------------------------------------------------------------------------|
B:-----------8---------------------------8--10--10b13==r10--8--10---------|
G:-----7b9===---b9r7--5-----5--7b9===-7---------------------------9p7--5--|
D:--5--------------------7------------------------------------------------|
A:------------------------------------------------------------------------|
E:------------------------------------------------------------------------|

--------------------------------------------------------------------------|
--------------------10--8-------------------------------------------------|
-----5--h7-----7b9---------9--9s7--5--7b8r------------5--7-----5--7b9-----|
--7-----------------------------------------7--5--h7--------7-------------|
--------------------------------------------------------------------------|
--------------------------------------------------------------------------|

--------------------------------------------------|--3/8--10--10b12--15---|
------------------8--5----------------------------|-----------------------|
--7p5-----5--7b9--------7b8--5-----7=--5--7b--/0--|-----------------------|
-------7------------------------7-----------------|-----------------------|
--------------------------------------------------|-----------------------|
--------------------------------------------------|-----------------------|

    s.r.
--b12rrrr10--8------8--/17--17--15--15--13--13--12h13p12------------------|
----------------10----------------------------------------13------11/15---|
--------------------------------------------------------------12----------|
--------------------------------------------------------------------------|
--------------------------------------------------------------------------|
--------------------------------------------------------------------------|

--12\8----/20--20--20--19h20--20--19--19--17--17--19--15--17--12--15--10--|
--------------------------------------------------------------------------|
--------------------------------------------------------------------------|
--------------------------------------------------------------------------|
--------------------------------------------------------------------------|
--------------------------------------------------------------------------|

--12b--8----------8------10b12r10--8--10------8--8s0----------------------||
----------10--10-----10-------------------10------------------------------||
--------------------------------------------------------------------------||
--------------------------------------------------------------------------||
--------------------------------------------------------------------------||
--------------------------------------------------------------------------||

SECOND VERSE :
-------------8/10--8-----|---------------13p10------10------------|-------|
----xxx-x----8/10--10----|----------------------13------13b15r13--|-------|
----xxx-x----------------|----------------------------------------|-------|
----xxx-x----------------|----------------------------------------|-------|
-------------------------|----------------------------------------|-------|
-------------------------|----------------------------------------|-------|
 ...silence              | ...had begun                           |

----11p9p8--h9 9--9\2----------------|
-------------------------------------|
-------------------------------------|
-------------------------------------|
-------------------------------------|
-------------------------------------|
 ...shining  sun

         Am                        Fsus2
I took a heavenly ride through our silence
           Am               Bbsus2
I knew the waiting had begun
Am                       G                Csus2
And headed straight... Into the shining sun

OUTRO SOLO:
-----------------8--10--10/12===12\0--|-----------------------------------|
-------8--8--10-----------------------|-----------------------------------|
--0/7---------------------------------|--0--0--7b9r8b10r7b9r7p5h7p5--/9---|
--------------------------------------|-----------------------------------|
--------------------------------------|-----------------------------------|
--------------------------------------|-----------------------------------|
                                               ^
----------------------||--12--12--12==--12------12------12==--12--||-------|
------8---------------||--13--13--13==--13--13--13--13--13==--13--||-------|
--10-----9\5-----5/9--||--12--12--12==--12--12--12--12--12==--12--||-------|
--------------7-------||------------------------------------------||-------|
----------------------||------------------------------------------||-------|
----------------------||------------------------------------------||-------|
release immediately  ^   ^------- repeat this section 3 times -------------|

--/15--15------15------15--/17--17--15===--12--15--17b20===---\15h17------|
---13--13--13--13--13--13-------------------------------------------------|
--------------------------------------------------------------------------|
--------------------------------------------------------------------------|
--------------------------------------------------------------------------|
--------------------------------------------------------------------------|

--b20==r17--15h17p15p12--15--12b13--10--10\8--8\7--7\5--5------7--8/10----|
-----------------------------------------------------------10-------------|
--------------------------------------------------------------------------|
--------------------------------------------------------------------------|
--------------------------------------------------------------------------|
--------------------------------------------------------------------------|

--8--7--8--7------7/8---------------------7--8----------------------------|
--------------10-------8--8--8-----8--10--------0--0/8--------------------|
--------------------------------9-----------------------9--7--7/9--5-5----|
--------------------------------------------------------------------------|
--------------------------------------------------------------------------|
--------------------------------------------------------------------------|

--------------------------------------------------------------------------|
--------------------------------------------------------------------------|
------5-5---0-5-5---0-5-5---0-5-5--7/9--5--5--5--4--5--4------------------|
--7-7-----7-------7-------7-------------------------------7--5--5/7--5----|
--------------------------------------------------------------------------|
--------------------------------------------------------------------------|

                                            s.r.
----------------------------|---------------------------------------------|
----------------------------|---------------------------------------------|
----------------------------|--9--9--9--9b10rrrr5--7p5--12\9--9--7/9\7p5\-|
----------------------------|---------------------------------------------|
--7\5--3-----------3/5--p3--|---------------------------------------------|
----------5--3--5-----------|---------------------------------------------|

-----------------------------------------8/10--8----------------5---------|
------------------------------------xxx--8/10--8-----5/8---5/8-----8--5h8-|
--5---------------------------------xxx-----------------------------------|
-----7------------------------------xxx-----------------------------------|
--------7\5--3--5--5--5--3--3=====----------------------------------------|
----------------5--5--5--3--3=====----------------------------------------|

--------------------------------------------------------------------------|
-----5---------------------------5--6--8--(3)/5----------------0----------|
--7-----5------------------5--5------------------5--0--5======\0----------|
----------------------5h7------------------------------5======\0----------|
-------------------------------------------------------3======\-----------|
--------------------------------------------------------------------------|
                                 ^ v.rapid slide from 3rd fret


BASS:
            2m35s
G:--------------------------------------------|
D:--------------------------------------------|
A:----------3-3-3-3-3-3-3-3-3-3-3-3-3-3-3-3---|
E:------------------------------------------3-|

....shining sun


(a)
||------------------------------------------------------------------|
||---------------------------5--------------------------------------|
||-3-3-3-3-3-3-3-3-3-3-3-3/7---7\3----------------------------------|
||---------------------------------1-1-1-1-1-1-1-1-1-1-1-1-1-1-1-1--|
                                                 ^------------------|
   Lost in thought               And lost in time       (1st time only)
   Outside the rain              Fell dark and slow

-----------------|             |-----------------|      |-----------------||
-----------------|             |-----------------|      |-----------------||
-0-0-0-0-0-0-0-0-|             |-----------------|      |-----------------||
-----------------|^^^^^^^^^^^^^|-3-3-3-3-3-3-3-3-|^^^^^^|-1-1-1-1-1-1-1-1-||
                                                         ^repeat this X2 ^
 while the seeds of life and the seeds of change were     planted
 while I pondered on        this dangerous & irresistible pastime     X2

                                        ^^^^^ - this is continuous!
(b)
---------------------------------------------------------------------------|
---------------------------------------------------------------------------|
-0-0-0-0-0-0-0-0-----------------0-0-0-0-0-0-0-0-1-1-1-1-1-1-1-1-0-0-0-0-0-|
-----------------1-1-1-1-1-1-1-1-------------------------------------------|

I took...        through our...  I knew the...   begun...        And I...

---------------------------------------|
---------------------------------------|
-0-0-0-----------------3-3-3-3-3-3-3-3-|
-------3-3-3-3-3-3-3-3-----------------|

       into the...     sun...

Guitar Solo : Repeat (a) twice
Repeat (b)

(There is a small bass riff done to lead onto the outro solo which was not
 available here)

Outro Solo :

First time:
---------------------------------------------------------------------------|
-------------------------5b6r5p3 5b6r5p3-----------------------------------|
-3-3-3-3-3-3-3-3-3-3-3-3---------------------------------------------------|
-----------------------------------------1-1-1-1-1-1-1-1-1-1-1-1-1-1-1-----|
                         ^done v quickly^

---------------------------------------------------------------------------|
---------------------------------------------------------------------------|
-0-0-0-0-0-0-0-0-----------------------------------------------------------|
-----------------3-3-3-3-3-3-3-3-1-1-1-1-1-1-1-1-1-1-1-1-1-1-1-1-----------|


Keep talking... missing???????

ANOTHER BRICK IN THE WALL II
          Pink Floyd
          (Waters)


          LEGEND:
           h  =3D hammer-on
           p  =3D pull-off
           b  =3D bend
           r  =3D bend release
           /  =3D slide up/down
          <5> =3D natural harmonic
          [5] =3D artifical harmonic
           ~  =3D vibrato
           tr =3D trill


          VERSE:
          E|------------------------------5------5--5----x----5--5----5--5------|
          B|------------------------------5p6----6--6----x----6--6----6--6------|
          G|------------------------------5-7----7--7----x----7--7----7--7------|
          D|--0--2--3--2----0--2--3--2----5-7----7--7----x----7--7----7--7------|
          A|------------------------------5------5--5----x----5--5----5--5------|
          E|------------------------------5------5--5----x----5--5----5--5------|

                                                                 repeat 2x i think

          E|--5------5--5----x----5--5----5--5----------------------------------|
          B|--5p6----6--6----x----6--6----6--6----------------------------------|
          G|--5-7----7--7----x----7--7----7--7----------------------------------|
          D|--5-7----7--7----x----7--7----7--7----0--2--3--2----0--2h3----------|
          A|--5------5--5----x----5--5----5--5----------------------------------|
          E|--5------5--5----x----5--5----5--5----------------------------------|


E|------------------------------------------------------5------5--5----|
B|------------------------------------------------------5p6----6--6----|
G|------------------------------------------------------5-7----7--7----|
D|------------------------------------------------------5-7----7--7----|
A|------------------------------------------------------5------5--5----|
E|------------------------------------------------------5------5--5----|

          E--x----5----5--------5------5--5----x----5----5----------------------|
          B--x----6----6--------5p6----6--6----x----6----6----------------------|
          G--x----7----7--------5-7----7--7----x----7----7----------------------|
          D--x----7----7--------5-7----7--7----x----7----7----------------------|
          A--x----5----5--------5------5--5----x----5----5----------------------|
          E--x----5----5--------5------5--5----x----5----5----------------------|

          PRE-CHORUS:
          E|--------3------x--3--x--3----3--3--3--3--3----------3------x--3--x--|
          B|--------3------x--3--x--3----3--3--3--3--3----------3------x--3--x--|
          G|--------4------x--4--x--4----4--4--4--4--4----------4------x--4--x--|
          D|--------5------x--5--x--5----5--5--5--5--5----------5------x--5--x--|
          A|--------5------x--5--x--5----5--5--5--5--5----------5------x--5--x--|
          E|--------3------x--3--x--3----3--3--3--3--3----------3------x--3--x--|


E|--3----3--3--3--3--3------------------5------5--5------10----9----10--|
B|--3----3--3--3--3--3------------------5p6----6--6------10----9----10--|
G|--4----4--4--4--4--4------------------5-7----7--7---------------------|
D|--5----5--5--5--5--5------------------5-7----7--7---------------------|
A|--5----5--5--5--5--5------------------5------5--5---------------------|
E|--3----3--3--3--3--3------------------5------5--5---------------------|

                                                          CHORUS:
                                                                         F
          E----10----9--9----7--7--7----5--------------------------------1------|
          B----10----9--9----8--8--8----6--------------------------------1------|
          G--------------------------------------------------------------2------|
          D--------------------------------------------------------------3------|
          A--------------------------------------------------------------3------|
          E--------------------------------------------------------------1------|

                                   C      C      C      C

E|--1------1------1------3------3------3------3------------5------5--5--|
B|--1------1------1------5------5------5------5------------5p6----6--6--|
G|--2------2------2------5------5------5------5------------5-7----7--7--|
D|--3------3------3------5------5------5------5------------5-7----7--7--|
A|--3------3------3------3------3------3------3------------5------5--5--|
E|--1------1------1------3------3------3------3------------5------5--5--|

                                                                          F

E----x----5----5----------5------5--5----x----5----5------------1------|
B----x----6----6----------5p6----6--6----x----6----6------------1------|
G----x----7----7----------5-7----7--7----x----7----7------------2------|
D----x----7----7----------5-7----7--7----x----7----7------------3------|
A----x----5----5----------5------5--5----x----5----5------------3------|
E----x----5----5----------5------5--5----x----5----5------------1------|

                                   C      C      C      C
          E|--1------1------1------3------3------3------3----------5------5--5--|
          B|--1------1------1------5------5------5------5----------5p6----6--6--|
          G|--2------2------2------5------5------5------5----------5-7----7--7--|
          D|--3------3------3------5------5------5------5----------5-7----7--7--|
          A|--3------3------3------3------3------3------3----------5------5--5--|
          E|--1------1------1------3------3------3------3----------5------5--5--|

                                                         repeat whole thing again
                                                         before solo :

E----x----5--5----------5------5--5----x----5----5-----------------------|
B----x----6--6----------5p6----6--6----x----6----6------------13p10------|
G----x----7--7----------5-7----7--7----x----7----7-------------------12--|
D----x----7--7----------5-7----7--7----x----7----7-----------------------|
A----x----5--5----------5------5--5----x----5----5-----------------------|
E----x----5--5----------5------5--5----x----5----5-----------------------|


E|------------------------------10--------------------------------------|
B|--10--------------------------10--10----10------------13b15----r--13--|
G|------12b14----13--13b15------10--10----10----------------------------|
D|----------------------------------------------------------------------|
A|----------------------------------------------------------------------|
E|----------------------------------------------------------------------|

          E|---------------------------------------------------------------------|
          B|----13------12p10----------------------------------------------------|
          G|---------------------12----12b14----------109----------9-------------|
          D|--------------------------------------------------12-------10/12-----|
          A|---------------------------------------------------------------------|
          E|---------------------------------------------------------------------|


E|----------------------------------------------------------------------|
B|------------10------10--------------10----10----------10----12----10--|
G|--12-----12p10------10--------------10----10----------10----12----10--|
D|------x-----------------12--12------------------12--------------------|
A|----------------------------------------------------------------------|
E|----------------------------------------------------------------------|

          E|-------------------------13b15------13----13-------------------r----|
          B|----------------------x-----------------------------13b15-----------|
          G|-------------------x------------------------------------------------|
          D|----------------x---------------------------------------------------|
          A|--------------------------------------------------------------------|
          E|--------------------------------------------------------------------|


E|-------------------------------------------------------------------10--|
B|------13b15------------13--------------------------------------10------|
G|-------------------------------------------------------12--------------|
D|-----------------------------------------------------------------------|
A|-----------------------------------------------------------------------|
E|-----------------------------------------------------------------------|


E|-----------------------------------------------------------x-----------|
B|--13p10----------------------------------------------------x-----------|
G|---------12----12b14----10----12p10--------10b12----------------12p10--|
D|-------------------------------------12-----------12----x-------12p10--|
A|-----------------------------------------------------------------------|
E|-----------------------------------------------------------------------|


E|---------------------------------------------------------------------|
B|---------------------------------------------------------------------|
G|---------------------------------------------------------------------|
D|---------------------------------------------------------------------|
A|----12p10----12p/10----8--------10p8----------------------------8----|
E|--------------------------------------10p8------10----10--10---------|


E|----------------------------------------------------------------------|
B|----------------------------------5h6p5-------------------------------|
G|--------------------------5--7-----------7----7p5-----5b7----------7--|
D|----------------------/7---------------------------7------------------|
A|----------------------------------------------------------------------|
E|--10p8----10----------------------------------------------------------|


E|---------------------------------------------------------------------|
B|----------6------b2------------13b15------------------------13b15----|
G|--x--7p5-------------------------------------------------------------|
D|---------------------------------------------------------------------|
A|---------------------------------------------------------------------|
E|---------------------------------------------------------------------|

          E|----r---------------------------------15b17----------13p10----------|
          B|-------------13b15------------13------------------------------------|
          G|--------------------------------------------------------------------|
          D|--------------------------------------------------------------------|
          A|--------------------------------------------------------------------|
          E|--------------------------------------------------------------------|

          E|---------------13----12----15b17----r--b2--r--b2--r--------15b17----|
          B|----/----15---------------------------------------------------------|
          G|--------------------------------------------------------------------|
          D|--------------------------------------------------------------------|
          A|--------------------------------------------------------------------|
          E|--------------------------------------------------------------------|

          E|----------18b20------18b20--------------------20b22--------------20--|p
          B|----15---------------------------------------------------------------|
          G|---------------------------------------------------------------------|
          D|---------------------------------------------------------------------|
          A|---------------------------------------------------------------------|
          E|---------------------------------------------------------------------|

          E|--17----20p17-------------------------------------------------------|
          B|--------------------------------------------------------------------|
          G|---------------------10--------------10--------10----b--------------|
          D|----------------------------------------------------------12--------|
          A|--------------------------------------------------------------------|
          E|--------------------------------------------------------------------|


E|-----------------------------------------------------------------------|
B|---------------------10----10--x--x------------------------------------|
G|----------x----------10----10--x--x--------------x----------------10/h-|
D|----------x----12----------------------12--------x----10----10----12/h-|
A|-----------------------------------------------------------------------|
E|-----------------------------------------------------------------------|

          E|---------------------------------------------------------------------|
          B|--------13------12--------12------------10---------------------------|
          G|--12----12------12--------12------------10--------------x------------|
          D|--14----14-----------------------------------------------x----12-----|
          A|---------------------------------------------------------------------|
          E|---------------------------------------------------------------------|

          E|--------------------------------------------------------------------|
          B|--10--10--x--x------------------x------x--x-------------------------|
          G|--10--10--x--x------------------x------x--x-------------------------|
          D|--------------------12----------------------------------------------|
          A|-----------------------------------------------10----8p10--10----x--|
          E|--------------------------------------------------------------------|

          E|-----------|
          B|-----------|
          G|-----------|
          D|-----------|
          A|----8------|
          E|-------10--|

                     ONE OF THESE DAYS

Part (1)

G e|---------|---------|---------|---------|-------------|-----------|
U b|---------|---------|---------|---------|-------------|-----------|
I g|---------|---------|---------|---------|-------------|-----------|
T d|---------|---------|---------|---------|-------------|-----------|
A a|---------|---------|---------|---------|-------------|-----------|
R e|---------|---------|---------|---------|-------------|-----------|
   |         |         |         |         |             |           |
B g|---------|---------|---------|---------|-------------|-----------|
A d|---------|---------|---------|---------|-------------|-----------|
S a|-2-2-2-2-|-2-2-2-2-|-2-2-2-2-|-2-2-2-2-|-2---2-2---2-|-2--2-2--2-|
S e|---------|---------|---------|---------|-------------|-----------|


             7 times
G e||--------------|--------------||-7-----------|(7)----------|
U b||--------------|--------------||-7-----------|(7)----------|
I g||.-------------|-------------.||-7-----------|(7)----------|
T d||.-------------|-------------.||-9-----------|(9)----------|
A a||--------------|--------------||-------------|-------------|
R e||--------------|--------------||-------------|-------------|
   ||              |              ||             |             |
B g||--------------|--------------||-------------|-------------|
A d||.-------------|-------------.||-------------|-------------|
S a||.-2---2-2---2-|-2---2-2---2-.||-2---2-2---2-|-2---2-2---2-|
S e||--------------|--------------||-------------|-------------|


                       6 times
G e|--------------|--------------||
U b|--------------|--------------||
I g|.-------------|-------------.||
T d|.-------------|-------------.||
A a|--------------|--------------||
R e|--------------|--------------||
   |              |              ||
B g|--------------|--------------||
A d|.-------------|--------------||
S a|.-2---2-2---2-|-2---2-2---2--||
S e|--------------|--------------||

G e|-------------|-7-----------|-5-----------|(5)----------|
U b|-------------|-7-----------|-5-----------|(5)----------|
I g|-------------|-7-----------|-6-----------|(6)----------|
T d|-------------|-9-----------|-7-----------|(7)----------|
A a|-------------|-------------|-------------|-------------|
R e|-------------|-------------|-------------|-------------|
   |             |             |             |             |
B g|-------------|-------------|-------------|-------------|
A d|-------------|-------------|-------------|-------------|
S a|-2---2-2---2-|-2---2-2---2-|-0---0-0---0-|-0---0-0---0-|
S e|-------------|-------------|-------------|-------------|


G e|--------------|--------------||
U b|--------------|--------------||
I g|--------------|--------------||
T d|--------------|--------------||
A a|--------------|--------------||
R e|--------------|--------------||
   |              |              ||
B g|--------------|--------------||
A d|--------------|--------------||
S a|--0---0-0---0-|-0---0-0---0--||
S e|--------------|--------------||


G e|-------------|-5-----------|-7-----------|(7)----------|
U b|-------------|-5-----------|-7-----------|(7)----------|
I g|-------------|-6-----------|-7-----------|(7)----------|
T d|-------------|-7-----------|-9-----------|(9)----------|
A a|-------------|-------------|-------------|-------------|
R e|-------------|-------------|-------------|-------------|
   |             |             |             |             |
B g|-------------|-------------|-------------|-------------|
A d|-------------|-------------|-------------|-------------|
S a|-0---0-0---0-|-0---0-0---0-|-2---2-2---2-|-2---2-2---2-|
S e|-------------|-------------|-------------|-------------|


G e|--------------|--------------||
U b|--------------|--------------||
I g|--------------|--------------||
T d|--------------|--------------||
A a|--------------|--------------||
R e|--------------|--------------||
   |              |              ||
B g|--------------|--------------||
A d|--------------|--------------||
S a|--2---2-2---2-|-2---2-2---2--||
S e|--------------|--------------||


G e|-------------|-5-----------|-7-----------|(7)----------|
U b|-------------|-5-----------|-7-----------|(7)----------|
I g|-------------|-6-----------|-7-----------|(7)----------|
T d|-------------|-7-----------|-9-----------|(9)----------|
A a|-------------|-------------|-------------|-------------|
R e|-------------|-------------|-------------|-------------|
   |             |             |             |             |
B g|-------------|-------------|-------------|-------------|
A d|-------------|-------------|-------------|-------------|
S a|-2---2-2---2-|-0---0-0---0-|-2---2-2---2-|-2---2-2---2-|
S e|-------------|-------------|-------------|-------------|


                           6 times
G e|--------------|--------------||
U b|--------------|--------------||
I g|--------------|--------------||
T d|--------------|--------------||
A a|--------------|--------------||
R e|--------------|--------------||
   |
B g|--------------|--------------||
A d|--------------|--------------||
S a|--2---2-2---2-|-2---2-2---2--||
S e|--------------|--------------||


Part (2)

G e|-------------|-7-----------|-5-----------|(5)----------|
U b|-------------|-7-----------|-5-----------|(5)----------|
I g|-------------|-7-----------|-6-----------|(6)----------|
T d|-------------|-9-----------|-7-----------|(7)----------|
A a|-------------|-------------|-------------|-------------|
R e|-------------|-------------|-------------|-------------|
   |             |             |             |             |
B g|-------------|-------------|-------------|-------------|
A d|-------------|-------------|-------------|-------------|
S a|-2---2-2---2-|-2---2-2---2-|-0---0-0---0-|-0---0-0---0-|
S e|-------------|-------------|-------------|-------------|


G e|--------------|--------------||
U b|--------------|--------------||
I g|.-------------|-------------.||
T d|.-------------|-------------.||
A a|--------------|--------------||
R e|--------------|--------------||
   |              |              ||
B g|--------------|--------------||
A d|.-------------|-------------.||
S a|.-0---0-0---0-|-0---0-0---0-.||
S e|--------------|--------------||


G e|-------------|-7-----------|-7-----------|(7)----------|
U b|-------------|-7-----------|-7-----------|(7)----------|
I g|-------------|-7-----------|-7-----------|(7)----------|
T d|-------------|-9-----------|-9-----------|(9)----------|
A a|-------------|-------------|-------------|-------------|
R e|-------------|-------------|-------------|-------------|
   |             |             |             |             |
B g|-------------|-------------|-------------|-------------|
A d|-------------|-------------|-------------|-------------|
S a|-0---0-0---0-|-2---2-2---2-|-2---2-2---2-|-2---2-2---2-|
S e|-------------|-------------|-------------|-------------|

G e|--------------|--------------||
U b|--------------|--------------||
I g|--------------|--------------||
T d|--------------|--------------||
A a|--------------|--------------||
R e|--------------|--------------||
   |              |              ||
B g|--------------|--------------||
A d|--------------|--------------||
S a|--2---2-2---2-|-2---2-2---2--||
S e|--------------|--------------||


G e|-------------|-7-----------|-7-----------|(7)----------|
U b|-------------|-7-----------|-7-----------|(7)----------|
I g|-------------|-7-----------|-7-----------|(7)----------|
T d|-------------|-9-----------|-9-----------|(9)----------|
A a|-------------|-------------|-------------|-------------|
R e|-------------|-------------|-------------|-------------|
   |             |             |             |             |
B g|-------------|-------------|-------------|-------------|
A d|-------------|-------------|-------------|-------------|
S a|-2---2-2---2-|-2---2-2---2-|-2---2-2---2-|-2---2-2---2-|
S e|-------------|-------------|-------------|-------------|

                          6 times
G e|--------------|--------------||
U b|--------------|--------------||
I g|--------------|--------------||
T d|--------------|--------------||
A a|--------------|--------------||
R e|--------------|--------------||
   |              |              ||
B g|--------------|--------------||
A d|--------------|--------------||
S a|--2---2-2---2-|-2---2-2---2--||
S e|--------------|--------------||


G e|-------------|-7-----------|-5-----------|(5)----------|
U b|-------------|-7-----------|-5-----------|(5)----------|
I g|-------------|-7-----------|-6-----------|(6)----------|
T d|-------------|-9-----------|-7-----------|(7)----------|
A a|-------------|-------------|-------------|-------------|
R e|-------------|-------------|-------------|-------------|
   |             |             |             |             |
B g|-------------|-------------|-------------|-------------|
A d|-------------|-------------|-------------|-------------|
S a|-2---2-2---2-|-2---2-2---2-|-0---0-0---0-|-0---0-0---0-|
S e|-------------|-------------|-------------|-------------|


G e|--------------|--------------||
U b|--------------|--------------||
I g|--------------|--------------||
T d|--------------|--------------||
A a|--------------|--------------||
R e|--------------|--------------||
   |              |              ||
B g|--------------|--------------||
A d|--------------|--------------||
S a|--0---0-0---0-|-0---0-0---0--||
S e|--------------|--------------||


G e|-------------|-5-----------|-7-----------|(7)----------|
U b|-------------|-5-----------|-7-----------|(7)----------|
I g|-------------|-6-----------|-7-----------|(7)----------|
T d|-------------|-7-----------|-9-----------|(9)----------|
A a|-------------|-------------|-------------|-------------|
R e|-------------|-------------|-------------|-------------|
   |             |             |             |             |
B g|-------------|-------------|-------------|-------------|
A d|-------------|-------------|-------------|-------------|
S a|-0---0-0---0-|-0---0-0---0-|-2---2-2---2-|-2---2-2---2-|
S e|-------------|-------------|-------------|-------------|


G e|--------------|--------------||
U b|--------------|--------------||
I g|--------------|--------------||
T d|--------------|--------------||
A a|--------------|--------------||
R e|--------------|--------------||
   |              |              ||
B g|--------------|--------------||
A d|--------------|--------------||
S a|--2---2-2---2-|-2---2-2---2--||
S e|--------------|--------------||


G e|-7-----------|-7-----------|(7)----------|-------------|-------------|
U b|-7-----------|-7-----------|(7)----------|-------------|-------------|
I g|-7-----------|-7-----------|(7)----------|-------------|-------------|
T d|-9-----------|-9-----------|(9)----------|-------------|-4-----------|
A a|-------------|-------------|-------------|-------------|-------------|
R e|-------------|-------------|-------------|-------------|-------------|
   |             |             |             |             |             |
B g|-------------|-------------|-------------|-------------|-------------|
A d|-------------|-------------|-------------|-------------|-------------|
S a|-2---2-2---2-|-2---2-2---2-|-2---2-2---2-|-2---2-2---2-|-2---2-2---2-|
S e|-------------|-------------|-------------|-------------|-------------|


Part (3)

G e|-------------|-------------|-------------|-------------|-------------|
U b|-------------|-------------|-------------|-------------|-------------|
I g|-------------|-------------|-------------|-------------|-------------|
T d|-0-----------|(0)----------|(0)----------|-------------|-------------|
A a|-------------|-------------|-------------|-0-----------|-------------|
R e|-------------|-------------|-------------|-------------|-7-----------|
   |             |             |             |             |             |
B g|-------------|-------------|-------------|-------------|-------------|
A d|-------------|-------------|-------------|-------------|-------------|
S a|-2---2-2---2-|-2---2-2---2-|-2---2-2---2-|-2---2-2---2-|-2---2-2---2-|
S e|-------------|-------------|-------------|-------------|-------------|


G e|-------------|-------------|-------------|-------------|-------------|
U b|-------------|-------------|-------------|-------------|-------------|
I g|-------------|-------------|-------------|-------------|-------------|
T d|-------------|-------------|-------------|-------------|-------------|
A a|-------------|-------------|-------------|-------------|-------------|
R e|(7)----------|(7)----------|-0-----------|-2-----------|(2)----------|
   |             |             |             |             |             |
B g|-------------|-------------|-------------|-------------|-------------|
A d|-------------|-------------|-------------|-------------|-------------|
S a|-2---2-2---2-|-2---2-2---2-|-2---2-2---2-|-2---2-2---2-|-2---2-2---2-|
S e|-------------|-------------|-------------|-------------|-------------|


G e|-------------|-------------|-5-----------|(5)----------|
U b|-------------|-------------|-5-----------|(5)----------|
I g|-------------|-------------|-6-----------|(6)----------|
T d|-------------|-------------|-7-----------|(7)----------|
A a|-------------|-------------|-------------|-------------|
R e|(2)----------|-------------|-------------|-------------|
   |             |             |             |             |
B g|-------------|-------------|-------------|-------------|
A d|-------------|-------------|-------------|-------------|
S a|-2---2-2---2-|-2---2-2---2-|-0---0-0---0-|-0---0-0---0-|
S e|-------------|-------------|-------------|-------------|

                           3 times
G e||--------------|--------------||-7-----------|(7)----------|-----------|
U b||--------------|--------------||-7-----------|(7)----------|-----------|
I g||--------------|--------------||-7-----------|(7)----------|-----------|
T d||--------------|--------------||-9-----------|(9)----------|-----------|
A a||--------------|--------------||-------------|-------------|-----------|
R e||--------------|--------------||-------------|-------------|-----------|
   ||              |              ||             |             |           |
B g||--------------|--------------||-------------|-------------|-----------|
A d||--------------|-------------.||-------------|-------------|-----------|
S a||--0---0-0---0-|-0---0-0---0-.||-2---2-2---2-|-2---2-2---2-|-2---2-2--2|
S e||--------------|--------------||-------------|-------------|-----------|


G e|-------7---7-|-7-----5---7-|-------------|-------------|
U b|-------------|-------------|-7-----5---7-|-------------|
I g|-------------|-------------|-------------|-7-----6-7---|
T d|-------------|-------------|-------------|-------------|
A a|-------------|-------------|-------------|-------------|
R e|-------------|-------------|-------------|-------------|
   |             |             |             |             |
B g|-------------|-------------|-------------|-------------|
A d|-------------|-------------|-------------|-------------|
S a|-2---2-2---2-|-2---2-2---2-|-2---2-2---2-|-2---2-2---2-|
S e|-------------|-------------|-------------|-------------|

                                                       3 times
G e|-------------|-------------||--------------|--------------||
U b|-0-----------|-------------||--------------|--------------||
I g|-------------|-------------||.-------------|-------------.||
T d|-------------|-------------||.-------------|-------------.||
A a|-------------|-------------||--------------|--------------||
R e|-------------|-------------||--------------|--------------||
   |             |             ||              |              ||
B g|-------------|-------------||--------------|----------------||
A d|-------------|-------------||--------------|----------------||
S a|-2---2-2---2-|-2-2-2-2-2-2-||--2-2-2-2-2-2-|-2-2-2-2-2-2----||
S e|-------------|-------------||--------------|----------------||
Part (4)

                                Repeat as needed
G e|-------------|-------------||--------------|--------------||
U b|-------------|-------------||--------------|--------------||
I g|-------------|-------------||--------------|--------------||
T d|-------------|-------------||--------------|--------------||
A a|-------------|-------------||--------------|--------------||
R e|-------------|-------------||--------------|--------------||
   |             |             ||              |              ||
B g|-------------|-------------||--------------|--------------||
A d|-------------|-------------||--------------|--------------||
S a|-2-2-2-2-2-2-|-2-2-2-2-2-2-||--2-2-2-2-2-2-|-2-2-2-2-2-2--||
S e|-------------|-------------||--------------|--------------||


G e|-------------|-------------|-------------|-------7---5-|
U b|-------------|-------------|-------------|-------------|
I g|-------------|-------------|-------------|-------------|
T d|-------------|-------------|-------------|-------------|
A a|-------------|-------------|-------------|-------------|
R e|-------------|-------------|-------------|-------------|
   |             |             |             |             |
B g|-------------|-------------|-------------|-------------|
A d|-------------|-------------|-------------|-------------|
S a|-2---2-2---2-|-2---2-2---2-|-2---2-2---2-|-2---2-2---2-|
S e|-------------|-------------|-------------|-------------|


G e|--7-----5---7-|-------------|
U b|--------------|-7-----5---7-|
I g|--------------|-------------|
T d|--------------|-------------|
A a|--------------|-------------|
R e|--------------|-------------|
   |              |             |
B g|--------------|-------------|
A d|--------------|-------------|
S a|--2---2-2---2-|-2---2-2---2-|
S e|--------------|-------------|

                              Repeat as needed
G e|-------------|-------------|-------------|--------------|
U b|-------------|-------------|-------------|--------------|
I g|-7-----6---7-|-4-----------|(4)----------|(4)-----------|
T d|-------------|-------------|-------------|--------------|
A a|-------------|-------------|-------------|--------------|
R e|-------------|-------------|-------------|--------------|
   |             |             |             |              |
B g|-------------|-------------|-------------|--------------|
A d|-------------|-------------|-------------|--------------|
S a|-2---2-2---2-|-2---2-2---2-|-2---2-2---2-|-2---2-2---2--|
S e|-------------|-------------|-------------|--------------|


G e|-5-----------|(5)----------|
U b|-5-----------|(5)----------|
I g|-6-----------|(6)----------|
T d|-7-----------|(7)----------|
A a|-------------|-------------|
R e|-------------|-------------|
   |             |             |
B g|-------------|-------------|
A d|-------------|-------------|
S a|-0---0-0---0-|-0---0-0---0-|
S e|-------------|-------------|

                           3 times
G e||--------------|--------------||-7-----------|(7)----------|
U b||--------------|--------------||-7-----------|(7)----------|
I g||--------------|--------------||-7-----------|(7)----------|
T d||--------------|--------------||-9-----------|(9)----------|
A a||--------------|--------------||-------------|-------------|
R e||--------------|--------------||-------------|-------------|
   ||              |              ||             |             |
B g||--------------|--------------||-------------|-------------|
A d||--------------|--------------||-------------|-------------|
S a||--0---0-0---0-|-0---0-0---0--||-2---2-2---2-|-2---2-2---2-|
S e||--------------|--------------||-------------|-------------|


G e|--------------|--------------||
U b|--------------|--------------||
I g|--------------|--------------||
T d|--------------|--------------||
A a|--------------|--------------||
R e|--------------|--------------||
   |              |              ||
B g|--------------|--------------||
A d|--------------|--------------||
S a|--2---2-2---2-|-2---2-2---2--||
S e|--------------|--------------||

                                                      3 times
G e|-5-----------|(5)----------||--------------|--------------||
U b|-5-----------|(5)----------||--------------|--------------||
I g|-6-----------|(6)----------||--------------|--------------||
T d|-7-----------|(7)----------||--------------|--------------||
A a|-------------|-------------||--------------|--------------||
R e|-------------|-------------||--------------|--------------||
   |             |             ||              |              ||
B g|-------------|-------------||--------------|--------------||
A d|-------------|-------------||--------------|--------------||
S a|-------------|-------------||--------------|--------------||
S e|-0---0-0---0-|-0---0-0---0-||--0---0-0---0-|-0---0-0---0--||

                                                       3 times
G e|-7-----------|(7)----------||--------------|--------------||-7~~~~~-||
U b|-7-----------|(7)----------||--------------|--------------||-7~~~~~-||
I g|-7-----------|(7)----------||--------------|--------------||-7~~~~~-||
T d|-9-----------|(9)----------||--------------|--------------||-9~~~~~-||
A a|-------------|-------------||--------------|--------------||--------||
R e|-------------|-------------||--------------|--------------||--------||
   |             |             ||              |              ||        ||
B g|-------------|-------------||--------------|--------------||--------||
A d|-------------|-------------||--------------|--------------||--------||
S a|-2---2-2---2-|-2---2-2---2-||--2---2-2---2-|-2---2-2---2--||-2~~~~~-||
S e|-------------|-------------||--------------|--------------||--------||


                         The Dark Side Of The Moon- dick 2

/=slide up
\=slide down
b=bend
p=pulloff
h=hammeron
()=optional note
X=muted string
d=downstroke
u=upstroke




                         *Speak To Me

When all the laughing is heard on "Speak To Me", there is feedback for the
B note.

                   *Breathe

intro:
|----0-------------------------------------------|
|---0------------0--------------2-------2-3-2----|
|--0-----------0---0----------2------------------|
|-2---------2---------------2--------------------|
|-------------------------0----------------------|
|------------------------------------------------|

|-----0----------------------------------------------|
|------0-------------0--------------2----2h3-2---2---|
|-------0----------0---0----------2----------------2-|
|--------2------2---------------2--------------------|
|-----------------------------0--------0-------0-----|
|-0--------------------------------------------------|

This part might sound good with a slide:
|-12-----------------------------12-----------------|
|------------12-/-14------------------------12-/-14-|
|---------------------------------------------------|
|---------------------------------------------------|
|---------------------------------------------------|
|---------------------------------------------------|

|-14---------10-/-12--------------------------------|
|---------------------------------12--------12-/-14-|
|---------------------------------------------------|
|---------------------------------------------------|
|---------------------------------------------------|
|---------------------------------------------------|

|-7-----------7-------------7-/8---7--5-------------------------|
|--------------------------------------------8----6-------------|
|----------------------------------------------------7-/-9------|
|---------------------------------------------------------------|
|---------------------------------------------------------------|
|---------------------------------------------------------------|

Em                        A
  Breathe, breathe in the air,
Em                   A
  Don't be afraid to care.
Em                       A
  Leave, but don't leave me.
Em                         A
  Look around, choose your own ground.

C
Long you live, and high you fly
    Bm
And smiles you'll give and tears you'll cry
    Am
And all you touch and all you see
   G                  F        Em
Is all your life will ever be

Em            A
  Run, rabbit run
Em                          A
  Dig that hole, forget the sun
Em                             A
  And when at last the work is done
Em                                  A
  Don't sit down, It's time to dig another one

C
For long you live and high you fly
Bm
But only if you ride the tide
Am
And balanced on the biggest wave
    G               F           Em
You race towards an early grave




                    *On The Run

This is the synthesizer for about the whole song, and played very fast.
|--------------------------------|
|--------------------------------|
|--------------------------------|
|-------0h2-0h2--------0h2-0h2---|
|----0h2------------0h2----------|
|-0h3------------0h3-------------|



              *Time
|---------------------------|---------------------------|
|---------------------------|---------------------------|
|---------------------------|---------------------------|
|---------------------------|---------------------------|
|---------------------------|---------------------------|
|-0-----------------------2-|-0-----------------------2-|

|---------------------------|---------------------------|
|---------------------------|---------------------------|
|---------------------------|---------------------------|
|---------------------------|---------------------------|
|---------------------------|---------------------------|
|-0-------------------0~--2-|-0-------------------0~--2-|

|---------------------------|---------------------------|
|---------------------------|---------------------------|
|---------------------------|---------------------------|
|---------------------------|---------------------------|
|---------------------------|---------------------------|
|-2-------------------------|-5------------------4-2--0-|

|---------------------------|
|---------------------------|
|---------------------------|
|---------------------------|
|---------------------------|
|-0-------------------0~--2-|

F#m                                       A
Ticking away the moments that make up the dull day
    E                                          F#m
You fritter and waste the hours in an off hand way
F#m                                         A
Kicking around on a piece of ground in your home town
E                                                F#m
Waiting for someone or something to show you the way

(For this part, C#m can be replaced with Amaj7 and D can
be replaced with Dmaj7)
C#m D                          C#m
Tired of lying in the sunshine staying home to watch the rain
C#m D                          C#m
You are young and life is long and there is time to kill today
D                               C#m
  And then one day you find that ten years have got behind you
Bm                           E
No one told you when to run, you missed the starting gun

Solo:
|---------------------------------------------------5-----|
|--------------------------------------------5-5--5---7-7-|
|-----4b6--4-4b6b4-6b4p2-4-----------------6--------------|
|-4---------------------------4-b-5--4--------------------|
|---------------------------------------------------------|
|---------------------------------------------------------|

|-------------------------9--9b10-9-7-------------------|
|---------------------------------------10-9--9h10-5/7--|
|-4b6---6b4p2--4b6-----/9-------------------------------|
|-------------------------------------------------------|
|-------------------------------------------------------|
|-------------------------------------------------------|

|------------------17-----------------------------------------------------|
|-------14-17b19------19---17h19p17-----------------------17-17-----------|
|----14------------------------------18--18b19b18-14h16---------16--14----|
|-16-------------------------------------------------------------------16-|
|-------------------------------------------------------------------------|
|-------------------------------------------------------------------------|

|----17h19--17--14----------------------------------19b21-21b19-19-|
|-14------------------17-14----------------------------------------|
|-----------------------------14-16--14-16-14----18----------------|
|------------------------------------------------------------------|
|------------------------------------------------------------------|
|------------------------------------------------------------------|

|-----------------------------------|
|-17--14----17b19-19----17-17-17-14-|
|-----------------------------------|
|-----------------------------------|
|-----------------------------------|
|-----------------------------------|

|---------5h7-5---4h5-4-------------------------------|
|-------7---------------5-----7-/9-9---7\5-7--5-------|
|-----6-----------------------------------------6/9-6-|
|-4-7-------------------------------------------------|
|-----------------------------------------------------|
|-----------------------------------------------------|

|-------------------------------------------------------------------------|
|-------------------------------------------------------------------------|
|-4-b6--5-b7----4b6b4p2--4------2---2-4-2-1-------------------------------|
|-------------------------------------------2-----------------------------|
|-------------------------------------------------------------------------|
|-------------------------------------------------------------------------|

F#m                                                    A
And you run and run to catch up with the sun, but it's sinking
E                                       A
And racing around to come up behind you again
F#m                                               A
The sun is the same in a relative way, but you're older
E                                       A
Shorter of breath and one day closer to death

C#m D                          C#m
Every year is getting shorter, never seem to find the time
C#m D                                 C#m
Plans that either come to naught or a half page of scribbled lines
C#m                        Bm
Hanging on in a quiet desperation is the English way
    A                              D                             Em
The time is gone the song is over, thought i'd something more to say

____________________________________________________________________________

(Breathe Reprise)
Em     A

Em                           A
  I'd like to be here when I can.
Em                          A
  When I come home cold and tired.
Em                                      A
  It's good to warm my bones beside the fire.
C
Far away, across the field,
Bm
The tolling of the iron bell
Am
Call the faithful to their knees,
G                  F            Em
To hear the softly spoken magic spells



                   *The Great Gig In The Sky

Chords to piano intro:
Bm   Am   B#   F

Where the guitar comes in:
|------------------------------------/8---|
|-/3-----3-/5---------/3-----3-/5----/10--|
|-/3-----3-/5---------/3-----3-/5----/10--|
|-/3-----3-/5---------/3-----3-/5---------|
|-----------------------------------------|
|-----------------------------------------|

The Chords for all of the screaming:
Gm7  C9  Gm7  C9  Gm7  C9  Gm7  C9

Bb  Bbm/Db  F#7  Bm

Bm  F  Fb5  F  F6  F  Fb5  F  Bb  F  Gm7  C9  Gm7  C9

Fmaj7  Bbmaj7  Ebmaj7  Cm7  F7  Bbmaj7  Ebmaj7  Bb





                           *Money
intro:
|--------------------------------------------|
|--------------------------------------------|
|----4---------------------4-----------------|
|------4-------------0-------4-------------0-|
|-2------2-----0--2-----2------2-----0--2----|
|-----------2---------------------2----------|

|--------------------------------------------|
|--------------------------------------------|
|----4---------------------4-----------------|
|------4-------------0-------4-------------0-|
|-2------2-----0--2-----2------2-----0--2----|
|-----------2---------------------2----------|

Chorus:
|-2--7--7-9--------7--7-9-|
|-3--7--7-9--------7--7-9-|
|-4--7--7-9--------7--7-9-|
|-4-----------------------|
|-2-----------------------| Done over and over.
|-------------------------|

2nd Chorus:
|-------------------------------------|
|-------------------------------------|
|-------------------------------------|
|-4-4-4p0--------4-3-2---------2-p0---|
|------------0-4----------0-2-------2-|
|----------2------------3-------------|

At 2:28, during the saxophone solo:
|-12--12-14------------12--12-14------------12--12-14------------12--12-14-|
|-12--12-14------------12--12-14------------12--12-14------------12--12-14-|
|-12--12-14------------12--12-14------------12--12-14------------12--12-14-|
|-----------------5--------------------5-------------------5---------------|
|-------------5-7---5--------------5-7---5-------------5-7---5-------------|
|-----------7--------------------7-------------------7---------------------|

End of saxophone solo:
|------------------------------------------------------------|
|------------------------------------------------------------|
|-----------------------------------444444444444444444444444-|
|-4-4-4p0--------4-3-2---------2-p0-444444444444444444444444-|
|------------0-4----------0-2-------222222222222222222222222-|
|----------2------------3------------------------------------|

Guitar Solo:
|------------------------------------10---------------12b14-b12p10----|
|---------10b12---7-10---------10b12----12-12---12-12--------------12-|
|-9b11-7---------------9b11-7-----------------------------------------|
|---------------------------------------------------------------------|
|---------------------------------------------------------------------|
|---------------------------------------------------------------------|

|---------------------7----7-10-12-12b14------12-b-14-------|
|-----------------------10---------------12-----------------|
|-9b11-7-9------9b11----------------------------------------|
|----------9------------------------------------------------|
|-----------------------------------------------------------|
|-----------------------------------------------------------|

|-10-12--------------------------------------------------7-7-7-7-|
|-------12--10--7---------------------------7-------7-10---------|
|------------------9--7---------------------7--------------------|
|------------------------7--------------7h9---9-9----------------|
|---------------------------7------------------------------------|
|------------------------------10--7-----------------------------|

|-10-12-12b14b12p10-----14b16---14-12-10---------------|
|----------------------------------------12-10---------|
|----------------------------------------------9-11----|
|------------------------------------------------------|
|------------------------------------------------------|
|------------------------------------------------------|

|---------------------------------------------------7-|
|--------------------7----9----10--10-10-10-----------|
|-4-2-0--------------7----9----11--11-11-11-9-b-11----|
|-------4-2-0-----------------------------------------|
|-------------4-3-2-----------------------------------|
|-----------------------7----7------------------------|

2nd Guitar Solo:
|-7-----------------------------------------------|
|-7---/12-12-12-15--------------------------------|
|-7-------------------9b11---7h9-------7----7-----|
|--------------------------------9-----7----7h9---|
|-------------------------------------------------|
|-------------------------------------------------|

|--------------------------------------------------------|
|--------------------------------------------------------|
|-9b11---9b11-9b11---11b9p7-9b11-9b11--11b9p7-9-9---p7---|
|------------------------------------------------------9-|
|--------------------------------------------------------|
|--------------------------------------------------------|

|-------------10-12b14-14--12p10-------------------------|
|-/12-15---12----------------------10-10-10-7------------|
|----------------------------------------------9b11b9b11-|
|--------------------------------------------------------|
|--------------------------------------------------------|
|--------------------------------------------------------|

|----------------------------------------10-12-12b14--10h12----|
|--------------------7----9----10--10-12--------------------12-|
|-4-2-0--------------7----9----11--11--------------------------|
|-------4-2-0--------------------------------------------------|
|-------------4-3-2--------------------------------------------|
|-----------------------7----7---------------------------------|

3rd Guitar Solo:
|---22b24---22-22-22--19---------------------------------------------------|
|19------------------------------19-17---------19b21---17------------------|
|--------------------------16-19-------19-16--------------19-16------------|
|---------------------------------------------------------------16----16-16|
|------------------------------------------------------------------17------|
|--------------------------------------------------------------------------|

|---------------22b24--22-22-22-19----17b19--14-17------------14-|
|------------19------------------------------------17-15---17----|
|-16-19-16-------------------------------------------------------|
|----------------------------------------------------------------|
|----------------------------------------------------------------|
|----------------------------------------------------------------|

|-------------22---------22b24---22-22-22-19-----17----------|
|-22b24-22b24----24---19---------------------19-----19-------|
|------------------------------------------------------19----|
|---------------------------------------------------------16-|
|------------------------------------------------------------|
|------------------------------------------------------------|

|------------------------|
|-12-10-8----------------|
|---------11-9-7---------|
|----------------11-10-9-|
|------------------------|
|------------------------|

Chorus:
|-2--7--7-9--------7--7-9-|
|-3--7--7-9--------7--7-9-|
|-4--7--7-9--------7--7-9-|
|-4-----------------------|
|-2-----------------------| Done over and over.
|-------------------------|

2nd Chorus:
|-------------------------------------|
|-------------------------------------|
|-------------------------------------|
|-4-4-4p0--------4-3-2---------2-p0---|
|------------0-4----------0-2-------2-|
|----------2------------3-------------|



                        *Us And Them

intro (Also Chorus):
|---------5---------------5-------|---------7---------------7-------|
|-----5-----5---5-----5-----5---5-|-----7-----7---7-----7-----7---7-|
|---7---7-----7-----7---7-----7---|---9---9-----9-----9---9-----9---|
|-0---------------0---------------|-0---------------0---------------|
|---------------------------------|---------------------------------|
|---------------------------------|---------------------------------|

|------------9---------------------9--9------------|
|------10------10----10------10----10-10--10----10-|
|---10----10------10------10----10-10-10-----10----|
|-0---------------------0--------------------------|
|--------------------------------------------------|
|--------------------------------------------------|

|---------7-----7---------7-----7-|
|-----8-----8--8------8-----8--8--|
|---7---7-----7-----7---7-----7---|
|-0---------------0---------------|
|---------------------------------|
|---------------------------------|

|-----------2-2-2-2----2---0---3-----0----2-2-2-2----2---0---3-----0----|
|----7----5-3-3-3-3----3---2---3-----1----3-3-3-3----3---2---3-----1----|
|---7----6--4-4-4-4----4---2---0-----0----4-4-4-4----4---2---0-----0----|
|--7----6---4-4-4-4----4---2---0-----2----4-4-4-4----4---2---0-----2----|
|-5----4----2-2-2-2----2---0---2-----3----2-2-2-2----2---0---2-----3----|
|------------------------------3-----3-----------------------3-----3----|

____________________________________________________________________________

____________________________________________________________________________

____________________________________________________________________________



               *Any Colour You Like (Gilmour, Mason, Wright)*

Rythym Chords for keyboard solo:
|-5----5----3-----3--3-|
|-6----6-5--3-----3--3-|
|-5----5----0-----0--0-|
|-7----7----0-----0--0-|
|-5----5----2-----2--2-|
|(5)--(5)---3-----3--3-|


Guitar Solo:
|--10b--------------10------13-------------------13----------|
|--13---------------13b-----13-------------------13--13------|
|---------------------------12b------------------12b-12b10---|
|------------------------------------------------------------|
|------------------------------------------------------------|
|------------------------------------------------------------|

|--------------------------------------10--------------10----|
|-10b-----------------12-10b-------------------10------10----|
|-10b-----------------12-10b---------------------------------|
|----12-10------12-12--------------10------------------------|
|--------------------------------12--------------------------|
|-----------------------------/10----------------------------|

|------------------------------------------------------------|
|----12----12----12-12----12------12b----b12x----12bx---12b--|
|----12----12----12-12----12------12b----b12x----12bx---12b--|
|------------------------------------------------------------|
|------------------------------------------------------------|
|------------------------------------------------------------|

|------------------------------------------------------------|
|----12b--12-----------12-10b--12-12-12-10b------------------|
|----12b--12-----12-12-12-10b--12-12-12-10b------------------|
|---------------------------------------------12p10----10--12|
|---------------------------------------------------12-------|
|------------------------------------------------------------|

|---------13--13---------------------------------------------|
|-----0---13--13----------------10-10/12-12---10-----12------|
|---------12b-12----------------10-10/12-12---10-----12------|
|-------------------------------10-10/12-12---10-----12------|
|------------------------------------------------------------|
|------------------------------------------------------------|

|------------------------------------13---------------------------|
|-10-10/12-12---10----12---13b13--13---13x--13-13-13-------10-----|
|-10-10/12-12---10----12----------------------------12--12---10b--|
|-10-10/12-12---10----12----------------------------------------12|
|-----------------------------------------------------------------|
|-----------------------------------------------------------------|

|------------------------------------------10-------13-13-13---------|
|---------------10b-------12------------10---13-------------13x------|
|---------------10b-------12-10b-----12b-----------------------------|
|-10-10-12-12------12--x-x-------------------------------------------|
|--------------------------------------------------------------------|
|--------------------------------------------------------------------|

|-----------------------------------------------------------------|
|-13-13-13-13\12-0-12\10-0-10\8-0-8\6-0---6\5-0-5\3-0-3\1x1p0-----|
|-------------------------------------------------------------2p0-|
|----------------------------------------------------------------2|
|-----------------------------------------------------------------|
|-----------------------------------------------------------------|

|---------------------10---------------------------------------------|
|----------------x----10-12-x------x-12b--12b-12b-12p10b----10-------|
|----------------x-------12-x------x-12b--12b-12b-12p10b-12-10-------|
|--2/4----5-5--------------------------------------------------12----|
|--------------------------------------------------------------------|
|--------------------------------------------------------------------|

|--------10-------------------------------------------------------|
|-x--------10-13-13b-13b-b13--13-10---13---13-12---12\10----10----|
|-x-12b------------------------------------------12------10----10-|
|-----------------------------------------------------------------|
|-----------------------------------------------------------------|
|-----------------------------------------------------------------|

|-----------------------------------------------------------------|
|---------------12-12-12-(12)12-12----12-(10)12----12----12----12-|
|---------------12-12-12--12-12-12----12-(10)12----12----12----12-|
|-10--12-12-12----------------------------------------------------|
|-----------------------------------------------------------------|
|-----------------------------------------------------------------|

|--------------------------------------------------------------------|
|----12b--12brp10-12-10-12(10)------------------------------10-------|
|----12b--12brp10-12-10-12-10-------------------------------10-------|
|-----------------------12-10-12\10----------10--10h12-12------------|
|-----------------------------12\10-----10/12------------------------|
|--------------------------------------------------------------------|

|-13-13-13-----13-13-13-------------------------------------------|
|---------13b----------13b---13----13--13-13--13-13--13-13--13-13-|
|-----------------------------------------------------------------|
|-----------------------------------------------------------------|
|-----------------------------------------------------------------|
|-----------------------------------------------------------------|

|----------------10-----------------------------------------------|
|13-13--13-13--13--13-13--13-13--13-13--13-13-13-13---------------|
|-----------------------------------------------------------------|
|-------------------------------------------------------9-10-11-12|
|-----------------------------------------------------------------|
|-----------------------------------------------------------------|

|--------------------------------------------------------------------|
|--------------------------------------------------------------------|
|--------------------------------------------------------------------|
|--10--9--9-10-11-12-9-10-11-12-9-10-11---12--10-11-12--10-11-12--10-|
|--------------------------------------------------------------------|
|--------------------------------------------------------------------|

|------------------------------------------------------|
|--------------------(12)10---12-x-x-10~~x-12-x-12-10--|
|---------------------12-10---12-x-x-10~~x-12-x-12-10--|
|-11-12--9-10-11-12---------12-------------------------|
|------------------------------------------------------|
|------------------------------------------------------|

|--------10--------------------------------------------------------|
|--------13----12----10-----------12---12-10b----------10--12b--13b|
|--------10--------12--10--(10)---12---12-10b---13-b13--10-12b-----|
|---(12)-12--------------10------------------12--------------------|
|------------------------------------------------------------------|
|------------------------------------------------------------------|

|--13----10---------------------------------------------------10---|
|----13r-13-13----12----10----------------------------------10--10-|
|-----------------10-12-10-10----------------10-------12-12b-------|
|-------------------------------10h12--12-12-----------------------|
|------------------------------------------------------------------|
|------------------------------------------------------------------|

|------------------------------------------------|
|-13b--13b-13b-10----10--------------------------|
|-----------------12----10-----------------10-12-|
|--------------------------10-10------10h12------|
|------------------------------------------------|
|------------------------------------------------|

|-------------------------------------------------|
|--11--10-8--8-10-11-10h11p10--10p8-----8---------|
|-----------------------------------10------------|
|-------------------------------------------------|
|-------------------------------------------------|
|-------------------------------------------------|




intro:
|-2----2----2----2----2----2----2----2--|
|-3-----3---------3---------3---------3-|
|-2--2---------2---------2---------2----|
|-0-0---------0---------0---------0-----|
|---------------------------------------|
|---------------------------------------|

|-2----2----2----2----2----2----2----2--|
|-3-----3---------3---------3---------3-|
|-2--2---------2---------2---------2----|
|-0-0---------0---------0---------0-----|
|---------------------------------------|
|---------------------------------------|

during singing:
Guitar 1:
|-------2----2----2----2----1----1----1----1--|
|-------------3---------3------0--0------0--0-|
|----------2---------2--------0---------0-----|
|---------0---------0-------------------------|
|---------------------------------------------|
|---------------------------------------------|

Guitar 2:
|--------------------------------19b20b19-----|
|-19b20b19------------------------------------|
|---------------------------------------------|
|---------------------------------------------|
|---------------------------------------------|
|---------------------------------------------|


Guitar 1:
|-------2----2----2----2----1----1----1----1--|
|-------------3---------3------0--0------0--0-|
|----------2---------2--------0---------0-----|
|---------0---------0-------------------------|
|---------------------------------------------|
|---------------------------------------------|

Guitar 2:
|--------------------------------19b20b19-----|
|-19b20b19------------------------------------|
|---------------------------------------------|
|---------------------------------------------|
|---------------------------------------------|
|---------------------------------------------|


Guitar 1:
|-------2----2----2----2-----------------------3----3--3----3--|
|-------------3---------3---9----9----9----9-------------------|
|----------2---------2------------9---------9--------0-------0-|
|---------0---------0----------9---------9--------2-------2----|
|-----------------------------7---------7--------0-------0-----|
|--------------------------------------------------------------|

Guitar 2:
|---------------------16b17b16----------------|
|---------------------------------------------|
|---------------------------------------------|
|---------------------------------------------|
|---------------------------------------------|
|---------------------------------------------|


Guitar 1:
|-2-------2---0-------0-----2-----2-0-|
|-3---3-----------3-----3---1---1-----|
|-2-----------------2-------2-2-------|
|-0-0---0---0---0---0-------0---------|
|-------------------------0-----------|
|-------------------------------------|

No Guitar 2

Chorus:
G                            A
  And if the dam breaks open many years too soon

    C                                   G
And if there is no room upon the hill

G                                    A7
  And if your head explodes with dark forebodings too

     C                                   G     Bm7  Em7  A
I'll see you on the dark side of the moon.

|-2----2----2----2----2----2----2----2--|
|-3-----3---------3---------3---------3-|
|-2--2---------2---------2---------2----|
|-0-0---------0---------0---------0-----|
|---------------------------------------|
|---------------------------------------|

|-2----2----2----2----2----2----2----2--|
|-3-----3---------3---------3---------3-|
|-2--2---------2---------2---------2----|
|-0-0---------0---------0---------0-----|
|---------------------------------------|
|---------------------------------------|

during singing:
Guitar 1:
|-------2----2----2----2----1----1----1----1--|
|-------------3---------3------0--0------0--0-|
|----------2---------2--------0---------0-----|
|---------0---------0-------------------------|
|---------------------------------------------|
|---------------------------------------------|

Guitar 2:
|--------------------------------19b20b19-----|
|-19b20b19------------------------------------|
|---------------------------------------------|
|---------------------------------------------|
|---------------------------------------------|
|---------------------------------------------|


Guitar 1:
|-------2----2----2----2----1----1----1----1--|
|-------------3---------3------0--0------0--0-|
|----------2---------2--------0---------0-----|
|---------0---------0-------------------------|
|---------------------------------------------|
|---------------------------------------------|

Guitar 2:
|--------------------------------19b20b19-----|
|-19b20b19------------------------------------|
|---------------------------------------------|
|---------------------------------------------|
|---------------------------------------------|
|---------------------------------------------|


Guitar 1:
|-------2----2----2----2-----------------------3----3--3----3--|
|-------------3---------3---9----9----9----9-------------------|
|----------2---------2------------9---------9--------0-------0-|
|---------0---------0----------9---------9--------2-------2----|
|-----------------------------7---------7--------0-------0-----|
|--------------------------------------------------------------|

Guitar 2:
|---------------------16b17b16----------------|
|---------------------------------------------|
|---------------------------------------------|
|---------------------------------------------|
|---------------------------------------------|
|---------------------------------------------|


Guitar 1:
|-2-------2---0-------0-----2-----2-0-|
|-3---3-----------3-----3---1---1-----|
|-2-----------------2-------2-2-------|
|-0-0---0---0---0---0-------0---------|
|-------------------------0-----------|
|-------------------------------------|

No Guitar 2

G                          A
  And if the cloud bursts, thunder in your ear

C                                   G
  You shout and no one seems to hear.

                                 A           A7        A
And if the band you're in starts playing different tunes

     C                                   G  Bm7  Em  A
I'll see you on the dark side of the moon.

|-2----2----2----2----2----2----2----2--|
|-3-----3---------3---------3---------3-|
|-2--2---------2---------2---------2----|
|-0-0---------0---------0---------0-----|
|---------------------------------------|
|---------------------------------------|

|-2----2----2----2----2----2----2----2--|
|-3-----3---------3---------3---------3-|
|-2--2---------2---------2---------2----|
|-0-0---------0---------0---------0-----|
|---------------------------------------|
|---------------------------------------|

during singing:
Guitar 1:
|-------2----2----2----2----1----1----1----1--|
|-------------3---------3------0--0------0--0-|
|----------2---------2--------0---------0-----|
|---------0---------0-------------------------|
|---------------------------------------------|
|---------------------------------------------|

Guitar 2:
|--------------------------------19b20b19-----|
|-19b20b19------------------------------------|
|---------------------------------------------|
|---------------------------------------------|
|---------------------------------------------|
|---------------------------------------------|


Guitar 1:
|-------2----2----2----2----1----1----1----1--|
|-------------3---------3------0--0------0--0-|
|----------2---------2--------0---------0-----|
|---------0---------0-------------------------|
|---------------------------------------------|
|---------------------------------------------|

Guitar 2:
|--------------------------------19b20b19-----|
|-19b20b19------------------------------------|
|---------------------------------------------|
|---------------------------------------------|
|---------------------------------------------|
|---------------------------------------------|


Guitar 1:
|-------2----2----2----2-----------------------3----3--3----3--|
|-------------3---------3---9----9----9----9-------------------|
|----------2---------2------------9---------9--------0-------0-|
|---------0---------0----------9---------9--------2-------2----|
|-----------------------------7---------7--------0-------0-----|
|--------------------------------------------------------------|

Guitar 2:
|---------------------16b17b16----------------|
|---------------------------------------------|
|---------------------------------------------|
|---------------------------------------------|
|---------------------------------------------|
|---------------------------------------------|


Guitar 1:
|-2-------2---0-------0-----2-----2-0-|
|-3---3-----------3-----3---1---1-----|
|-2-----------------2-------2-2-------|
|-0-0---0---0---0---0-------0---------|
|-------------------------0-----------|
|-------------------------------------|

No Guitar 2




                             *Eclipse

intro:
D  A  D  A

D
All that you touch

D
All that you see

A#
All that you taste

A
All that you feel


D
All that you love

D
All that you hate

A#
All you distrust

A
All that you save


D
All that you give

D
All that you deal

A#
All that you buy

A
beg, borrow or steal


D
All you create

D
All you destroy

A#
All that you do

A
All that you say


D
All that you eat

D
everyone you meet

A#
All that you slight

A
everyone you fight


D
All that is now

D
All that is gone

A#
All that's to come
    A
and everything under the


D
sun is in tune
D       A                      A# D
but the sun is eclipsed by the moon.
Em   /   G   /   Em   /   G  /  Em   /  Am7  /  Em  /  Am7  /  G  /  G

Wish You were here

C                           D                 Am                     G
   So, so you think you can tell, ...

                     D                        C                     Am
Can you tell a green field, from a cold ...

                     G                          C                      D
Do you think you can tell?  Did they get you ...

              Am                    G                              D
Hot ashes for trees?  Hot air for a ...

              C                             Am                        G
And did you exchange, a walk-on part in ....

(guitar solo - repeat intro)


C                               D
How I wish, how I wish ...

           Am                                   G                  D
We're just two lost souls swimming in ...

                                C                                   Am
Running over the same old ground, ...

              G
Wish you were ...

COMFORTABLY NUMB
Pink Floyd
(Gilmour, Waters)

Bm                               A
        Hello, Is there any body in there?
                    G       D/F#  Em        Bm
Just nod if you can hear me,      is there anyone at home?
A
Come on, now, I hear your feeling  down,
      G            D/F#   Em            Bm
well, I can ease  your  pain,   get you on your feet again.
                        A                   G          D/F#   Em
relax, I need soem information, first,  just the basic facts,
         Bm
Can you show me where it hurts

D                           A
There is no pain you are receding,
D                                A        G/B
A distant ships smoke, on the horizon,
C                               G
You are only coming through in waves,
C                                               G
Your lips move, but I can't hear what your saying,
     D                       A
When I was a child, I had a fever,
  D                             A       G/B
my hands felt just like, two ballons,
C                                   G
Now I've got that feeling once again,
G                                 C
I can't explain, you would not understand,
                        G
This is not how I am,
A               G/B  C             G                D
I______________________  have become, comforatbly numb.


SOLO 1:
e-|---14vvvvvv-----12-14>15>14------------------------------------------------|
B-|------------------------------15>17vvvvvvvvvv>15--15-14--------------------|
G-|---------------------------------------------------------14----------------|
D-|-------------------------------------------------------------14\12vvvvvv---|
A-|---------------------------------------------------------------------------|
E-|---------------------------------------------------------------------------|

e-|--14>12--14>(15)>14--------------------------------------------------------|
B-|-----------------------15>17---------15--14--------------------------------|
G-|---------------------------------------------14------------------/12vvvvvv-|
D-|-------------------------------------------------14\12--11--9--7-----------|
A-|---------------------------------------------------------------------------|
E-|---------------------------------------------------------------------------|

e-|---------------------------------------------------------------|
B-|---------------------------------------------------------------|
G-|---11--------------11\9---9\7vvvvv----9>7------7---9---11>12---|
D-|----------14--12----------------------------9------------------|
A-|---------------------------------------------------------------|
E-|---------------------------------------------------------------|

e-|---15-14-12---------------------------------------------------|
B-|------------15-12---------------------------------------------|
G-|------------------12------------------------------------------|
D-|---------------------12vvvvvvvv--10\9vvvvvvv---10\9\7vvvvv----|
A-|--------------------------------------------------------------|
E-|--------------------------------------------------------------|

                               v-- strike note
e-|-----------------------------------------------------------|
B-|-----------------------------------------------------------|
G-|-11>(12)vvvvvvvv--9>(11)===(11)==>9>7----------------------|
D-|---------------------------------------7/9\7vvvvvvvvvvv\---|
A-|-----------------------------------------------------------|
E-|-----------------------------------------------------------|


Bm                      A                         G   D/F#  Em
O.K., just a little pin prick, there'll be no more (scream),
           Bm
But you may feel a little sick.  Can you stand up?
                   A                              G             D/F#  Em
I do believe it's working, good. That'll keep you going throught the show,
Bm
C'mon it's time to go

D                            A
There is no pain you are receding,
D                               A       G/B
A distant ships smoke on the horizon,
C                                G
You are only coming through in waves,
    C                                         G
Your lips move, but I can't hear what your saying,
    D                              A
When I was a child, I caught a fleeting glimpse,
D                        A     G/B
Out of the corner of my eye,
C                              G
I turned to look, but it was gone,
                           C
I can not put my finger on it now,
                            G
The child is grown, the dream is gone,
A               G/B  C          G                 D
and I___________________, have become comfortably numb.


OUTRO SOLO:
|---------------------------------------------------------------|
|---------------------------------------------------------------|
|--7--9--9>(11)vvvvvv--9>(11)>9>7---7--9--9--7-------7vvvvvvv---|
|---------------------------------9-------------9--9------------|
|---------------------------------------------------------------|
|---------------------------------------------------------------|

|-------------------------------------------10------------------------------|
|--------10------10--12--12>(15)>12>10--12----------------------------------|
|---/11------11---------------------------------------7--9--9>(10)>9>7------|
|----------------------------------------------------------------------9vvvv|
|---------------------------------------------------------------------------|
|---------------------------------------------------------------------------|

|--------------------------------------------------------------------------|
|----10>7-------7----------------------------------------------------------|
|-----------9-------9---7-------------------------------7------------------|
|--------------------------9vvvvvvvvvv--------7---7--9-----9>7---9vvvvvv---|
|-----------------------------------------/9-------------------------------|
|--------------------------------------------------------------------------|

|--9--9>(10)----7-------7---------------------------|
|-------------------10-----10>(12)vvv----10>7-------|
|-----------------------------------------------9---|
|---------------------------------------------------|
|---------------------------------------------------|
|---------------------------------------------------|

|-------7--------------------------------------------------------|
|--7--7---10>7---------------------------------------------------|
|--------------9>(11)>9>7---9-7----------------------------------|
|-------------------------9-----9-7------------------------------|
|-----------------------------------9-8-7-5---5vvvvvvvvvvvvvv----|
|-------------------------------------------7--------------------|

|--------------------------7-------------------------------------------------|
|------------------------7---10>7--------------------------------------------|
|--7-7-7vvvvvvv---9>(11)----------9>(11)>9>7---9-7---------------------------|
|--------------------------------------------9-----9>7-----------------------|
|------------------------------------------------------9\7-5-7>5---5--7-7/9--|
|----------------------------------------------------------------7-----------|

|----------------------------7----------------------------7-----------------|
|--------------------------7---10--------7--------------7---10>7------------|
|-------------7---7-9>(11)--------9>(11)---7--9--9>(11)----------9>(11)>9>7-|
|--7-7-7--9>7---9-----------------------------------------------------------|
|---------------------------------------------------------------------------|
|---------------------------------------------------------------------------|

|----------------------------------------------------------------------------|
|---------------------------7--------------7-7-7------------------7-7-7------|
|----9-7--------------------7--------------7-7-7------------------7-7-7------|
|--9-----9-7----------------7--9vvvvvvv----7-7-7--"9"vvvvvvvvvv---7-7-7--9vvv|
|------------9-8-7-5---5>0---------------------------------------------------|
|--------------------7-------------------------------------------------------|

|---------------------------------------------7------------------------|
|--7---------------------------------------------10>7--10>(12)====>10--|
|--7----9>(11)>9>7-----7--9--9>(11)vvvvvvvv----------------------------|
|-----7-------------9--------------------------------------------------|
|----------------------------------------------------------------------|
|----------------------------------------------------------------------|

|----------7-------------------------------------------------------|
|--------7---10>7--------------------------------------------------|
|-9>(11)----------9>(11)>9>7-9>7---7---------------------------7---|
|--------------------------------9---9>7-9>7---7------------9--7---|
|--------------------------------------------9---9-8-7-------------|
|------------------------------------------------------10-7--------|

|-----------------------------------------------------------------------|
|----------7-----7>(8)>7--------------------------7-----------------7---|
|--------7-7-----7>(8)>7-----------------7>9>7----7-----------------7---|
|--9-7-9---7-----7>(8)>7-7vvvvvv-7>9------------9---9>7-----7-9>7>9-----|
|--------------------------------------------------------9--------------|
|-----------------------------------------------------------------------|

|-----------------------------------7-----17-17-17>(19)vvv--17-19-21-21>(22)vv|
|-------7---7---7--7------7---7--7--7-----------------------------------------|
|-9>7---7---7---7--7----7-7---7--7--7-----------------------------------------|
|-----9-----7-----------------------7-----------------------------------------|
|-----------------------------------------------------------------------------|
|-----------------------------------------------------------------------------|

|--21>(22)vvv-21-21>(22)>21--21>(22)-21>(22)-21>(22)>21--19>21>19-19-19\---|
|--------------------------------------------------------------------------|
|--------------------------------------------------------------------------|
|--------------------------------------------------------------------------|
|--------------------------------------------------------------------------|
|--------------------------------------------------------------------------|

|-----------------------------------------------------------------------------|
|-17-17-17--17>(19)>17>15----17-17-17vvvvvv---15--17-17>(18)>17>15vvv---------|
|-------------------------16-----------------------------------------16-16-16-|
|-----------------------------------------------------------------------------|
|-----------------------------------------------------------------------------|
|-----------------------------------------------------------------------------|

|----------------------------10---------10----12-12>(13)-10-12-------12--|
|--------------------10>(12)----10>(12)----10------------------12-12-----|
|--14-16vvv--------------------------------------------------------------|
|-----------14-12--------------------------------------------------------|
|-----------------14-----------------------------------------------------|
|------------------------------------------------------------------------|

|-------------------------------------------------------------|
|-12>(15)>12--12-10---------------------------------------7---|
|-------------------9>(11)>9>0--9>7---7-9>7---------------7---|
|-----------------------------------9-------9-7---------------|
|-----------------------------------------------9-8-7-5-------|
|-------------------------------------------------------------|

|-----------------------------------7--7--7--7---7---7---7--7-7--7---7--7--|
|---7--7--7--7--7-----7---7---7--7--7--7--7--7---7---7---7--7-7--7---7--7--|
|---7--7--7--7--7-----7---7---7--7-----------------------------------------|
|-------------------9---9---9----------------------------------------------|
|--------------------------------------------------------------------------|
|--------------------------------------------------------------------------|

|---7-----------------------------------------------||
|------10-------------------------------------------||
|----------9>(11)-9--7------------------------------||
|----------------------9-9-9-7----7-7>9-9>7-9vvvvv--||
|---------------------------------------------------||
|---------------------------------------------------||


RUN LIKE HELL
Pink Floyd
(Roger Waters)


-here are the opening chords-

---10--10--10---9----7-7--5-------------------------------|
---10--10--10---10---8-8--7---10--10-10--8---5-5-5--7-7-7-|
---7---7---7----7----7-7--7---9---9--9---7---7-7-7--7-7-7-| repeat twice
------------------------------7---7--7---9---7-7-7--7-7-7-|
----------------------------------------------------------|
----------------------------------------------------------|


             Em
   you better paint you face up in your favorite disquise
             Fm
   with your button down hips and your roller blind eyes
             Em
   with your empty smile and your hungry heart
             Cmaj
   feel the ile rising from you guilty past
             B7
   with your nerves in tatters as the cockleshell shatters
             Em
   and the hammers batter down your door
             D (see below for riff)

                YOU BETTER RUN

        D riff
------------------------------------------------------|
------------------------------------------------------|
------------------------------------------------------|
----------------3^0---3^0-----------------------------| then go back to
--5-5-5-5-5-5-5-----0-----5-5-5-5-5-5-5-3^0-5-00-5----| beginning chords
------------------------------------------------------|

             Em
   you better run all day and run all night
             Fm
   and keep your dirty feelings deep inside
             Em
   and if your taking your gilfriend out tonight
             Cmaj
   you better park the car well out of sight
             B7
   cause if they catch you in the backseat trying to pick her locks
             Em
   THEIR GONNA SEND YOU BACK TO MOTHER IN A CARDBOARD BOX
             D (riff)


thanks for looking....
comments
print report bad tab
11 comments total. Showing first comments.
0 reply
Jibbs wrote on August 11 2006, 06:45 pm

Well ok, I'll be the first to say it. Why on Earth did you combine all of the pre-existing studio versions of these songs and put them together for a LIVE ALBUM? Have you listened to Pulse?

0 reply
RHDIII wrote on August 11 2006, 11:21 pm

ehhhhhhhhhhh

wow

-1 reply
the piper wrote on August 14 2006, 02:50 pm

Dude don't tab Compilation albums.

I want to post or [tab]
guest
You may want to rate the tab now too:
select rating
Please do not post tabs as comments. Select "correction" instead!