Oops, an error
Loading. Please wait.

The Piper At The Gates Of Dawn Bass Tab

4,664 views 9 this week
no commentswrite comment
1 2 3 4 5
excellent!
x 2
Autoscroll
+/-
esc
set tempo
stop
Contributor
Hey! There's an official Ultimate Guitar app which is ideal
for learning songs when you're away from computer. Get the app
WARNING: You are trying to view
                                    content from Ultimate-Guitar.com
                                    in an unauthorized application,
                                    which is prohibited.

                                    Please use an official Ultimate
                                    Guitar Tabs application for iPhone,
                                    iPad or Android to access legitimate
                                    chords, guitar, bass, and drum tabs
                                    from Ultimate-Guitar.com database.

                                    Type "ultimate guitar tabs" in Apple
                                    App Store's or Android Market's
                                    search to find the application.
-------------------------------------------------------------------------------
			    The Piper At The Gates Of Dawn  - Pink Floyd
-------------------------------------------------------------------------------

Tabbed By : R8:31b
e-mail: 

Tuning: Standard Unless Otherwise Specified 


:: Astronomy Domine ::

Intro
G|-------------------------------------------------|
D|-------------------------------------------------|
A|-------------------------------------------------|
D|-2-2-2-2-2-2-2-2-2-2-2-2-2-2-2-2-2-2-2-2-2-2-2-2-| 

|--------------------------------------------------|
D|-------------------------------------------------|
A|-------------------------------------------------|
D|-1-1-1-1-1-1-1-1-1-1-1-1-------------------------| 

Verse 1
G|-------------------------------------------------|
D|-------------------------------------------------|
A|-------------------------------------------------|
D|-2-2-2-2-2-2-2-2-2-2-2-2-2-2-2-2-2-2-2-2-2-2-2-2-| 
  
   Lime and limpid green a second scene the fight between the 
   blue you


G|-------------------------------------------------|
D|-------------------------------------------------|
A|-------------------------------------------------|
D|-1-1-1-1-1-1-1-1-1-1-1-1-------------------------| 
  
   Once knew


G|-------------------------------------------------|
D|-------------------------------------------------|
A|-------------------------------------------------|
D|-5-5-5-5-5-5-5-5-5-5-5-5-5-5-5-5-5-5-5-5-5-5-5-5-| 

  Floating down the sound resounds around the 
  icey waters under


G|--------------------------------------------------|
D|--------------------------------------------------|
A|--------------------------------------------------|
D|-7-7-7-7-7-7-7-7-7-7-7-7-7-7-7-7-7-7-7-7-7-7/-14--|

  ground


G|--------------------------------------------------|
D|--------------------------------------------------|
A|--------------------------------------------------|
D|-14-14-14-14-14-14-14-14-14-14-14-14-14-14-14-14--| 

  Jupiter and Saturn, Oberon, Miranda, and 


G|--------------------------------------------------|
D|--------------------------------------------------|
A|--------------------------------------------------|
D|-13-13-13-13-13-13-13-13-13-13-13-13-13-13-13\5---| 

  Titana


G|--------------------------------------------------|
D|--------------------------------------------------|
A|--------------------------------------------------|
D|-5-5-5-5-5-5-5-5-5-5-5-5-5-5-5-5-5-5-5-5-5-5-5-6--| 

  Neptune, Titan, stars can frighten

Chorus
G|--------------------------------------------------|
D|--------------------------------------------------|
A|-777777-66666-55555-4444-3333-2222-11111-0000-----|
D|--------------------------------------------------| 
 
  Owwwwwwwwwwwwwwwwwwwwwwwwwwwwwwwwwwwwwwwwwwwwwwwwwww

G|-----------------------------------------------------|
D|--9-----8----=7------6------5------4------3------2---|
A|7--7--6---6-5---5--4---4--3---3--2---2--1---1--0---0-| 
D|-----------------------------------------------------|

  Owwwwwwwwwwwwwwwwwwwwwwwwwwwwwwwwwwwwwwwwwwwwwwwwwww

G|-------------------------------------------------------|
D|----0-0---0-0------------------------1-1---1-1-1---1---|
A|--0-----0-----0--------------------1-------------1-----|
D|-------------------------------------------------------| 

Interlude
(not sure if this is correct but , the notes are there somewere lol)

G|-------------------------------------------------------|
D|-------------------------------------------------------|
A|-------------------------------------------------------|
D|-1-1-1-1-1-1-1-1-1-1-1-1-1-1-1-1-1-1-1-1-1-1-1-1-11---1|

G|-------------------------------------------------------|
D|-------------------------------------------------------|
A|-------------------------------------------------------|
D|-5-5-5-5-5-5-5-5-5-5-5-5-5-5-5-5-5-5-5-5-5-5-5-5-------| 

G|-------------------------------------------------------|
D|-------------------------------------------------------|
A|-------------------------------------------------------|
D|-7-7-7-7-7-7-7-7-7-7-7-7-7-7-7-7-7-7-7-7-7-7-7-7-------| 


G|--------------------------------------------------------|
D|--------------------------------------------------------|
A|--------------------------------------------------------|
D|-14-14-14-14-14-14-14-14-14-14-14-14-14-14-14-14-14-14--|

G|---------------------------------------------------------|
D|---------------------------------------------------------|
A|---------------------------------------------------------|
D|-13-13-13-13-13-13-13-13-13-13-13-13-13-13-13-13-13------| 


G|-------------------------------------------------|
D|-------------------------------------------------|
A|-------------------------------------------------|
D|-12-12-12-12-12-12-12-12-12-12 12\2--------------|
 
G|-------------------------------------------------|
D|-------------------------------------------------|
A|-------------------------------------------------|
D|-2-2-2-2-2-2-2-2-2-2-2-2-2-2-2-2-2-2-2-2-2-2-2-2-| 

G|-------------------------------------------------|
D|-------------------------------------------------|
A|-------------------------------------------------|
D|-6-6-6-6-6-6-6-6-6-6-6-6-6-6-6-6-6-6-6-6-6-6-6-6-|


G|-------------------------------------------------|
D|-------------------------------------------------|
A|-------------------------------------------------|
D|-5-5-5-5-5-5-5-5-5-5-5-5-5-5-5-5-5-5-5-5-5-5-5-5-|


G|-------------------------------------------------|
D|-------------------------------------------------|
A|-------------------------------------------------|
D|-7-7-7-7-7-7-7-7-7-7-7-7-7-7-7-7-7-7-7-7-7-7-7-7-| 


G|-------------------------------------------------|
D|-------------------------------------------------|
A|-------------------------------------------------|
D|-5-5-5-5-5-5-5-5-5-5-5-5-5-5-5-5-5-5-5-5-5-5-5-5-| 

G|-------------------------------------------------|
D|-------------------------------------------------|
A|-------------------------------------------------|
D|-7-7-7-7-7-7-7-7-7-7-7-7-7-7-7-7-7-7-7-7-7-7-7-7-| 

Chorus
G|--------------------------------------------------|
D|--------------------------------------------------|
A|-777777-66666-55555-4444-3333-2222-11111-0000-----|
D|--------------------------------------------------| 
 
  Owwwwwwwwwwwwwwwwwwwwwwwwwwwwwwwwwwwwwwwwwwwwwwwwwww

G|-----------------------------------------------------|
D|--9-----8-----7------6------5------4------3------2---|
A|7--7--6---6-5---5--4---4--3---3--2---2--1---1--0---0-| 
D|-----------------------------------------------------|

  Owwwwwwwwwwwwwwwwwwwwwwwwwwwwwwwwwwwwwwwwwwwwwwwwwww

G|-------------------------------------------------------|
D|----0-0---0-0------------------------1-1---1-1-1---1---|
A|--0-----0-----0--------------------1-------------1-----|
D|-------------------------------------------------------| 

Verse 2
G|-------------------------------------------------|
D|-------------------------------------------------|
A|-------------------------------------------------|
D|-2-2-2-2-2-2-2-2-2-2-2-2-2-2-2-2-2-2-2-2-2-2-2-2-|

   Blinding signs flap flicker flicker flicker


G|-------------------------------------------------|
D|-------------------------------------------------|
A|-------------------------------------------------|
D|-1-1-1-1-1-1-1-1-1-1-1-1-1-1-1-1-1-1-1-1-1-1-1-1-| 

  POW! POW!


G|-------------------------------------------------|
D|-------------------------------------------------|
A|-------------------------------------------------|
D|-5-5-5-5-5-5-5-5-5-5-5-5-5-5-5-5-5-5-5-5-5-5-5-6-| 

  Stairway scare Dan dare who's there

Chorus

G|--------------------------------------------------|
D|--------------------------------------------------|
A|-777777-66666-55555-4444-3333-2222-11111-0000-----|
D|--------------------------------------------------| 
 
  Owwwwwwwwwwwwwwwwwwwwwwwwwwwwwwwwwwwwwwwwwwwwwwwwwww

G|-----------------------------------------------------|
D|--9-----8-----7------6------5------4------3------2---|
A|7--7--6---6-5---5--4---4--3---3--2---2--1---1--0---0-| 
D|-----------------------------------------------------|

  Owwwwwwwwwwwwwwwwwwwwwwwwwwwwwwwwwwwwwwwwwwwwwwwwwww




G|-------------------------------------------------------|
D|----0-0---0-0------------------------1-1---1-1-1---1---|
A|--0-----0-----0--------------------1-------------1-----|
D|-------------------------------------------------------| 

  Lime and limpid green the sound surounds the icy waters under

G|-------------------------------------------------------|
D|----0-0---0-0------------------------1-1---1-1-1---1---|
A|--0-----0-----0--------------------1-------------1-----|
D|-------------------------------------------------------| 

  Lime and limpid green the sound surounds the icy waters under

G|----------------------|
D|----1-1---1-1-1---1---|
A|--1-------------1-----|
D|----------------------| 
 
  ground

:: Lucifer Sam ::

Intro/main:
G|-------------------------------------------------------------|
D|-------------------------------------------------------------|
A|---------4-3-2-0-------4-3-2-0-------4-3-2-0-------4-3-2-0---|
E|--0-1-2-----------1/2-----------1-2-----------1/2------------|

G|---------------------------------------------------------------|
D|---------2-1-0---------2-1-0-----------------------------------|
A|--0-1-2--------4--1/2--------4---------4-3-2-0-------4-3-2-0---|
E|--------------------------------0-1-2-----------1/2------------|

Pre chorus:
G--------------------------------------------------------------------|
D|--------------------------------9-9-7---7-9-9-7--9-9-7---7-9-9-7---|
A|--9-9-9-9-9-9-9-9--10-10-10-10--------9----------------9-----------|
E|-------------------------------------------------------------------|

G|---------------------/9-7---/9-7-------|
D|-----6-6-7-7-9-9----------9------9-----|
A|--7---------------7--------------------|
E|---------------------------------------|

Chorus:
G|------------------|
D|------------------|
A|--3-3-3-3--5------|
E|------------------|

Then play:
main
pre chorus  
chorus again

 then during solo:
G|------------------------------------------------------------------------|
D|------------------------------------------------------------------------|
A|------------------------------------------------------------------------|
E|--2--2-2-2-2-2-2-2---5-5-5-5-5---2-2-2-2--0-0-0-0-0-0-0-0---2-2-2-2-2-2-|


:: Matilda Mother ::

G||-------------------|--16----------------|--16----------------|
D||-------------------|--------------------|--------------------|
A||-------------------|--------------------|--------------------|
E||-------------------|--------------------|--------------------|
       
--16----------------|--------------------|--16--------14--------|
---0----------------|--16----------------|----------------------|
--------------------|--------------------|----------------------|
--------------------|--------------------|----------------------|
         
--12--------11--------|--16--------14--------|--12--------11--------|
----------------------|----------------------|----------------------|
----------------------|----------------------|----------------------|
----------------------|----------------------|----------------------|
  
--16--------14--------|--12--------11--------|-----11--8--------9--6-----|
----------------------|----------------------|--9---------9--7--------7--|
----------------------|----------------------|---------------------------|
----------------------|----------------------|---------------------------|

-----7--4--------3--6-----|-----7--4-------2-------|----9--6------6-----7--|
--5--------5--4--------4--|--5----------0-----4----|--7--------7-----7-----|
--------------------------|------------------------|-----------------------|
--------------------------|------------------------|-----------------------|

-----7--4-------2-------|--8-9--9--9--9--9--9--9--9--|--9--9--9--9--9--9--9--9--|
--5----------0-----4----|----------------------------|--------------------------|
------------------------|----------------------------|--------------------------|
------------------------|----------------------------|--------------------------|
   
|------------------------|------------------------|
|----6--7--9--7--6-------|----6--7--9--7--6-------|
|--9---------------9--7--|--9---------------9--7--|
|------------------------|------------------------|

|--------------------------|--------------------------|
|--------------------------|--------------------------|
|--2-----2-----2-----2-----|--2-----2-----2-----2-----|
|--------------------------|--------------------------|

|---1--2--4--2--1------|-----11----10----9----7--|
|--4-------------4--2--|--4--------------L----0--|
|----------------------|-------------------------|
|----------------------|-------------------------|
      
-----------------------|-------------------|--16--------14--------|
-----------------4--5--|--L----------------|----------------------|
--7----7------7--------|-------------------|----------------------|
-----------------------|-------------------|----------------------|
        
--12--------11--------|--16--------14--------|--12--------11--------|
----------------------|----------------------|----------------------|
----------------------|----------------------|----------------------|
----------------------|----------------------|----------------------|
  
--16--------14--------|--12--------11--------|-----11--8--------9--6-----|
----------------------|----------------------|--9---------9--7--------7--|
----------------------|----------------------|---------------------------|
----------------------|----------------------|---------------------------|

-----7--4--------3--6-----|-----7--4-------2------|----9--6-------6-----7--|
--5--------5--4--------4--|--5----------0-----4---|--7---------7-----7-----|
--------------------------|-----------------------|------------------------|
--------------------------|-----------------------|------------------------|
   
-----7--4-------2-------|------------------------|------------------------|
--5---------0-----4-----|-2--2--2--2--2--2--2--2-|-2--2--2--2--2--2--2--2-|
------------------------|------------------------|------------------------|
------------------------|------------------------|------------------------|
              
--2--------0--------|-------------------|-------------------|
--------------------|--2----------------|--L----------------|
--------------------|-------------------|-------------------|
--------------------|-------------------|-------------------|
      
-------11--L---11------------|-------11--L---11------------|
---------------------11------|---------------------11------|
--9---------------9----------|--9---------------9----------|
-----------------------------|-----------------------------|
    
-------11--L---11------------|-------11--L---11------------|
---------------------11------|---------------------11------|
--9---------------9----------|--9---------------9----------|
-----------------------------|-----------------------------|
      
-------11--L---11------------|-------11--L---11------------|
---------------------11------|---------------------11------|
--9---------------9----------|--9---------------9----------|
-----------------------------|-----------------------------|
    
-------11--L---11------------|-------11--L---11------------|
---------------------11------|---------------------11------|
--9---------------9----------|--9---------------9----------|
-----------------------------|-----------------------------|
    
-------11--L---11------------|-------11--L---11------------|
---------------------11------|---------------------11------|
--9---------------9----------|--9---------------9----------|
-----------------------------|-----------------------------|
   
-------11--L---11------------|-------11--L---11------------|
---------------------11------|---------------------11------|
--9---------------9----------|--9---------------9----------|
-----------------------------|-----------------------------|
   
|------------------------|------------------------|
|----6--7--9--7--6-------|----6--7--9--7--6-------|
|--9---------------9--7--|--9---------------9--7--|
|------------------------|------------------------|
   
-----11--8--------9--6-----|-----7--4--------3--6--3--|
--9---------9--7--------7--|--5--------5--4-----------|
---------------------------|--------------------------|
---------------------------|--------------------------|
   
-----11--8--------9--6-----|-----7--4--------3--6-----|
--9---------9--7--------7--|--5--------5--4--------4--|
---------------------------|--------------------------|
---------------------------|--------------------------|
  
-----11--8--------9--6-----|-----7--4--------3--6--3--|
--9---------9--7--------7--|--5--------5--4-----------|
---------------------------|--------------------------|
---------------------------|--------------------------|

-----11--8--------9--6-----|-----7--4------3--6-----|-----7--4-----2-------|
--9---------9--7--------7--|--5------5--4--------4--|--5--------0-----4----|
---------------------------|------------------------|----------------------|
---------------------------|------------------------|----------------------|

----9--6-------6------7--|-----7--4-------2-------|-8-9--9-9--9-9--9-9-9---|
--7----------7-----7-----|--5----------0-----4----|------------------------|
-------------------------|------------------------|------------------------|
-------------------------|------------------------|------------------------|
            
--9--9--9--9--9--9--9--9--|--------------------|-------------------|
--------------------------|--7--------5--------|-------------------|
--------------------------|--------------------|--7----------------|
--------------------------|--------------------|-------------------|

-------------------|----------------|------------------|-------------------|
-------------------|----------------|------------------|-------------------|
--7----------------|--7-------------|--7---------------|--7----------------|
-------------------|----------------|------------------|-------------------|

-------------------|-------------------|---------------|-------------------|
-------------------|-------------------|---------------|-------------------|
--7----------------|--7----------------|--7------------|--7----------------|
-------------------|-------------------|---------------|-------------------|

-------------------|-------------------|---------------|-------------------|
-------------------|-------------------|---------------|-------------------|
--7----------------|--7----------------|--7------------|--7----------------|
-------------------|-------------------|---------------|-------------------|
               
-------------------|-------------------|-------------------|
-------------------|-------------------|-------------------|
--7----------------|--7----------------|--7----------------|
-------------------|-------------------|-------------------|
               
-------------------|
-------------------|
--7----------------|
-------------------|


:: Flaming ::

Intro & verse:
G---------------------------------------------------------------------------|
D---------------------------------------------------------------------------|
A--7-7-7-7-7-7-7-7-7-7-7--------------12-------12----------12----5--8--7----|
E-------------------------12/7--7-7-------12------12---12-------------------|

G----------------------------------------------------------------------------|
D-----------------14/--------------------------------------------------------|
A--7-7-7-7-7-7-7-------7-7-7-7-7-7-7------------12------12---------12--5-8-7-|
E--------------------------------------7--7-7-------12-----12--12------------|

repeat riff Until break
G-----13-16-13-----13/7-7----|
D--14-----------14-----------|
A----------------------------|
E----------------------------|

 end with  A--5-8-7------|  on last time thro
G----------------------------------------------------------------|
D----------------------------------------------------------------|
A--7-7-7-7-7-7-7-7-7-7-7--------------12-------12----------12----|
E-------------------------12/7--7-7-------12------12---12--------|

Outro: play once
G----------------------------------------------|
D----------7-7-7-7---5-5-5-5-------------7-----|
A--5---8-----------------------8-8-8-8---------|
E----------------------------------------------|


:: Pow R Toc H ::
  @ 0:09
G|----12----12----12----12-----|
D|-----------------------------|
A|-----------------------------|
D|-----------------------------| 
 
@0:18
G|---12--10----10--12--|
D|----------10---------|
A|---------------------|
D|---------------------|
Repeat till 1:44 
Here comes in the crazy screaming noises

  no Bass till 3:05, Then...
G|----12---10--9-----------------|
D|----------------12---10--------|
A|-------------------------10----|
D|-------------------------------| 
Till End

:: Take Up Thy Stethoscope And Walk ::

|-----------|
|-----------|x8
|--7---5-7--|
|-----------|

|------------------------------|
|------------------------------|
|--7---5-----------------------|
|----------7-7-7-7-7-7-7-7-7-7-|

|-----------|
|-----------|
|--7---5-7--|
|-----------|

|------------------------------|
|------------------------------|
|--7---5-----------------------|
|----------7-7-7-7-7-7-7-7-7-7-|

|-----------|
|-----------|
|--7---5-7--|
|-----------|

|------------------------------|
|------------------------------|
|--7---5-----------------------|
|----------7-7-7-7-7-7-7-7-7-7-|

|----------|
|----------|x6
|--7--7\-|
|----------|

|--------|--------------|------------|
|--7/17--|--------------|------------|
|--------|--7-7-77-5-7--|--7-7-77-5--|
|--------|--------------|------------|

|--------------|
|--------------|x18
|--7-7-77-5-7--|
|--------------|

|----16--16---16\|
|--14--14--14------|
|------------------|
|------------------|

|--------------|
|--------------|x2
|--7-7-77-5-7--|
|--------------|

|-------------|
|---9-9--9/17-|
|--7-7-7------|
|-------------|

|--------------|
|--------------|x10
|--7-7-77-5-7--|
|--------------|

|-----------------|
|---------9-8-7-6-|x18
|--5-7--7---------|
|-----------------|

|----------------------|
|---------9-8-7-6-7-6--|
|--5-7--7--------------|
|----------------------|

|---------|
|----5-7--|x8
|--7------|
|---------|

|--------|--------------|------------|
|--7/17--|--------------|------------|
|--------|--7-7-77-5-7--|--7-7-77-5--|
|--------|--------------|------------|

|--------------|
|--------------|x18
|--7-7-77-5-7--|
|--------------|

|----16--16---16\|
|--14--14--14------|
|------------------|
|------------------|

|--------------|
|--------------|x2
|--7-7-77-5-7--|
|--------------|

|-------------|
|---9-9--9/17-|
|--7-7-7------|
|-------------|

|--------------|
|--------------|x2
|--7-7-77-5-7--|
|--------------|

|------------------|
|------------------|x4
|--7-7-8-8-9-9-10--|
|------------------|

|------------|
|------------|x5
|--12-9--12--|
|------------|


:: Interstellar Overdrive ::

Do this 4 times, on last   D--22222222\ to  A--7--
G----------|-------------------------------------------------|
D-/2222222-|--9-9-989-7-7--767--5-5-5-5-5-5-454-22222222-----|
A----------|---------9--------7----------------5-------------|
E----------|-------------------------------------------------|

       20 times
G-----------|
D---9-8-7-6-|
A--7--------|
E-----------|

  (16 fret) starts to fade
G----16--16--16--16|
D--14--14--14--14--|
A------------------|
E------------------|

G-----X----X---X---X-|
D---14--14--14--14---|
A--------------------|
E--------------------|

  improvisation/ Follow these guide lines
G----14--16-------16------|
D--14-------14--14--14----|
A-------------------------|
E-------------------------|

Then...
G---------------------16-------16----16-14-----16-14----|
D--14--14--14--14--14----14-14----14-------14--------14-|
A----------------14-------------------------------------|
E-------------------------------------------------------|

Repeat as necessary 
G-----------------------------------|
D--14--14---12--14--14----12--------|
A---------14-----------14-----------|
E-----------------------------------|

G----------------|-----12h14--|-------16-14-12--|-------------------|
D----12-14-14-14-|--14--------|-14-14-----------|-14-14-------------|
A-14-------------|------------|-----------------|-------14-12-10----|
E----------------|------------|-----------------|----------------12-|
 
  [Slower Than Before, listen for timing]
G----------|----------------------7---7---7----------------|
D-22222222-|--9-9-989-7-7--767--5---5---5---454-22222222---|
A----------|---------9--------7----------------5-----------|
E----------|-----------------------------------------------|

:: The Gnome ::

Riff 1
G|---------------------------------|
D|----4-7--4-----------------------|
A|-5-------------4-7--4--5----5~---|
E|------------5-------------5------|

Riff 2
G|-------------|
D|-------------|
A|----5-7------|
E|-8------8--8-|

Riff 3
G|----7-----------------------------------|
D|-5--------7-----------------------------|
A|-------5--------8-----10----3--------5~-|
E|-------------6-----8-----1-----5--5-----|

Riff 4
G|-------------------------------------------7--7-------------|
D|-5--5--5--5--5--5--3--3--7--7--------5--5--------5~~~~~-----|
A|-------------------------------7--7-----------------------5-|
E|------------------------------------------------------------|

Riff 5
G|-------------------------|
D|-------------------------|
A|-5~-----5~---------------|
E|----5---------3--5--3--5-|

Riff 6
G|----7-4-----------------------------------------------------------|
D|-5-------5-----7-4------------------------------------------------|
A|------------5-------5-----8-5--------10-7--------3-0-----------5~-|
E|-----------------------6-------6--8--------8--1-------1--5--5-----|

Riff 7
G|----------------------|
D|-5~~~~~~~~~~~~~-------|
A|------------------5~~-|
E|----------------------|

Line Up
Riff 1
Riff 2 x2
Riff 1
Riff 2 x2
Riff 3
Riff 1
Riff 2 x2
Riff 1
Riff 2 x2
Riff 3
Riff 4
Riff 5 x2
Riff 6
Riff 4

:: Chapter 24 ::

Drop-D Tuning

Repeated 6 Times Throughout The Song, [listen for Correct Timing]
G|-------|-----------------------|
D|-------|-----------------------|
A|--15\--|------0--3h5-3-0-3h5-3-|
D|-------|-0--4------------------|


:: Scarecrow ::

 @1:35 Till End @ 2:11
G|----------------------------------------------------------------------------|
D|----------------------------------------------------------------------------|
A|----------------------------------------------------------------------------|
E|---3/4~~~~~~~3/4~~~~~~~~~3/4~~~~~~~3/4~~~~~~~~~3/4~~~~~~~3/4~~~~~~~~~3/4~~~~|


:: Bike ::

Verse #1
G|-----------------------------------------------------------------|
D|-----5---------5-----------10--------10------10--------10--------|
A|-----------------------------------------------------------------|
E|-5--------5---------10---------10-------10-------10----------0---|

G|--------------------------|
D|-0---------0-----------5--|
A|----------------32--------|
E|------0-----------5-------|

G|-------------------|
D|--------5----------|
A|-------------------|
E|---5---------------|

Chorus #1
G|-----------------------------------------------|
D|-----------------------------------------------|
A|-----------------------------------------------|
E|-0-----------0---------------<0>---------------|
                               Tied

Verse #2
G|----------------------------------------------------------------|
D|-----5---------5-----------10--------10------10--------10-------|
A|----------------------------------------------------------------|
E|-5--------5---------10---------10-------10-------10----------0--|

G|--------------------------|
D|-0---------0-----------5--|
A|----------------32--------|
E|------0-----------5-------|

G|-------------------|
D|--------5----------|
A|-------------------|
E|---5---------------|

Chorus #2
G|-----------------------------------------------|
D|-----------------------------------------------|
A|-----------------------------------------------|
E|-0-----------0---------------<0>---------------|
                               Tied

Verse #3
G|----------------------------------------------------------------|
D|-----5---------5-----------10--------10------10--------10-------|
A|----------------------------------------------------------------|
E|-5--------5---------10---------10-------10-------10----------0--|

G|--------------------------|
D|-0---------0-----------5--|
A|----------------32--------|
E|------0-----------5-------|

G|-------------------|
D|--------5----------|
A|-------------------|
E|---5---------------|

Chorus #3
G|--------------------------------------------|--
D|------12---------12----------12----------12-|--
A|--------------------------------------------|--
E|-12--------12----------12----------12-------|--

-------------------------------------------|
----------12---------12---------12---------|
-------------------------------------------|
---12----------12----------12----------12--|

G|--------------------------------------------|--
D|-12---------12-----------12-------------12--|--
A|--------------------------------------------|--
E|------12----------12-------------12---------|--

-------------------------------------------|
-------12--------12--------12--------------|
-------------------------------------------|
--12--------12--------12------1212--12-----|

Verse #5
G|---------------------------------------------------------------|
D|-----5---------5-----------10--------10------10--------10------|
A|---------------------------------------------------------------|
E|-5--------5---------10---------10-------10-------10----------0-|

G|--------------------------|
D|-0---------0-----------5--|
A|----------------32--------|
E|------0-----------5-------|

G|-------------------|
D|--------5----------|
A|-------------------|
E|---5---------------|

Final Verse [Cut Time]
G|----------------------------------------------------------|--
D|-----5---------5-----------10--------10------10--------10-|--
A|----------------------------------------------------------|--
E|-5--------5---------10---------10-------10-------10-------|--


---------------------------------|
--------55--------5---0-0-0--0-0-|
---------------------------------|
---5---------5--------0-0-0------|

G|-------------------|
D|-------------------|
A|-----32----5-------|
E|-------------------|
comments
We did not receive enough feedback on this tab! Please rate:
print report bad tab
1 2 3 4 5
I want to post or [tab]
guest
You may want to rate the tab now too:
select rating
Please do not post tabs as comments. Select "correction" instead!