Oops, an error
Loading. Please wait.

The Piper At The Gates Of Dawn Tab

21,704 views 21 this week
7 commentsread comments
1 2 3 4 5
excellent!
x 5
Autoscroll
+/-
esc
set tempo
stop
Contributor
Difficulty
novice
Hey! There's an official Ultimate Guitar app which is ideal
for learning songs when you're away from computer. Get the app
WARNING: You are trying to view
                                    content from Ultimate-Guitar.com
                                    in an unauthorized application,
                                    which is prohibited.

                                    Please use an official Ultimate
                                    Guitar Tabs application for iPhone,
                                    iPad or Android to access legitimate
                                    chords, guitar, bass, and drum tabs
                                    from Ultimate-Guitar.com database.

                                    Type "ultimate guitar tabs" in Apple
                                    App Store's or Android Market's
                                    search to find the application.
The Piper At The Gates Of Dawn
by Pink Floyd

regular tuning

Astronomy Domine

INTRO:                        
Vamp till drums

cresendo
--------------------------------------------------
--------------------------------------------------
--------------------------------------------------
--------------------------------------------------
--------------------------------------------------
-0-0-0-0-0-0-0-0-0-0-0-0-0-0-0-0-0-0-0-0-0-0-0-0--

let ring         let ring             repeat 3 more times
-0--------------0-0----------------------
-0--------------0-0----------------------
-1--------------1-0----------------------
-2--------------2-1----------------------
-2--------------2-1----------------------
-0-0-0-0-3(4)-0-0-0-0-0-0-0-0-0-0-0-0-0--

                                                                         
VERSE:

E (play as standard E)
Lime and limpid green a second scene the fight between the blue you
Eb (play as A barre on 6)
once knew

(All other chords play as A and E form barres)
G                                                            A
Floating down the sound resounds around the icy waters underground
E                                             Eb
Jupiter and Saturn, Oberon, Miranda, and Titania
G                               G#
Neptune, Titan, stars can frighten

|-12-12-12-11-11-11-10-10-10-9-9-9-8-8-8-7-7-7-6-6-6-5-5-5-----------------|
|-10-10-10--9--9--9--8--8--8-7-7-7-6-6-6-5-5-5-4-4-4-3-3-3-----------------|
|--------------------------------------------------------------------------|
|--------------------------------------------------------------------------|
|--------------------------------------------------------------------------|
|--------------------------------------------------------------------------|

|-10-10-----9-9---8-8---7-7---6-6---5-5---4-4---3-3------------------------|
|-10----10--9---9-8---8-7---7-6---6-5---5-4---4-3---3----------------------|
|-11-------10-----9-----8-----7-----6-----5-----4--------------------------|
|--------------------------------------------------------------------------|
|--------------------------------------------------------------------------|
|--------------------------------------------------------------------------|

|-2--------2--------3--------3------3-\----0-------------------------------|
|-3--3---3---3---3--4--4---4---4----4-\----0-------------------------------|
|-2----2-------2----3----3-------3--3-\----1-------------------------------|
|-0-----------------1---------------1-\----2-------------------------------|
|------------------------------------------2-------------------------------|
|------------------------------------------0-------------------------------|

(play following chords as E form barres falling from fret 12)
E     Eb    D     C#    C     B     Bb    A
Aaah  Aaah  Aaah  Aaah  Aaah  Aaah  Aaah  Aaah
(and again as A form barres falling from 12)
A     G#    G     F#    F     E     Eb    D
Aaah  Aaah  Aaah  Aaah  Aaah  Aaah  Aaah  Aaah     

D  Eb  E

SOLO:(with slight distortion, heavy delay)

    E
E-|-12-12-12-12-12-12-12-12-12-12-12-12-12-12-12-12-|
B-|-------------------------------------------------|
G-|-------------------------------------------------|
D-|-------------------------------------------------|
A-|-------------------------------------------------|
E-|-------------------------------------------------|
                                                                         
     Eb                          
E-|-11-11-11-11-11-11-11-11-11-11-11-11-11-11-11-11-|
B-|-------------------------------------------------|
G-|-------------------------------------------------|
D-|-------------------------------------------------|
A-|-------------------------------------------------|
E-|-------------------------------------------------|
                                                                           
    G                                   A                              
E-|-3-3sl10-10-10sl3-3-3sl10-10-10sl5-|-5-----------------|
B-|-----------------------------------|---5---------------|
G-|-----------------------------------|-----7b8-----------|
D-|-----------------------------------|---------7~~~~~----|
A-|-----------------------------------|-------------------|
E-|-----------------------------------|-------------------|
                                                                         
Follow same progression as verses.
Repeat chord sequence twice and go into second verse.

Second verse : 
(Same progression)
Blinding signs flap 
Flicker flicker flicker flam
Pow  Wow
Stairway scare Dan
Dare who's there 

Aaah Aaah Aaah Aaah Aaah Aaah Aaah Aaah 
Aaah Aaah Aaah Aaah Aaah Aaah Aaah Aaah 

 (ritard)
E
Lime and limpid green the sound resounds the icy waters under
E
Lime and limpid green the sound resounds the icy waters underground


Lucifer Sam

e-|----|----------------------------------|
B-|----|----------------------------------|     
G-|----|----------------------------------|    
D-|----|----------------------------------|     
A-|----|-------4------3-----2-----0-------|     
E-|-0--|--0-2----2-2----2-2---2-2---------|

e-|----------------------------------------|
B-|----------------------------------------|
G-|----------------------------------------|
D-|-------2------1-----0-------------------|
A-|-0-1-2---2-2----2-2---2-2--4b-----------|
E-|----------------------------------------|



F#m               G
Lucifer Sam, siam cat
B
Always sitting by your side
                  E
Always by your side
C                                G    D
That cat's something I can't explain

Jennifer Gentle, you're a witch
You're the left side
He's the right side
Oh, no!
That cat's something I can't explain

Lucifer go to sea
Be a hip cat, be a ship's cat
Somewhere, anywhere
That cat's something I can't explain

At night prowling sifting sand
Hiding around on the ground
He'll be found when you're around
That cat's something I can't explain


Matilda Mother

Intro (Organ):

B      A/B      Gmaj7/D      F# (addB)



Verse 1:

       Bsus4        Asus2       G6           F#7sus4    
e-|---------0-----------0-----------0-----------0-------|
B-|-----------0-----------0-----------0-----------0-----|
G-|------4-----------2-----------0----------------------|
D-|--------------------------------------------4--------|
A-|-----------------------------------------------------|
E-|-----------------------------------------------------|
   There  was   a   King  who  ruled  the  land.    His  

     Bsus4       Asus2      G6           F#7sus4
e-|-----0-----------0----------0-------------0----------|
B-|-------0-----------0----------0-------------0--------|
G-|---4-----------2----------0--------------------------|
D-|-----------------------------------------4-----------|
A-|-----------------------------------------------------|
E-|-----------------------------------------------------|
     Ma - je - sty was   in   com - mand.


      Bsus4        Asus2       G6           F#7sus4
e-|--------0-----------0-----------0-----------0--------|
B-|----------0-----------0-----------0-----------0------|
G-|-----4-----------2-----------0-----------------------|
D-|-------------------------------------------4---------|
A-|-----------------------------------------------------|
E-|-----------------------------------------------------|
   With  sil - ver  eyes,   the   scar - let   eagle,    

      Bsus4       Asus2        G6          F#7sus4
e-|------0-----------0-----------0-------------0-------|
B-|--------0-----------0-----------0-------------0-----|
G-|----4-----------2-----------0-----------------------|
D-|------------------------------------------4---------|
A-|----------------------------------------------------|
E-|----------------------------------------------------|
      showered  sil - ver    on   the    people.


       G           D           A                 G
e-|-------3-----------2----------0-----------------3---|
B-|---------0-----------3----------2---2-------------0-|
G-|----------------------------------------2-----------|
D-|----------------0-----------------------------------|
A-|----------------------------0-----------------------|
E-|----3-----------------------------------------3-----|
         Oh____    oh____   Mother,           te___ll  

          D              E                         sl.
e-|--------2--------------4----------------------------|
B-|----------3--------------5---5--5----5--5----5--5\--|
G-|---------------------/4---------------4--------4----|
D-|-------0--------------------------------------------|
A-|----------------------------------------------------|
E-|----------------------------------------------------|
      me___           mo____re!

       1
     Bass arr. for guitar:

      N.C.
e-|-------------------------------------------------------------------------|
B-|-------------------------------------------------------------------------|
G-|-------------------------------------------------------------------------|
D-|-------------------------------------------------------------------------|
A-|-------------------------------------------------------------------------|
E-|----7---9---10---12---10---9---7----------7---9---10---12---10---9---7---|
    Why'd ya have   to  leave  me  there,  hang-ing  in   my   in - fant air 

                   sl.
e-|-------------------|
B-|------4-----4---4\-|
G-|------4-----4---4\-|
D-|------4-----4------|
A-|------2-----2------|
E-|-------------------|
       wai - ting?

e-|-------------------------------------------------------------------------|
B-|-------------------------------------------------------------------------|
G-|-------------------------------------------------------------------------|
D-|---------------------------------------------------4----3----2----0---2--|
A-|-------------------------------------------------------------------------|
E-|----7---9---10---12---10---9---7-----7-----------------------------------|
     You only have  to  read the lines of            scribbly black and

e-|----------------------------|
B-|----------------------------|
G-|----------------------------|
D-|----------------------------|
A-|-----------0--0-----0--2--3-|
E-|----------------------------|
   everything shi______nes.


      Bsus4        Asus2         G6         F#7sus4    
e-|--------0-----------0------------0----------0------|
B-|----------0-----------0------------0----------0----|
G-|----/4-----------2------------0--------------------|
D-|-------------------------------------------4-------|
A-|---------------------------------------------------|
E-|---------------------------------------------------|
     A - cross the  stream with wooden   shoes,        

      Bsus4      Asus2       G6          F#7sus4      
e-|-------0----------0----------0------------0--------|
B-|---------0----------0----------0------------0------|
G-|-----4----------2----------0-----------------------|
D-|-----------------------------------------4---------|
A-|---------------------------------------------------|
E-|---------------------------------------------------|
     bells  to  tell  the   King  the  news.

      Bsus4        Asus2     G6        F#7sus4        
e-|--------0-----------0----------0--------0----------|
B-|----------0-----------0----------0--------0--------|
G-|-----4-----------2----------0----------------------|
D-|---------------------------------------4-----------|
A-|---------------------------------------------------|
E-|---------------------------------------------------|
    A   thousand  mis - ty    riders   climb       up  

   Bsus4        Asus2       G6          F#7sus4
e-|----0----------0-----------0------------0--------|
B-|------0----------0-----------0------------0------|
G-|--4----------2-----------0-----------------------|
D-|---------------------------------------4---------|
A-|-------------------------------------------------|
E-|-------------------------------------------------|
    high - er  once   u - pon   a    time.


       2
      G           D           A                  G
e-|------3-----------2----------0------------------3---|
B-|--------0-----------3----------2---2--------------0-|
G-|---------------------------------------2------------|
D-|---------------0------------------------------------|
A-|---------------------------0------------------------|
E-|---3------------------------------------------3-----|
       Wonder - ing  and   dreaming,    the words  had  

          D             E                   A    G     E
e-|---------2------------------------------------3----0---|
B-|-----------3-----------------5-----------2----0----0---|
G-|--------------------/4---------4---------2----0----1---|
D-|--------0------------------0-------------2----0----2---|
A-|-----------------------------------------0----2----2---|
E-|----------------------------------------------3----0---|
   different   mea - ning.                  Yes they did!


Keyboard Solo:

    Bass arr. for guitar: (Rhy. Fig. 1)
     
      F#
e-|----------------------------------------------------||
B-|----------------------------------------------------||
G-|----------------------------------------------------||
D-|-------4---------------4----------------4-----------||
A-|-------------4----------------4----------------4----||
E-|----2-----2---------2-----2---------2-----2---------||

(cont. Rhy. Fig. 1 until change)


     Bass arr. for guitar:
      N.C.
e-|------------------------------------------------------------------------|
B-|------------------------------------------------------------------------|
G-|------------------------------------------------------------------------|
D-|------------------------------------------------------------------------|
A-|------------------------------------------------------------------------|
E-|----7---9---10---12---10---9---7----------7---9---10---12---10---9---7--|


Verse 3:
      Bsus4       Asus2       G6       F#7sus4       Bsus4
e-|---------7---------5------------------------------------7-----|
B-|---------7---------5------------------------------------7-----|
G-|-------------------7------------------------------------------|
D-|--------------------------------------------------------------|
A-|--------------------------------------------------------------|
E-|-----7---------5------------3--------2-------------7----------|
     For all  the   time  spent in that  room,    the doll's house

    Asus2         G6         F#7sus4
e-|-------5--5---------3----------------|
B-|-------5--5---------3----------------|
G-|-------7--7---------5----------------|
D-|-------------------------------------|
A-|-------------------------------------|
E-|---5------------3----------2---------|
    darkness   old  per - fume.

       3

       Bsus4       Asus2      G6         F#7sus4      Bsus4
e-|----------7---------5--5-------3-------------------------7----|
B-|----------7---------5--5-------3-------------------------7----|
G-|--------------------7--7-------5------------------------------|
D-|--------------------------------------------------------------|
A-|--------------------------------------------------------------|
E-|------7---------5-----------3-----------2------------7--------|
    And  fai - ry   stor - ies   held  me   high    on  clouds   

      Asus2         G6              F#7sus4
e-|--------5--5---------/3--3---------2-----|
B-|--------5--5---------/3--3---------2-----|
G-|--------7--7-------------5---------4-----|
D-|-----------------------------------------|
A-|-----------------------------------------|
E-|----5------------3-------------2---------|
  of   sun - light  floa - ting    by.


       G           D           A                G             D
e-|-------3-----------2----------0-----------------3-----------2---|
B-|---------0-----------3----------2---2-------------0-----------3-|
G-|----------------------------------------2-----------------------|
D-|----------------0------------------------------------------0----|
A-|----------------------------0-----------------------------------|
E-|----3-----------------------------------------3-----------------|
     Oh____    oh____   Mother,           te___ll       me___

            E
e-|-----------4-------------------------------|
B-|-----------------5---5--5----5--5----5--5\-|
G-|---------/4---------------4--------4-------|
D-|-------------------------------------------|
A-|-------------------------------------------|
E-|-------------------------------------------|
           mo____re!

         A      G      E           (Rhy. Fig. 2 - Bass arr, for guitar)
e-|-------------3------0----------|-----------------------------------------------------|
B-|------2------0------0----------|-----------------------------------------------------|
G-|------2------0------1----------|-----------------------------------------------------|
D-|------2------0------2----------|-------------------6--5------------------------6--5--|
A-|------0------2------2----------|---/7--5------------------------/7--5----------------|
E-|-------------3------0----------|-----------7--0-------------------------7--0---------|
         Tell   me     mo_____re.

(cont. Rhy. Fig. 2 to fade out)

Outro:
      (fade in)
e-|------------------------------------------------------------------------------|
B-|------------------------------------------------------------------------------|
G-|------------------------------------------------------------------------------|
D-|--0-2--0-2--0-2--0-2--0-2--0-2--0-2--0-2--0-2--0-2---0---0-2--0-2--0-2---2-0--|
A-|------------------------------------------------------------------------------|
E-|------------------------------------------------------------------------------|
      
e-|---------------------------------------------------------------------|
B-|---------------------------------------------------------------------|
G-|---------------------------------------------------------------------|
D-|---------------------------------------------------------------2-1---|
A-|---2-0-------------2--0--2-0--2-0--2-0---------0-2-1--2-1--2-1--2-1--|
E-|---------3-0--0-3------------------------3--0-3----------------------|

                                                        (fade out)
e-|------------------------------------------------------|
B-|------------------------------------------------------|
G-|------------------------------------------------------|
D-|------------2-1------2-1------------------------------|
A-|-------2-1------2-1------2-1--------------------------|
E-|------------------------------3-0---3-3--2-2-2-2-2-2--|


Flaming

E              D
Alone in the clouds all blue
Bm          A          Asus4 A Asus2 A
Lying on an eiderdown
   E                  A
Yippee! You can't see me
    D F   E
But I can you

Lazing in the foggy dew
Sitting on a unicorn
No fair, you can't hear me
But I can you

Watching buttercups cup the light
Sleeping on a dandelion
Too much, I won't touch you
But then I might

Screaming through the starlit sky
Travelling by telephone
Hey ho, here we go
Ever so high

Alone in the clouds all blue
Lying on an eiderdown
Yippee! You can't see me
But I can you


Pow R. Toc H.

no guitar that I can make out.


Take Up Thy Stephoscope And Walk

again, guitar, atleast that's worth tabbing out.


Interstellar Overdrive

e------------------------------------------------------------------0-----------
b--------------------------------------------------------------------0---------
g------------------------------------------------------------------------------
d------------------2-2----9-9-8-9-8--7-7-6-7-6-5-5-5-5-5-5---------------------
a-------------------------7-7-6-7-6--5-5-4-5-4-3-3-3-3-3-3-7-7-7-2-------------
E-12 slide to 0-0-0-0-0-0----------------------------------5-5-5-0-------------
                    ^
       bass enters on right side here

e-----------------------------------------------0-----12-12-11-12-11---
b-------------------------------------------------0---12-12-11-12-11---
g---------------------------------------------------0-12-12-11-12-11---
d------9-9-8-9-8--7-7-6-7-6-5-5-5-5-5-5---------------14-14-13-14-13---
a------7-7-6-7-6--5-5-4-5-4-3-3-3-3-3-3-7-7-7-2-------14-14-13-14-13---
E---------------------------------------5-5-5-0-------12-12-11-12-11---
                                                 ^
               

e--10-10-9--10-9--8--8--8----s-u-12------12-12-11-12-11
b--10-10-9--10-9--8--8--8--s-l-p-12------12-12-11-12-11
g--10-10-9--10-9--9--9--9--l-i---13------12-12-11-12-11
d--12-12-11-12-11-10-10-10-o-d---14------14-14-13-14-13
a--12-12-11-12-11-10-10-10-w-e-t-14------14-14-13-14-13
E--10-10-9--10-9--8--8--8------o-12------12-12-11-12-11
                          ^
e--10-10-9--10-9--8--8--8----s-u-12---
b--10-10-9--10-9--8--8--8--s-l-p-12---
g--10-10-9--10-9--9--9--9--l-i---13---
d--12-12-11-12-11-10-10-10-o-d---14---
a--12-12-11-12-11-10-10-10-w-e-t-14---
E--10-10-9--10-9--8--8--8------o-12---
                           ^
   Do this while strumming and make so final chord comes when bass reaches E


The Gnome

  D       A          D             C      A    C    A
I want to tell you a story 'bout a little man, if I can,
  D           A       D            C      A           C        A
A gnome named Grimble Grumble. And little gnomes stay in their homes,
G  D    Bb7  C    F    A7        D
Eating, sleeping, drinking their wine
     
   D      A       D        C         A        C            A
He wore a scarlet tunic, a bluegreen hood; it looked quite good
   D     A     D        C         A            C      A
He had a big adventure amidst the grass, fresh air at last
G  D    Bb7 C   F  A7      D
Wining, dining, biding his time
     
    G           C/G  F      A/E   E          G       D    G  D
And then one day, hooray, another way for gnomes to say, "Hooray!"
     D      A         D             C/G   A       C/G  A
Look at the sky; look at the river. Isn't it good?
     D      A         D             C/G   A       C/G A
Look at the sky; look at the river  Isn't it good?
G   D    Bb7 C   F   A7    D
Winding, finding places to go
    G           C/G  F      A/E   E          G       D    G  D
And then one day, hooray, another way for gnomes to say, "Hooray!"


Chapter 24

no guitar.


The Scarecrow

     
    D               A             C        A   G
The black and green scarecrow, as ev'ryone knows,
             A                   D          A
Stood with a bird on his hat and straw ev'rywhere
   D
He didn't care
   G          Am          G      A
He stood in a field where barley grows
     
    D           A             C           A  G
His head did no thinking, his arms didn't move,
                A                     D         A            D
Except when the wind cut up rough and mice ran around on the ground
   G          Am          G      A
He stood in a field where barley grows
     
    D               A            C           A  G
The black and green scarecrow is sadder than me__
               A                            D            A
But now he's resigned to his fate's, 'cause life's not unkind
   D
He doesn't mind
   G          Am          G      A
He stood in a field where barley grows
     

Bike

verse 1
     G                      C

e|---3-----------------------8--------------------------|
B|---3-----------------------8--------------------------|
G|---4-----------------------9--------------------------|
D|---5----------------------10--------------------------|
A|---5----------------------10--------------------------|
E|---3-----------------------8--------------------------|

   I've got a bike  You can ride it if you like

     C                                               G
e|---8-----------------------------------------------3-----------|
B|---8-----------------------------------------------3-----------|
G|---9-----------------------------------------------4-----------|
D|---10----------------------------------------------5-----------|
A|---10----------------------------------------------5-----------|
E|---8-----------------------------------------------3-----------|


  It's got a basket, a bell that rings and things to make it look good.

      D                                              G
e|---10----------------------------------------------3-----------|
B|---10----------------------------------------------3-----------|
G|---11----------------------------------------------4-----------|
D|---12----------------------------------------------5-----------|
A|---12----------------------------------------------5-----------|
E|---10----------------------------------------------3-----------|


  I'd give it to you if I could,    but I borrowed it.

Chorus

Let D Chord Ring

e|---10----------------------------------------------------------|
B|---10----------------------------------------------------------|
G|---11----------------------------------------------------------|
D|---12----------------------------------------------------------|
A|---12----------------------------------------------------------|
E|---10----------------------------------------------------------|

You're the kind of girl that fits in with my world.


I'll give you anything, everything if want things.

Verse 2

e|---3-----------------------8--------------------------|
B|---3-----------------------8--------------------------|
G|---4-----------------------9--------------------------|
D|---5----------------------10--------------------------|
A|---5----------------------10--------------------------|
E|---3-----------------------8--------------------------|

  I've got a cloak. It's a bit of a joke.

     C                                               G
e|---8-----------------------------------------------3-----------|
B|---8-----------------------------------------------3-----------|
G|---9-----------------------------------------------4-----------|
D|---10----------------------------------------------5-----------|
A|---10----------------------------------------------5-----------|
E|---8-----------------------------------------------3-----------|


 There's a tear up the front. It's red and black. I've had it for months.


      D                                              G
e|---10----------------------------------------------3-----------|
B|---10----------------------------------------------3-----------|
G|---11----------------------------------------------4-----------|
D|---12----------------------------------------------5-----------|
A|---12----------------------------------------------5-----------|
E|---10----------------------------------------------3-----------|


  If you think it could look good, then I guess it should.



Let D Chord Ring

e|---10----------------------------------------------------------|
B|---10----------------------------------------------------------|
G|---11----------------------------------------------------------|
D|---12----------------------------------------------------------|
A|---12----------------------------------------------------------|
E|---10----------------------------------------------------------|

You're the kind of girl that fits in with my world.


I'll give you anything, everything if want things.

Verse 3

    G                      C

e|---3-----------------------8--------------------------|
B|---3-----------------------8--------------------------|
G|---4-----------------------9--------------------------|
D|---5----------------------10--------------------------|
A|---5----------------------10--------------------------|
E|---3-----------------------8--------------------------|

  I know a mouse, and he hasn't got a house.

     C                                               G
e|---8-----------------------------------------------3-----------|
B|---8-----------------------------------------------3-----------|
G|---9-----------------------------------------------4-----------|
D|---10----------------------------------------------5-----------|
A|---10----------------------------------------------5-----------|
E|---8-----------------------------------------------3-----------|


    I don't know why.    I   call   him        Gerald.

      D                                              G
e|---10----------------------------------------------3-----------|
B|---10----------------------------------------------3-----------|
G|---11----------------------------------------------4-----------|
D|---12----------------------------------------------5-----------|
A|---12----------------------------------------------5-----------|
E|---10----------------------------------------------3-----------|


     He's getting rather old, but he's a good   mouse.


Chorus

Let D Chord Ring

e|---10----------------------------------------------------------|
B|---10----------------------------------------------------------|
G|---11----------------------------------------------------------|
D|---12----------------------------------------------------------|
A|---12----------------------------------------------------------|
E|---10----------------------------------------------------------|

You're the kind of girl that fits in with my world.


I'll give you anything, everything if want things.

Verse 4

    G                      C

e|---3-----------------------8--------------------------|
B|---3-----------------------8--------------------------|
G|---4-----------------------9--------------------------|
D|---5----------------------10--------------------------|
A|---5----------------------10--------------------------|
E|---3-----------------------8--------------------------|
   
     I've got a clan of gingerbread men.

     C                                               G
e|---8-----------------------------------------------3-----------|
B|---8-----------------------------------------------3-----------|
G|---9-----------------------------------------------4-----------|
D|---10----------------------------------------------5-----------|
A|---10----------------------------------------------5-----------|
E|---8-----------------------------------------------3-----------|


    Here a man, there a man,   lots of gingerbread men

      D                                              G
e|---10----------------------------------------------3-----------|
B|---10----------------------------------------------3-----------|
G|---11----------------------------------------------4-----------|
D|---12----------------------------------------------5-----------|
A|---12----------------------------------------------5-----------|
E|---10----------------------------------------------3-----------|


     Take a couple if you wish.    They're on the dish.



Chorus

Let D Chord Ring

e|---10----------------------------------------------------------|
B|---10----------------------------------------------------------|
G|---11----------------------------------------------------------|
D|---12----------------------------------------------------------|
A|---12----------------------------------------------------------|
E|---10----------------------------------------------------------|

You're the kind of girl that fits in with my world.


I'll give you anything, everything if want things.


Verse 5/outro
    G                      C

e|---3-----------------------8--------------------------|
B|---3-----------------------8--------------------------|
G|---4-----------------------9--------------------------|
D|---5----------------------10--------------------------|
A|---5----------------------10--------------------------|
E|---3-----------------------8--------------------------|
   
    I know a room of musical tunes

     C                                               G
e|---8-----------------------------------------------3-----------|
B|---8-----------------------------------------------3-----------|
G|---9-----------------------------------------------4-----------|
D|---10----------------------------------------------5-----------|
A|---10----------------------------------------------5-----------|
E|---8-----------------------------------------------3-----------|


    Some rhyme, some ching. Most of them are clockwork.

      D                                              G
e|---10----------------------------------------------3-----------|
B|---10----------------------------------------------3-----------|
G|---11----------------------------------------------4-----------|
D|---12----------------------------------------------5-----------|
A|---12----------------------------------------------5-----------|
E|---10----------------------------------------------3-----------|


     Let's go into the other room and make them work.


There.
comments
print report bad tab
7 comments total. Showing first comments. show 1 bad comment
+7 reply
who1973 wrote on January 17 2010, 04:24 pm

ARE YOU NUTS??? THIS IS ONE OF THEIR BEST, AND EVEN THE MOST UNINTELLIGENT PEOPLE WOULD ADMIT THIS ALBUM WOULD DESTROY AMLOR AND THE DIVISION BELL, NEITHER OF WHICH ARE "REAL" PINK FLOYD ALBUMS IN MY OPINION. AND THE LYRICS ARE CALLED EXPRESSION AND CREATIVITY, SOMETHING CLOSE MINDED IDIOTS LIKE YOU WOULDN'T HAVE HEARD OF!!! LEAVE SYD BARRETT ALONE!! WHEN YOU BECOME A MUSICAL GENIUS I'LL APOLOGIZE!

+4 reply
romencer17 wrote on January 17 2010, 09:01 pm

that was a little harsh, but you're right. Barrett was a genius.

I want to post or [tab]
guest
You may want to rate the tab now too:
select rating
Please do not post tabs as comments. Select "correction" instead!