Oops, an error
Loading. Please wait.

The Wall Tab

ver1
ver1

Album

Interactive

More versions @911Tabs.com
246,319 views 375 this week
13 commentsread comments
1 2 3 4 5
excellent!
x 28
add to favorites launch autoscroll
font size
0
reset
Autoscroll
+/-
esc
set tempo
stop
Contributor
WARNING: You are trying to view
                                    content from Ultimate-Guitar.com
                                    in an unauthorized application,
                                    which is prohibited.

                                    Please use an official Ultimate
                                    Guitar Tabs application for iPhone,
                                    iPad or Android to access legitimate
                                    chords, guitar, bass, and drum tabs
                                    from Ultimate-Guitar.com database.

                                    Type "ultimate guitar tabs" in Apple
                                    App Store's or Android Market's
                                    search to find the application.
I found a pretty nifty site complete with tabs and chords from every Pink Floyd
album.. Here: http://www.guitarnoise.com/pink_floyd/
Most of the tabs here are from that site, but a couple are from other sources.
If you want to fast forward to a song, Press Ctrl+F and type in the song you want
to go to, and hit enter. Make sure you don't miss some treats in this transcription;
it has things like the tablature (what is actually played in the song) to Vera, which
I haven't been able to find before going to the website listed above. The following
goes for every tab here, and I'm just getting it out of the way so you'll never have
to see it again:

----------------------------------PLEASE NOTE------------------------------
This file is the author's own work and represents their interpretation of
the song. You may only use this file for private study, scholarship, or
research.
---------------------------------------------------------------------------

Enjoy!

----------In The Flesh?----------


TAB by:  Jacob Sudol (sudol@azstarnet.com)


IN THE FLESH ?
Pink Floyd
(Waters)

INTRO:
e-|-------------------|-----------------------------|--------------0-----|
B-|-------------------|-----------------------------|-8----\--3----0-----|
G-|-------------------|-----------------------------|-7----\--2----------|
D-|-------------------|-----------------------------|--------------------|
A-|-------------------|---------0-------2---3vvvvv--|--------------------|
E-|--0--------2vvvvv--|-3vvvvv----------------------|--------------------|

|---------0------------0-----------------------------------------------|
|------------3------------3--------------------------------------------|
|-2>(4)-0------2>(4)-0------2>(4)--2-0---------------------------------|
|--------------------------------------2-0-----------------------------|
|------------------------------------------2-1-0---------2vvvvvvv------|
|------------------------------------------------3>(4)p0---------------|

|-2vvvvv---4vvvvv---5vvvvv---4vvvvv-|-2vvvvv---4vvvvv---5vvvvv---7vvvvv-|
|-3vvvvv---5vvvvv---6vvvvv---5vvvvv-|-3vvvvv---5vvvvv---6vvvvv---8vvvvv-|
|-2vvvvv---4vvvvv---5vvvvv---4vvvvv-|-2vvvvv---4vvvvv---5vvvvv---7vvvvv-|
|-0vvvvv---0vvvvv---0vvvvv---0vvvvv-|-0vvvvv---0vvvvv---0vvvvv---0vvvvv-|
|-----------------------------------|-----------------------------------|
|-----------------------------------|-----------------------------------|

%
|-------------------------|-----------------------------|
|-------------------------|-----------------------------|
|-(2)---------------------|----x------------------------|
|-(2)---------------------|----x-x----------------------|
|--0---2>(4)-2vvvvv--0----|----x-x--4>(5)-4vvvvv-2vvvvv-|
|-----------------------2>|(4)---x----------------------|

|-------------------------|-----------------------------|
|-------------------------|-----------------------------|
|-------------------------|-----------------------------|
|--2----------------------|-----------------------------|
|--0---2>(4)-2vvvvv--0----|----x-x--4>(5)-4vvvvv-2vvvvv-|
|-----------------------2>|(4)-x-x----------------------|

|-------------------------|-----------------------------|
|-------------------------|-----------------------------|
|--2----------------------|----x------------------------|
|--2----------------------|----x------------------------|
|--0---2>(4)-2vvvvv--0--1-|-2v---x--4>(5)-4vvvvv-2---3--|
|-------------------------|-----------------------------|

                               %
|------------------------------|
|------------------------------|
|--------x---------------------|
|--------x---------------------|
|--4vvvv---5>(7)-5vvvvv-4------|
|-------------------------12\--|

'So ya, thought ya, might like to go to the show....'

then repeat the measures between the percent signs in the intro, and end
with:

|------------------|--/--|-----|
|------------------|--/--|-----|
|------------------|--2--|--2--|
|--2---2-2-2-2-2-2-|--2--|--2--|
|--2---2-2-2-2-2-2-|--0--|--0--|
|--0---0-0-0-0-0-0-|-----|-----|

----------The Thin Ice----------

Transcription by:  ?

THE THIN ICE
Pink Floyd
(Waters)

INTRO:(with baby crying)
C           Am7           Fmaj9       G
C     G     F     C/G     Am7

VERSE:
C               Am
Mamma loves her baby
F               G
and daddy loves you too
C                    Am
and the sea may look warm to you babe
F                    G
and the sky may look blue

C  G  F  C/G  Am
Ooooooooooooh babe
C  G  F  C/G  Am    Am7  Am6
Oooooooh baby blue
C  G  F  C  Am  D7  G
Ooooooooooh ooooooh babe

C                Am
If you should go skating
       F                        G
On the thin ice of modern life
C                       Am
Dragging behind you the silent reproach
     Fmaj7                 G
Of a million  tear stained eyes
C                         Am
Dont be surprised, when a crack in the ice
F                  G
Appears under your feet
         C                     Am
You slip out of your depth and out of your mind
          F                        G
With your fear flowing out  behind you
N.C.
As you claw the thin ice

SOLO:
   Gtr. 1
e-|-----------------------------------------------------------------|
B-|-----------------------------------------------------------------|
G-|-7B(9)---R---(7)-7~~~~~~~~~~~~~~~7B(10)--R---(7)-7B(9)-----------|
D-|-----------------------------------------------------------------|
A-|-----------------------------------------------------------------|
E-|-----------------------------------------------------------------|
  | Gtr. 2
e-|-----------------------------------------------------------------|
B-|-----------------------------------------------------------------|
G-|-9---------------7---------X-X-X-10--------------9---------------|
D-|-9---------------7---------X-X-X-10--------------9---------------|
A-|-7---------------5---------X-X-X-8---------------7---------------|
E-|----------------------------------------------------------X-12\--|

                                                              w/bar
|-----------------5---5----------------------------------------------|
|---------------5---8------------------------------------------------|
|----------7B(9)--------7-7B(8)R(7)P5---5----------------------------|
|-------------------------------------7---7-6-5----------------------|
|-----------------------------------------------7-6-5-3---3--\(0)/-\-|
|-------------------------------------------------------5------------|
|                                                         *   w/bar
|--------------------------------------------------------------------|
|--------------------------------------------------------------------|
|-2------------------------------------------------------------------|
|-2------------------------------------------------------------------|
|-0------------------------------------------------------------------|
|--------------------------------------------------------(-12)/----0-|
| *depress bar equivalent to 12 frets down, strike note & slowly release

|-----------------------------------------------------------------|
|-----------------------------------------------------------------|
|-----------------7---7---------------------------9---9-----------|
|-----------------7---7---------------------------9---9-----------|
|-7~~~~~~~~~~~~~~~5---5-----------8~~~~~~~~~~~~~~~7---7-----------|
|------------------------------------------------------------12\--|
|
|-----------------------------------------------------------------|
|-----------------------------------------------------------------|
|-9---------------7---------------10--------------9---9-----9-9\--|
|-9---------------7---------------10--------------9---9-----9-9\--|
|-7---------------5---------------8---------------7---7-----7-7\--|
|-----------------------------------------------------------------|

|----------------17------------------17------17------17------------17---|
|-------------17----20-17-20-20B(22)~--20B(22)-20B(22)-20B(22)-20B(22)~~|
|-2----19B(21)----------------------------------------------------------|
|-2---------------------------------------------------------------------|
|-0---------------------------------------------------------------------|
|-----------------------------------------------------------------------|
|
|-----------------------------------------------------------------------|
|-----------------------------------------------------------------------|
|-2---------------------------2------2----------------------------------|
|-2---------------------------2------2----------------------------------|
|-0---------------------------0------0----------------------------------|
|--------------------------------3B(5)----------------------------------|

|---------------------------------------------------------------------|
|-15B(17)--R--(15)-15~~~~~~~~~~~~~~~15B(18)--R--(15)--15B(17)~~~~~~~~~|
|---------------------------------------------------------------------|
|---------------------------------------------------------------------|
|---------------------------------------------------------------------|
|---------------------------------------------------------------------|
|
|---------------------------------------------------------------------|
|---------------------------------------------------------------------|
|-9----------------7----------------10----------------9---------------|
|-9----------------7----------------10----------------9---------------|
|-7----------------5----------------8-----------------7---------------|
|---------------------------------------------------------------------|

                            rake-]
|--------------------------------15-17B(19)-----------------------------|
|-15B(17)--R--(15)-15~~~~~~~~--15---------------------------------------|
|----------------------------16-----------------------------------------|
|-----------------------------------------------------------------------|
|-----------------------------------------------------------------------|
|-----------------------------------------------------------------------|
|
|-----------------------------------------------------------------------|
|-----------------------------------------------------------------------|
|-9----------------10---------------12----------------------------------|
|-9----------------10---------------12----------------------------------|
|-7----------------8----------------10----------------------------------|
|-----------------------------------------------------------------------|

                                  fade out
|-----------------------------------------------------------------||
|-17--------------------------------------------------------------||
|-17--------------------------------------------------------------||
|-17--------------------------------------------------------------||
|-15--------------------------------------------------------------||
|-----------------------------------------------------------------||
|
|-----------------------------------------------------------------||
|-----------------------------------------------------------------||
|-----------------------------------------------------------------||
|-10--------------------------------------------------------------||
|-10--------------------------------------------------------------||
|-8---------------------------------------------------------------||

----------Another Brick In The Wall, Pt. 1----------

Transcription by:  ?


ANOTHER BRICK IN THE WALL PART ONE
Pink Floyd
(Waters)

INTRO:(fade in)
  gtr. 1* (w/chorus & delay) P.M. throughout
 Rhy. Fig. 1---------------------] w/Rhy. Fig. 1----------------------|
|---------------------------------|-----------------------------------|
|---------------------------------|-----------------------------------|
|---------------------------------|-----------------------------------|
|---------------------------------|-----------------------------------|
|-5'''''''''''''''''''''''''''''''|-----------------------------------|
|---------------------------------|-----------------------------------|
 *two guitars arranged for one

                                   Fill 1-----------------------------|
|---------------------------------|-----------------------------------|
|---------------------------------|-----------------------------------|
|---------------------------------|-----------------------------------|
|---------------------------------|-------------------------3---5P3---|
|-3H5-X-3H5'''''''''''''''''''''''|-5'''''''''''''''''''''''--5-------|
|---------------------------------|-----------------------------------|


 w/Rhy. Fig. 1                     Fill 2-----------------------------|
|---------------------------------|-----------------------------------|
|---------------------------------|-----------------------------------|
|---------------------------------|-----------------------------------|
|---------------------------------|-----------------------------------|
|---------------------------------|-5'''''''''''''''''''''''''''3P0---|
|---------------------------------|-----------------------------------|


 w/Rhy. Fig. 1                     w/Fill 1
|---------------------------------|---------------------------------|
|---------------------------------|---------------------------------|

  gtr. 2 (w/chorus & delay)
 w/Rhy. Fig. 1 (3x)
|---------------------------------|----------------------------7\(5)|
|---------------------------------|---------------------------------|
|---------------------------------|------------------------5/(7)\(5)|
|---------------------------------|---------------------------------|
|---------------------------------|---------------------------------|
|---------------------------------|---------------------------------|
  Dad  -  dy's flown                'cross  the o   -   cean

  gtr. 3 (w/chorus & delay)        w/Fill 2
|---------------------------------|---------------------------------|
|-5-------------------------------|-5-------------------------------|
|-5-------------------------------|-4-------------------------------|
|-3-------------------------------|-3-------------------------------|
|---------------------------------|---------------------------------|
|---------------------------------|---------------------------------|

  gtr. 3
 w/Rhy. Fig. 1 (3x)		    gtr. 2
|---------------------------------|---------------------------------|
|-5-------------------------------|---------------------------------|
|-5-------------------------------|---------------------------7/----|
|-3-------------------------------|---------------------------------|
|---------------------------------|---------------------------------|
|---------------------------------|---------------------------------|
  Leav  -  ing just   a             mem  -  o - ry
                                    gtr. 1
                                   Fill 3-----------------------------|
|---------------------------------|-----------------------------------|
|-13B(15)-------------------------|-----------------------------------|
|---------------------------------|-----------------------------------|
|---------------------------------|-----------------------------3P0---|
|---------------------------------|-5'''''''''''''''''''''''''''------|
|---------------------------------|-----------------------------------|
                                                                A
  gtr. 2
 w/Rhy. Fig. 1 (3x)
|---------------------------------|---------------------------------|
|---------------------------------|---------------------------------|
|---------------------------------|----------------------(5)/(7)\(5)|
|---------------------------------|----------------------(5)/(7)\(5)|
|---------------------------------|---------------------------------|
|---------------------------------|---------------------------------|
  snap  -  shot   in  the           fam  -  'ly al   -   bum

 w/wind                            w/Fill 1
|---------------------------------|---------------------------------|
|---------------------------------|---------------------------------|

  gtr. 1
 w/Rhy. Fig. 1
|---------------------------------|---------------------------------|
|---------------------------------|---------------------------------|
|---------------------------------|---------------------------------|
|---------------------------------|---------------------------------|
|---------------------------------|-5'''''''''''''''''''''''''''----|
|---------------------------------|-----------------------------1-1-|
|
| gtr. 4* (w/dist. & chorus)
|---------------------------------|---------------------------------|
|---------------------------------|---------------------------------|
|---------------------------------|---------------------------------|
|---------------------------------|----------------------------3/(5)|
|---------------------------------|----------------------------3/(5)|
|---------------------------------|----------------------------3/(5)|
| *gtr. 4 w/drop D tuning
  Dad-dy          what else         did     you leave       for me

 Rhy. Fig. 2----------------------------------------------------------| w/Rhy. Fig. 2 (3x)
|---------------------------------|-----------------------------------|
|---------------------------------|-----------------------------------|
|---------------------------------|-----------------------------------|
|---------------------------------|-----------------------------------|
|---------------------------------|-----------------------------------|
|-3'''''''''''''''''''''''''''''''|-----------------------------------|
|
|                                  w/bar
|---------------------------------|---------------------------10-10-|
|---------------------------------|-----------------------X---8--8--|
|---------------------------------|~~~~~~~~~~~~~~~~~~~~~~~X---7--7--|
|-5-------------------------------|~~~~~~~~~~~~~~~~~~~~~~~----------|
|-5-------------------------------|~~~~~~~~~~~~~~~~~~~~~~~----------|
|-5-------------------------------|~~~~~~~~~~~~~~~~~~~~~~~----------|

  gtr. 4          w/bar
|-10--------------~~~~~~~~~~~~~~~~|~~~~~~~~~~~~~~~~~~~~~~~~~~~~~~~~~|
|-8---------------~~~~~~~~~~~~~~~~|~~~~~~~~~~~~~~~~~~~~~~~~~~~~~~~~~|
|-7---------------~~~~~~~~~~~~~~~~|~~~~~~~~~~~~~~~~~~~~~~~~~~~~~~~~~|
|---------------------------------|---------------------------------|
|---------------------------------|---------------------------------|
|---------------------------------|---------------------------------|
|-3-------------------------------|-3-------------------------------|
                                    Dad   what d'ya leave behind for
  gtr. 2
 w/Rhy. Fig. 1 (2x)
|---------------------------------|---------------------------------|
|---------------------------------|---------------------------------|
|---------------------------------|-7-------------------------------|
|---------------------------5-7-7-|-------------------------5/------|
|-5'''''''''''''''''''''''''------|-----------------------------5\--|
|---------------------------------|---------------------------------|
  me

  gtr. 1
|---------------------------------|---------------------------------|
|---------------------------------|---------------------------------|
|-2-------------------------------|---------------------------------|
|-3-3'''''''''''''0'''''''''''''''|-5''''''''''''''''''''''''''5/(7)|
|---------------------------------|-3''''''''''''''''''''''''''3/(5)|
|---------------------------------|---------------------------------|
|
| gtr. 2
|---------------------------------|---------------------------------|
|---------------------------------|---------------------------------|
|---------------------------------|---------------------------------|
|-3-----------------------3---3---|-5'''''''''''''''''''''''''''''''|
|-3-----------------------3---3---|-3'''''''''''''''''''''''''''''''|
|-1-----------------------1---1---|---------------------------------|
                          PM--]
          All in all  it was                just a  brick in    the

  Rhy. Fig. 3--------------------] w/Rhy. Fig. 3----------------------|
|---------------------------------|-----------------------------------|
|---------------------------------|-----------------------------------|
|---------------------------------|-----------------------------------|
|-7'''''''''''''''''''''''''''''''|-----------------------------------|
|-5'''''''''''''''''''''''''''''''|-----------------------------------|
|---------------------------------|-----------------------------------|
|
|---------------------------------|---------------------------------|
|---------------------------------|---------------------------------|
|---------------------------------|---------------------------------|
|-7'''''''''''''''''''''''''''''''|-7'''''''''''''''''''''''''''----|
|-5'''''''''''''''''''''''''''''''|-5'''''''''''''''''''''''''''5\--|
|---------------------------------|-----------------------------5\--|
  wall

|---------------------------------|---------------------------------|
|---------------------------------|---------------------------------|
|-2'''''''''''''''''''''''''''''''|---------------------------------|
|-3'''''''''''''''''''''''''''''''|-5'''''''''''''''''''''''''''''''|
|---------------------------------|-3'''''''''''''''''''''''''''''''|
|---------------------------------|---------------------------------|
|
|---------------------------------|---------------------------------|
|---------------------------------|-------1-------------------------|
|---------------------------------|-0-----0-----0-------------5-6-7-|
|-3-----------------------3---3---|-2-----2-----2-------5-6-7-------|
|-3-----------------------3---3---|-3-----------3-------------------|
|-1-----------------------1---1---|---------------------------------|
                          PM--]
          All in all  it was        all   just  bricks  in    the
  gtr. 2
 w/Rhy. Fig. 1 (2x)
|---------------------------------|---------------------------------|
|---------------------------------|---------------------------------|
|-----------5---------------------|---------------------------------|
|---------7---5-7---5-7-----------|-----------------------------5B--|
|-----------------8-----8B5---3-5-|---5-3-4-5-3-4-5---------------5-|
|---------------------------------|---------------------------------|
  wall
  gtr. 4
 w/Rhy. Fig. 3 (3x)                 gtr. 2
|---------------------------------|---------------------------------|
|---------------------------------|----------------------10--12\(10)|
|---------------------------------|----------------------10--12\(10)|
|---------------------------------|--------------------------12\(10)|
|---------------------------------|---------------------------------|
|-0-------------------------------|---------------------------------|

  gtr. 1				      w/vocal sounds
|---------------------------------|---------------------------------|
|---------------------------------|---------------------------------|
|---------------------------------|---------------------------------|
|---------------------------------|-7'''''''''''''''''''''''--------|
|---------------------------------|-5'''''''''''''''''''''''5---3BP0|
|---------------------------------|---------------------------------|
|
| gtr. 3
|------13--15\(13)----------------|---------------------------------|
|------15--17\(15)----------------|---------------------------------|
|---------------------------------|------5--(5)/(7)\(5)-------------|
|---------------------------------|------5--(5)/(7)\(5)-------------|
|---------------------------------|-------------------------5---3H5-|
|---------------------------------|---------------------------------|
|
| gtr. 2
|---------------------------------|---------------------------------|
|---------------------------------|---------------------------------|
|----------------------10--12\(10)|---------------------------------|
|----------------------10--12\(10)|---------------------------------|
|---------------------------------|-------------------------5---3H5-|
|---------------------------------|---------------------------------|

  gtrs. 2 & 3
 w/Rhy. Fig. 1 (3x)
|---------------------------------|---------------------------------|
|---------------------------------|---------------------------------|
|---------------------------------|---------------------------------|
|---------------------------------|------------------------7\(5)3---|
|---------------------------------|----------------------5----------|
|---------------------------------|---------------------------------|

  gtr. 1
|---------------------------------|---------------------------------|
|---------------------------------|---------------------------------|
|---------------------------------|---------------------------------|
|---------------------------------|---------------------------------|
|---------------------------------|-5'''''''''''''''''''''''''--3P0-|
|---------------------------------|---------------------------5-----|
|
| gtr. 2
|---------------------------------|---------------------------------|
|---------------------------------|----------------------10--12\(10)|
|---------------------------------|----------------------10--12\(10)|
|---------------------------------|----------------------10--12\(10)|
|---------------------------------|---------------------------------|
|---------------------------------|---------------------------------|

  gtr. 1                                w/Rhy. Fig. 1 (4x)
|--------------------------------------|--------------------------------|
|--------------------------------------|--------------------------------|
|--------------------------------------|--------------------------------|
|--------------------------------------|--------------------------------|
|-5-3P0-5''''''''''''''''''''''''''''''|--------------------------------|
|--------------------------------------|--------------------------------|
|
| gtr. 3
|--------13--(13)/(15)\(13)------------|--------------------------------|
|--------15--(15)/(17)\(15)------------|--------------------------------|
|--------------------------------------|-----5--(5)/(7)\(5)----5---6\(5)|
|--------------------------------------|-----7--(7)/(9)\(7)----5---6\(5)|
|--------------------------------------|--------------------------------|
|--------------------------------------|--------------------------------|
|
| gtr. 2
|--------------------------------------|--------------------------------|
|--------------------------------------|--------------------------------|
|---------------------------10--12\(10)|-----------------------5---6\(5)|
|---------------------------12--14\(12)|-----------------------5---6\(5)|
|--------------------------------------|--------------------------------|
|--------------------------------------|--------------------------------|

  gtrs. 2 & 3
|---------------------------------|---------------------------------|
|---------------------------------|---------------------------------|
|---------------------------------|------------------------3---4\(3)|
|---------------------------------|------------------------3---4\(3)|
|---------------------------------|---------------------------------|
|---------------------------------|---------------------------------|

  gtr. 1
|---------------------------------|---------------------------------|
|---------------------------------|---------------------------------|
|---------------------------------|---------------------------------|
|---------------------------------|---------------------------------|
|---------------------------------|-5'''''''''''''''''''3'''''''''''|
|---------------------------------|---------------------------------|
|
| gtrs. 2 & 3
|---------------------------------|---------------------------------|
|---------------------------------|---------------------------------|
|---------------------------------|---------------------------------|
|---------------------------------|---------------------------------|
|---------------------------------|---------------------3'''''''''''|
|---------------------------------|---------------------------------|
                                    "One,   two,   three"

  gtr. 1                           w/Rhy. Fig. 1 (2x)
|---------------------------------|---------------------------------|
|---------------------------------|---------------------------------|
|---------------------------------|---------------------------------|
|---------------------------------|---------------------------------|
|-3H5-5'''''''''''''''''''''''''''|---------------------------------|
|---------------------------------|---------------------------------|
|
| gtrs. 2 & 3                                           *
|---------------------------------|---------------------------------|
|---------------------------------|-----------------------------5-6-|
|---------------------------------|---------------------5---7-5-5-7-|
|---------------------------------|---------------------5---7-5-----|
|-/3H5----------------------------|---------------------------------|
|---------------------------------|---------------------------------|
  *gtr. 2 plays higher note, gtr. 3 plays lower note
  [whistle]		       "Hey!"

 fade in schoolyard sounds
|---------------------------------|---------------------------------|
|---------------------------------|---------------------------------|
|---------------------------------|---------------------------------|
|---------------------------------|---------------------------------|
|---------------------------------|-5'''''''''''''''''''------------|
|---------------------------------|---------------------5-------5-5-|
|
|-----5---------------------------|-------------------------5P3-----|
|-----6B--------------------------|---------------------(5)H6P5-7~~~|
|---------------------------------|-----------------------------7\--|
|---------------------------------|---------------------------------|
|---------------------------------|---------------------------------|
|---------------------------------|---------------------------------|

 w/Rhy. Fig. 1
|---------------------------------|---------------------------------|
|---------------------------------|---------------------------------|
|---------------------------------|---------------------------------|
|---------------------------------|---------------------------------|
|---------------------------------|-5'''''''''''''''''''''''5---3P0-|
|---------------------------------|---------------------------5-----|
|
|---------------------------------|---------------------------------|
|---------------------------------|-----------------------------5-6-|
|---------------------------------|---------------------5---7---5-7~|
|---------------------------------|---------------------5---7-------|
|---------------------------------|---------------------------------|
|---------------------------------|---------------------------------|

 w/Rhy. Fig. 1                     Fill 4-----------------------------|
|---------------------------------|-----------------------------------|
|---------------------------------|-----------------------------------|
|---------------------------------|-----------------------------------|
|---------------------------------|-----------------------------3BP0--|
|---------------------------------|-5'''''''''''''''''''''''''''------|
|---------------------------------|-----------------------------------|
|
|-----5---------------------------|----------------------7B(8)--7P5-|
|-----6B--------------------------|----------------------8B(10)-8P6-|
|~~~~~----------------------------|---------------------------------|
|---------------------------------|---------------------------------|
|---------------------------------|---------------------------------|
|---------------------------------|---------------------------------|

  gtrs. 2 & 3
 w/Rhy. Fig. 1                     w/Fill 2
|~~~~~~~~~~~~~~~~~~~~~~~~~~~~~~~~~|~~~~~~~~~~~~~~~~~----------------|
|~~~~~~~~~~~~~~~~~~~~~~~~~~~~~~~~~|~~~~~~~~~~~~~~~~~------------5-6~|
|---------------------------------|---------------------5---7---5-7~|
|---------------------------------|---------------------5---7-------|
|---------------------------------|---------------------------------|
|---------------------------------|---------------------------------|

 w/Rhy. Fig. 1                     w/Fill 1
|~~~~~5---------------------------|--------------------10B(12)-10P8-|
|~~~~~6---------------------------|--------------------12B(13)-12P10|
|---------------------------------|---------------------------------|
|---------------------------------|---------------------------------|
|---------------------------------|---------------------------------|
|---------------------------------|---------------------------------|
|
|---------------------------------|---------------------------------|
|---------------------------------|---------------------------------|
|-5-----------3---5-----------3---|-5-----------3---5-----------3---|
|---------------------------------|---------------------------------|

 w/Rhy. Fig. 1                     w/Fill 4
|~~~~~~~~~~~~~~~~~~~~~~~~~~~~~~~~~|~~~~~~~~~~~~~~~------------------|
|~~~~~~~~~~~~~~~~~~~~~~~~~~~~~~~~~|~~~~~~~~~~~~~~~------------12-13-|
|---------------------------------|-----------------12--14-12-12-14-|
|---------------------------------|-----------------14--15----------|
|---------------------------------|---------------------------------|
|---------------------------------|---------------------------------|

  gtr. 1
 w/Rhy. Fig. 1
|---------------------------------|---------------------------------|
|---------------------------------|---------------------------------|
|---------------------------------|---------------------------------|
|---------------------------------|---------------------------------|
|---------------------------------|-5'''''''''''''''''''3-5-5---3P0-|
|---------------------------------|---------------------------------|
|
| gtrs. 2 & 3
|-----12--------------------------|-------------------------12-B(13)|
|-----13--------------------------|-------------------------13-B(15)|
|---------------------------------|---------------------------------|
|---------------------------------|---------------------------------|
|---------------------------------|---------------------------------|
|---------------------------------|---------------------------------|

 w/Rhy. Fig. 1
|---------------------------------|---------------------------------|
|---------------------------------|---------------------------------|
|---------------------------------|---------------------------------|
|---------------------------------|-----------------------------3P0-|
|---------------------------------|-5---3-5-5---3-5-5---3-5-5---3P0-|
|---------------------------------|---------------------------------|
|
|-(13)----------------~~~~~~~~~~~~|~~~~~~~~~~~~~~~~~~~~~~~~~--------|
|-(15)----------------~~~~~~~~~~~~|~~~~~~~~~~~~~~~~~~~~~~~~~--------|
|---------------------------------|---------------------------------|
|---------------------------------|---------------------------------|
|---------------------------------|---------------------------------|
|---------------------------------|---------------------------------|

  gtr. 1
 w/Rhy. Fig. 1
|---------------------------------|---------------------------------|
|---------------------------------|---------------------------------|
|---------------------------------|---------------------------------|
|---------------------------------|-------------------------3B--5-3B|
|---------------------------------|-5''''''''''''3-5-5---3B5--5-----|
|---------------------------------|---------------------------------|
|
| gtr. 3
|---------------------------------|---------------------------------|
|---------------(15)R(13)(15)R(13)|(15)R(13)B(15)(15)--~~~~~~~~~~~~~|
|---------------------------------|---------------------------------|
|---------------------------------|---------------------------------|
|---------------------------------|---------------------------------|
|---------------------------------|---------------------------------|

 w/Rhy. Fig. 1
|---------------------------------|---------------------------------|
|---------------------------------|---------------------------------|
|---------------------------------|---------------------------------|
|---------------------------------|---------------------------------|
|---------------------------------|-5'''''''''''''''''''''''3---3B--|
|---------------------------------|---------------------------------|
|
|
|---------------------------------|---------------------------------|
|~~~~~~~~~~~~~~~~~----------------|--------------------------13B(15)|
|---------------------------------|---------------------------------|
|---------------------------------|---------------------------------|
|---------------------------------|---------------------------------|
|---------------------------------|---------------------------------|

 w/Rhy. Fig. 1
|---------------------------------|---------------------------------|
|---------------------------------|---------------------------------|
|---------------------------------|---------------------------------|
|---------------------------------|-----------------------------3P0-|
|---------------------------------|-5'''''''''''''''''''3H5---3-----|
|---------------------------------|---------------------------------|
|
|---------------------------------|---------------------------------|
|-13B(15)(15)~~~~~~~~~~~~~~~~~~~~~|~~~~~~~~~~~~~~~~~~~~~~~~~--------|
|---------------------------------|---------------------------------|
|---------------------------------|---------------------------------|
|---------------------------------|---------------------------------|
|---------------------------------|---------------------------------|

			      begin fade
|---------------------------------|---------------------------------|
|---------------------------------|---------------------------------|
|---------------------------------|---------------------------------|
|-0-------------------------------|----------------------------3B---|
|-0---0-3-5'''''''''''''''''''''''|''''''''''''''''''''3H5-5-5----5-|
|---------------------------------|---------------------------------|
|
|---------------------------------|---------------------------------|
|---------------------------------|-------------------13B(15)13B(15)|
|---------------------------------|---------------------------------|
|---------------------------------|---------------------------------|
|---------------------------------|---------------------------------|
|---------------------------------|---------------------------------|

  gtr. 1
 w/Rhy. Fig. 1
|---------------------------------|---------------------------------|
|---------------------------------|---------------------------------|
|---------------------------------|---------------------------------|
|---------------------------------|---------------------------------|
|---------------------------------|-5'''''''''''''''''''''''3-3-3---|
|---------------------------------|-------------------------------5-|

  gtr. 1      fade in helicopter
|---------------------------------|---------------------------------|
|---------------------------------|---------------------------------|
|---------------------------------|---------------------------------|
|---------------------------------|-----------------------------3B--|
|-3/(5)-5-3-5---3-5'''''''''''''''|-5---3-5-5-3-3-5-5-3-3-5-5-3---5-|
|---------------------------------|---------------------------------|
|
| gtr. 3
|---------------------------------|---------------------------------|
|---------------------------------|-----------------------13B(14)13B|
|---------------------------------|---------------------------------|
|---------------------------------|---------------------------------|
|---------------------------------|---------------------------------|
|---------------------------------|---------------------------------|

 w/Rhy. Fig. 1
|---------------------------------|---------------------------------|
|---------------------------------|---------------------------------|
|---------------------------------|---------------------------------|
|---------------------------------|-------------------------3---3P0-|
|---------------------------------|-5'''''''''''''''''''''''--5-----|
|---------------------------------|---------------------------------|
|
|---------------------------------|---------------------------------|
|(15)~~~~~~~~~~~~~~~~~~~~~~~~~~~~~|~~~~~~~~~~~~~~~~~----------------|
|---------------------------------|---------------------------------|
|---------------------------------|---------------------------------|
|---------------------------------|---------------------------------|
|---------------------------------|---------------------------------|

  gtr. 1			   w/Fill 2
|---------------------------------|---------------------------------|
|---------------------------------|---------------------------------|
|---------------------------------|---------------------------------|
|---------------------------------|---------------------------------|
|-5-3---5'''''''''''''''''''''''''|---------------------------------|
|-----5---------------------------|---------------------------------|

 w/Rhy. Fig. 1	fade out
|---------------------------------|             ------------|
|---------------------------------| "You! Yes, you!     ----|
|---------------------------------| Stand still, laddy!" ---|
|---------------------------------|             ------------|
|---------------------------------|             ------------|
|---------------------------------|             ------------|

----------The Happiest Days Of Our Lives----------

Transcription by:  ?

THE HAPPIEST DAYS OF OUR LIVES
Pink Floyd
(Waters)

  gtr. 1 (w/delay) PM throughout
|---------------------------------|---------------------------------|
|---------------------------------|---------------------------------|
|---------------------------------|---------------------------------|
|---------------------------------|---------------------------------|
|-5'''''''''''''''''''''''''''''''|'''''''''''''''''''''''''''''''''|
|---------------------------------|---------------------------------|

|---------------------------------|-----------------------------------|
|---------------------------------|-----------------------------------|
|---------------------------------|-----------------------------------|
|---------------------------------|-----------------------------------|
|'''''''''''''''''''''''''''''''''|'''''''''''3'''''''----------------|
|---------------------------------|-------------------6'''''''5---3'''|

|---------------------------------|---------------------------------|
|---------------------------------|---------------------------------|
|---------------------------------|---------------------------------|
|---------------------------------|---------------------------------|
|---------------------------------|---------------------------------|
|'''''''''''''''''''''''''''''''''|'''''''''''''''''''''''''''''''''|

|---------------------------------|---------------------------------|
|---------------------------------|---------------------------------|
|---------------------------------|---------------------------------|
|---------------------------------|---------------------------------|
|---------------------------------|---------------------------------|
|'''''''''''''''''''''''''''''''''|'''''''''''''''''''''''''''''''''|

|---------------------------------|---------------------------------||
|---------------------------------|---------------------------------||
|---------------------------------|---------------------------------||
|---------------------------------|---------------------------------||
|---------------------------------|---------------------------------||
|-3H5---5'''''''''''''''''''''''''|'''''''''''''''''''''''''''''''''||
							    When

|-------------------------------------------------|
|-------------------------------------------------|
|-------------------------------------------------|
|-------------------------------------------------|
|-------------------------------------------------|
|'''''''''''''''''''''''''''''''''''''''''''''''''|
  we    grew  up    and   went  to    school

|-------------------------------------------------|
|-------------------------------------------------|
|-------------------------------------------------|
|-------------------------------------------------|
|-------------------------------------------------|
|'''''''''''''''''''''''''''''''''''''''''''3-----|
  There were  cer - tain  teachers    who   would

|-------------------------------------------------|
|-------------------------------------------------|
|-------------------------------------------------|
|-------------------------------------------------|
|-------------------------------------------------|
|-------------------------3''''''''''''''''''''---|
|-5'''''''''''''''''''''''---------------------3--|
  Hurt  the children      an-y- way         they

|---------------------------------|---------------------------------|
|---------------------------------|---------------------------------|
|---------------------------------|---------------------------------|
|---------------------------------|---------------------------------|
|---------------------------------|---------------------------------|
|-5'''''''''''''''''''''''''''''''|'''''''''''''''''''''''''''''''''|
  could              "Oof!"  				        By

|---------------------------------|---------------------------------|
|---------------------------------|---------------------------------|
|---------------------------------|---------------------------------|
|---------------------------------|---------------------------------|
|---------------------------------|---------------------------------|
|'''''''''''''''''''''''''''''3---|-1'''''''''''''''''''''''''''3---|
  pouring their derision    Upon    anything    we  did         Ex-

|---------------------------------|---------------------------------|
|---------------------------------|---------------------------------|
|---------------------------------|---------------------------------|
|---------------------------------|---------------------------------|
|---------------------------------|---------------------------------|
|-5'''''''''''''''''''''''''''3---|-0'''''''''''''''''''''''''''3B--|
  pos-ing ev- 'ry weakness    How - ever  carefully hidden  by  the

|---------------------------------|---------------------------------|
|---------------------------------|---------------------------------|
|---------------------------------|---------------------------------|
|---------------------------------|---------------------------------|
|---------------------------------|---------------------------------|
|-5'''''''''''''''''''''''''''3-4-|-5'''''''''''''''''''''''''''3-4-|
  kids [laughing]

|---------------------------------|---------------------------------|
|---------------------------------|---------------------------------|
|---------------------------------|---------------------------------|
|---------------------------------|---------------------------------|
|---------------------------------|---------------------------------|
|-5'''''''''''''''''''''''''''3-4-|-5'''''''''''''''''''''''''''''''|
							But in  the

|-------------------------------------------------|
|-------------------------------------------------|
|-------------------------------------------------|
|-------------------------------------------------|
|-5'''''''''''''''''''''''''''''''''''''''''3-----|
|-------------------------------------------------|
  town  it was      well  known When  they  got

|-------------------------------------------------|
|-------------------------------------------------|
|-------------------------------------------------|
|-------------------------------------------------|
|-------------------------------------------------|
|-6'''''''''''''''''''''''''''''''''''''''''5-----|
  home  at night,   their fat   and   Psy - cho -

|-------------------------------------------------|
|-------------------------------------------------|
|-------------------------------------------------|
|-------------------------------------------------|
|-------------------------------------------------|
|-3'''''''''''''''''''''''''''''''''''''''''''''''|
  pathic   wives    would thrash them       Within

				     gtr. 2 (w/dist.)
|---------------------------------||-----------------|-----------------|
|---------------------------------||-----------------|-----------------|
|---------------------------------||-----------------|-3---------------|
|---------------------------------||-3---------------|-3---------------|
|-3'''''''''''''''''''''''''''''''||-3---------------|-1---------------|
|---------------------------------||-1---------------|-----------------|
  inches of their lives		     Ooh   ooh ooh     Ooh   ooh ooh

|-----------------|-----------------|-----------------|
|-----------------|-----------------|-----------------|
|-----------------|-3---------------|-----------------|
|-3---------------|-3---------------|-3---------------|
|-3---------------|-1---------------|-3---------------|
|-1---------------|-----------------|-1---------------|
  Ooh   ooh ooh     Ooh   ooh ooh     Ooh   ooh ooh

|-----------------|-----------------|-----------------||
|-----------------|-----------------|-----------------||
|-3---------------|-5---------------|-----------------||
|-3---------------|-5---------------|-----------------||
|-1---------------|-3---------------|-----------------||
|-----------------|-----------------|-----------------||
  Ooh   ooh ooh     Ooh		      [Scream]

----------Another Brick In The Wall, Pt. 2----------

Transcription by: Espwish@aol.com and Gareth J. Hill (HILLGJ@CARDIFF.AC.UK)
(aka BUJIN on IRC)

ANOTHER BRICK IN THE WALL(PART TWO)
Pink Floyd
(Waters)


LEGEND:
 h  =3D hammer-on
 p  =3D pull-off
 b  =3D bend
 r  =3D bend release
 /  =3D slide up/down
<5> =3D natural harmonic
[5] =3D artifical harmonic
 ~  =3D vibrato
 tr =3D trill


VERSE:
E|------------------------------5------5--5----x----5--5----5--5------|
B|------------------------------5p6----6--6----x----6--6----6--6------|
G|------------------------------5-7----7--7----x----7--7----7--7------|
D|--0--2--3--2----0--2--3--2----5-7----7--7----x----7--7----7--7------|
A|------------------------------5------5--5----x----5--5----5--5------|
E|------------------------------5------5--5----x----5--5----5--5------|

                                                       repeat 2x i think

E|--5------5--5----x----5--5----5--5----------------------------------|
B|--5p6----6--6----x----6--6----6--6----------------------------------|
G|--5-7----7--7----x----7--7----7--7----------------------------------|
D|--5-7----7--7----x----7--7----7--7----0--2--3--2----0--2h3----------|
A|--5------5--5----x----5--5----5--5----------------------------------|
E|--5------5--5----x----5--5----5--5----------------------------------|

E|------------------------------------------------------5------5--5----|
B|------------------------------------------------------5p6----6--6----|
G|------------------------------------------------------5-7----7--7----|
D|------------------------------------------------------5-7----7--7----|
A|------------------------------------------------------5------5--5----|
E|------------------------------------------------------5------5--5----|

E--x----5----5--------5------5--5----x----5----5----------------------|
B--x----6----6--------5p6----6--6----x----6----6----------------------|
G--x----7----7--------5-7----7--7----x----7----7----------------------|
D--x----7----7--------5-7----7--7----x----7----7----------------------|
A--x----5----5--------5------5--5----x----5----5----------------------|
E--x----5----5--------5------5--5----x----5----5----------------------|

PRE-CHORUS:
E|--------3------x--3--x--3----3--3--3--3--3----------3------x--3--x--|
B|--------3------x--3--x--3----3--3--3--3--3----------3------x--3--x--|
G|--------4------x--4--x--4----4--4--4--4--4----------4------x--4--x--|
D|--------5------x--5--x--5----5--5--5--5--5----------5------x--5--x--|
A|--------5------x--5--x--5----5--5--5--5--5----------5------x--5--x--|
E|--------3------x--3--x--3----3--3--3--3--3----------3------x--3--x--|

E|--3----3--3--3--3--3------------------5------5--5------10----9----10--|
B|--3----3--3--3--3--3------------------5p6----6--6------10----9----10--|
G|--4----4--4--4--4--4------------------5-7----7--7---------------------|
D|--5----5--5--5--5--5------------------5-7----7--7---------------------|
A|--5----5--5--5--5--5------------------5------5--5---------------------|
E|--3----3--3--3--3--3------------------5------5--5---------------------|

                                                CHORUS:
                                                               F
E----10----9--9----7--7--7----5--------------------------------1------|
B----10----9--9----8--8--8----6--------------------------------1------|
G--------------------------------------------------------------2------|
D--------------------------------------------------------------3------|
A--------------------------------------------------------------3------|
E--------------------------------------------------------------1------|

                         C      C      C      C
E|--1------1------1------3------3------3------3------------5------5--5--|
B|--1------1------1------5------5------5------5------------5p6----6--6--|
G|--2------2------2------5------5------5------5------------5-7----7--7--|
D|--3------3------3------5------5------5------5------------5-7----7--7--|
A|--3------3------3------3------3------3------3------------5------5--5--|
E|--1------1------1------3------3------3------3------------5------5--5--|

                                                                F
E----x----5----5----------5------5--5----x----5----5------------1------|
B----x----6----6----------5p6----6--6----x----6----6------------1------|
G----x----7----7----------5-7----7--7----x----7----7------------2------|
D----x----7----7----------5-7----7--7----x----7----7------------3------|
A----x----5----5----------5------5--5----x----5----5------------3------|
E----x----5----5----------5------5--5----x----5----5------------1------|

                         C      C      C      C
E|--1------1------1------3------3------3------3----------5------5--5--|
B|--1------1------1------5------5------5------5----------5p6----6--6--|
G|--2------2------2------5------5------5------5----------5-7----7--7--|
D|--3------3------3------5------5------5------5----------5-7----7--7--|
A|--3------3------3------3------3------3------3----------5------5--5--|
E|--1------1------1------3------3------3------3----------5------5--5--|

                                                repeat whole thing again
                                               before solo :
E----x----5--5----------5------5--5----x----5----5-----------------------|
B----x----6--6----------5p6----6--6----x----6----6------------13p10------|
G----x----7--7----------5-7----7--7----x----7----7-------------------12--|
D----x----7--7----------5-7----7--7----x----7----7-----------------------|
A----x----5--5----------5------5--5----x----5----5-----------------------|
E----x----5--5----------5------5--5----x----5----5-----------------------|

E|------------------------------10--------------------------------------|
B|--10--------------------------10--10----10------------13b15----r--13--|
G|------12b14----13--13b15------10--10----10----------------------------|
D|----------------------------------------------------------------------|
A|----------------------------------------------------------------------|
E|----------------------------------------------------------------------|

E|--------------------------------------------------------------------|
B|----13------12p10---------------------------------------------------|
G|---------------------12----12b14----------10\9----------9-----------|
D|--------------------------------------------------12-------10/12----|
A|--------------------------------------------------------------------|
E|--------------------------------------------------------------------|

E|----------------------------------------------------------------------|
B|------------10------10--------------10----10----------10----12----10--|
G|--12-----12p10------10--------------10----10----------10----12----10--|
D|------x-----------------12--12------------------12--------------------|
A|----------------------------------------------------------------------|
E|----------------------------------------------------------------------|

E|-------------------------13b15------13----13-------------------r----|
B|----------------------x-----------------------------13b15-----------|
G|-------------------x------------------------------------------------|
D|----------------x---------------------------------------------------|
A|--------------------------------------------------------------------|
E|--------------------------------------------------------------------|

E|-------------------------------------------------------------------10--|
B|------13b15------------13--------------------------------------10------|
G|-------------------------------------------------------12--------------|
D|-----------------------------------------------------------------------|
A|-----------------------------------------------------------------------|
E|-----------------------------------------------------------------------|

E|-----------------------------------------------------------x-----------|
B|--13p10----------------------------------------------------x-----------|
G|---------12----12b14----10----12p10--------10b12----------------12p10--|
D|-------------------------------------12-----------12----x-------12p10--|
A|-----------------------------------------------------------------------|
E|-----------------------------------------------------------------------|

E|---------------------------------------------------------------------|
B|---------------------------------------------------------------------|
G|---------------------------------------------------------------------|
D|---------------------------------------------------------------------|
A|----12p10----12p/10----8--------10p8----------------------------8----|
E|--------------------------------------10p8------10----10--10---------|

E|----------------------------------------------------------------------|
B|----------------------------------5h6p5-------------------------------|
G|--------------------------5--7-----------7----7p5-----5b7----------7--|
D|----------------------/7---------------------------7------------------|
A|----------------------------------------------------------------------|
E|--10p8----10----------------------------------------------------------|

E|---------------------------------------------------------------------|
B|----------6------b2------------13b15------------------------13b15----|
G|--x--7p5-------------------------------------------------------------|
D|---------------------------------------------------------------------|
A|---------------------------------------------------------------------|
E|---------------------------------------------------------------------|

E|----r---------------------------------15b17----------13p10----------|
B|-------------13b15------------13------------------------------------|
G|--------------------------------------------------------------------|
D|--------------------------------------------------------------------|
A|--------------------------------------------------------------------|
E|--------------------------------------------------------------------|

E|---------------13----12----15b17----r--b2--r--b2--r--------15b17----|
B|----/----15---------------------------------------------------------|
G|--------------------------------------------------------------------|
D|--------------------------------------------------------------------|
A|--------------------------------------------------------------------|
E|--------------------------------------------------------------------|

E|----------18b20------18b20--------------------20b22--------------20--|p
B|----15---------------------------------------------------------------|
G|---------------------------------------------------------------------|
D|---------------------------------------------------------------------|
A|---------------------------------------------------------------------|
E|---------------------------------------------------------------------|

E|--17----20p17-------------------------------------------------------|
B|--------------------------------------------------------------------|
G|---------------------10--------------10--------10----b--------------|
D|----------------------------------------------------------12--------|
A|--------------------------------------------------------------------|
E|--------------------------------------------------------------------|

E|-----------------------------------------------------------------------|
B|---------------------10----10--x--x------------------------------------|
G|----------x----------10----10--x--x--------------x----------------10/h-|
D|----------x----12----------------------12--------x----10----10----12/h-|
A|-----------------------------------------------------------------------|
E|-----------------------------------------------------------------------|

E|--------------------------------------------------------------------|
B|--------13------12--------12----------\--10-------------------------|
G|--12----12------12--------12----------\--10--------------x----------|
D|--14----14-----------------------------------------------x----12----|
A|--------------------------------------------------------------------|
E|--------------------------------------------------------------------|

E|--------------------------------------------------------------------|
B|--10--10--x--x------------------x------x--x-------------------------|
G|--10--10--x--x------------------x------x--x-------------------------|
D|--------------------12----------------------------------------------|
A|-----------------------------------------------10----8p10--10----x--|
E|--------------------------------------------------------------------|

E|-----------|
B|-----------|
G|-----------|
D|-----------|
A|----8------|
E|-------10--|

- -

Below is the fill between the lines:
"Hey Teacher, leave them kids alone" and "All in all..." in Another Brick
in the Wall pt 2. This is how DG plays it on the 1994 Earls Court video:

Hey Teacher, leave them kids alone
                                                    F
E:--10---8---10-----10-10---8---8---7-7-7---5-------1--------------|
B:--10---8---10-----10-10---8---8---8-8-8---6-------1--------------|
G:--10---9---10-----10-10---9---9---7-7-7---5-------2--------------|
D:--------------------------------------------------3--------------|
A:--------------------------------------------------3--------------|
E:--------------------------------------------------1--------------|

                     C                    Dm
All in all it's just another brick in the wall

----------Mother-----------

Transcription by: Daniele Rongione

MOTHER
Pink Floyd
(Waters)

G                                       C       D G
Mother do you think they'll drop the bomb?
G                                        C      D G
Mother do you think they'll like this song?
C                                               G
Mother  do you think they'll try to break my balls?

D         C                                   G
Ohhhh..   Ahhhh.. Mother should I build the wall?

G                               C               D G
Mother should I run for president?
G                                   C           D G
Mother should I trust the government?
C                                         G
Mother will they put me in the firing line?
D         C                                         G
Ohhhh...  Ahhhhh.. Mother is it just a waste of time?

G                         C
Hush now baby don't you cry.
F                             C
Mama's gonna make all of your nightmares come true
F                           C
Mama's gonna put all of her fears into you,
F                                 C
Mama's gonna keep you right here, under her wing,
F                              C
She won't let you fly, but she might let you sing,
F                       C        G
Mama's gonna keep baby cozy and warm.

D         C
Ohhhh...  Babe,
D         C
Ohhhh...  Babe,
D            C                                       G
Ohh... Babe, of course mama's gonna help build the wall.

SOLO:
e-|-----------------------------------------------|
b-|-----13b(14)----13b(14)r13-12-13---------------|
g-|-12--------------------------------------------|
d-|------------------------------------14p13-14---|
a-|-----------------------------------------------|
E-|-----------------------------------------------|

e-|-------------------------------------|
b-|-------------------------------------|
g-|-------------------------------------|
d-|------5--5--4------------------------|
a-|-5s7-----------5---3-2-3--3-5-3vvvv--|
E-|-------------------------------------|

e-|---------------------------------------------------------|
b-|-----8-10-10b12---10b(12)r10-8-10b(13)-------------------|
g-|-2s7------------------------------------9p8-9------------|
d-|---------------------------------------------------------|
a-|---------------------------------------------------------|
E-|---------------------------------------------------------|

e-|---12b(14)r12-10----10b(12)r10-8--8p7h8p7----------------|
b-|--x----------------x----------------------8--------------|
g-|-x----------------x-------------------------7-5s4--------|
d-|--------------------------------------------------5------|
a-|---------------------------------------------------------|
E-|---------------------------------------------------------|


G                                    C                    G
Mother do you think she's good enough..                 for me?
G                                    C                    G
Mother do you think she's dangerous..                   to me?
C                                       G
Mother will she tear your little boy apart?
D         C
Oohhhh..   Aaahhh...
G                             C
Mother will she break my heart?

G                          C
Hush now baby don't you cry.
F                                  C
Mama's gonna cheak out all of your girlfriends for you,
F                    C
Mama won't let anyone dirty get through,
F                    C
Mama's gonn wait up, untill you get in,
F                         C
Mama will always find out just where you've been,
F                       C                G
Mama's gonna keep baby, healthy and clean.
D            C
Ooohhhh...  Baby,
D            C
Ooohhhh...  Baby,
D       C       G
Ooohhhh baby, you'll always be baby to me.

G                           C
Mother did it need to be so high?

----------Goodbye Blue Sky----------

Transcription by:  Jacob Sudol (sudol@azstarnet)-stolen from OLGA


GOODBYE BLUE SKY
Pink Floyd
(Waters)

TUNING: D A D G B E

 |-----------------|-----------------|-----------------|
 |-----------------|-----------------|-----------------|
 |-------0---------|-------0---------|-------0---------|
 |---4-------4---4-|---4-------4---4-|---4-------4---4-|
 |-----5-------5---|-----5-------5---|-----5-------5---|
 |-0-------0-------|-0-------0-------|-0-------0-------|

 |----------------|-----------------|
 |----------------|-----------------|
 |------0---------|---5---5-------4-|
 |---4----4-2-----|---5---5-------4-|
 |-----5------3p2-|-0---------------|
 |-0--------------|-----0---0---0---|

|---------|-----------------|---------|-----------------|-----------------|
|---------|-----------------|---------|-----------------|-----------------|
|-4-------|---5---5-------4-|-4-------|---5---5-------4-|---4------4-5-6--|
|-4-------|---5---5-------4-|-4-------|---5---5-------4-|---4------4-5-6--|
|---------|-----------------|---------|-----------------|-----------------|
|---0-0-0-|-0---0---0---0---|-0-0-0-0-|-0---0---0---0---|-0---0-----------|
                                        Repeat x3
|-----------------|-----------------||-------------------|-------------------|
|-----------------|-----------------||-------------------|-------------------|
|-----0-------0---|-----0-------0---||.---11---9-------7-|-----6---6h7p6p7---|
|---4---4---4---4-|---4---4---4---4-||.------------------|-------------------|
|-5-------5-------|-5-------5-------||-------------------|-------------------|
|-----------------|-----------------||--0----0---0---0---|-0-0---0---------0-|

 |-----------------|------------------|
 |-----------------|------------------|
 |-----0-------0---|-----0-------0---.|
 |---4---4---4---4-|---4---4---4---4-.|
 |-2-------2-------|-2-------2--------|
 |-----------------|------------------|

|-----------------|-----------------|-----------------|-----------------|
|-----------------|-----------------|-----------------|-----------------|
|---5---5---5---5-|-4---------------|---5---5---5---5-|-4---------------|
|---5---5---5---5-|-4---------------|---5---5---5---5-|-4---------------|
|-----------------|-----------------|-----------------|-----------------|
|-0---0---0---0---|-0---0---0---0---|-0---0---0---0---|-0---0---0---0---|

|-----------------|-----------------|-----------------|-----------------|
|-----------------|-----------------|-----------------|-----------------|
|---5---5-------5-|-----4---4-4-4-4-|-----2---2-2-2-2-|-----0---0-0-0-0-|
|---5---5-------5-|-----4---4-4-4-4-|-----2---2-2-2-2-|-----0---0-0-0-0-|
|-----------------|-----------------|-----------------|-----------------|
|-0---0---0---0---|-0---0---0---0---|-0---0---0---0---|-0---0---0---0---|

|-----------------|-----------------|-----------------|-----------------|
|-----------------|-----------------|-----------------|-----------------|
|-----------------|-----------------|-----0-------0---|-----0-------0---|
|-----4---4-4-4-4-|---2---2-----0---|---4---4---4---4-|---4---4---4---4-|
|-----4---4-4-4-4-|---2---2---4---4-|-2-------2-------|-2-------2-------|
|-0-0---0---0-----|-0---0---0-------|-----------------|-----------------|
                                        Repeat x2
|-----------------|-----------------||-------------------|-------------------|
|-----------------|-----------------||-------------------|-------------------|
|-------0---------|-------0---------||.---11---9-------7-|-----6---6h7p6p7---|
|---4-------4---4-|---4-------4---4-||.------------------|-------------------|
|-----5---5---5---|-----5---5---5---||-------------------|-------------------|
|-0---------------|-0---------------||--0----0---0---0---|-0-0---0---------0-|

 |-----------------|------------------|
 |-----------------|------------------|
 |-----0-------0---|-----0-------0---.|
 |---4---4---4---4-|---4---4---4---4-.|
 |-2-------2-------|-2-------2--------|
 |-----------------|------------------|

|-----------------|-----------------|-----------------|-----------------|
|-----------------|-----------------|-----------------|-----------------|
|---5---5---5---5-|-4---4-----------|---5---5---5---5-|-4---4-----------|
|---5---5---5---5-|-4---4-----------|---5---5---5---5-|-4---4-----------|
|-----------------|-----------------|-----------------|-----------------|
|-0---0---0---0---|-0---0---0---0---|-0---0---0---0---|-0---0---0---0---|

 |-----------------|-----------------|-----------------|
 |-----------------|-----------------|-----------------|
 |---5---5-------5-|-----4---4-4-4-4-|---------4-5-6---|
 |-----------------|-----------------|-----------------|
 |-----------------|-----------------|-----------------|
 |-0---0---0---0---|-0---0---0---0---|-0---0---0---0---|

 |-----------------|-----------------|
 |-----------------|-----------------|
 |-----0-------0---|-----0-------0---|
 |---4---4---4---4-|---4---4---4---4-|
 |-5-------5-------|-5-------5-------|
 |-----------------|-----------------|

|-----------------|-----------------|-----------------|-----------------|
|-----------------|-----------------|-----------------|-----------------|
|-----------------|-----------------|-----------------|-----------------|
|---4---4---4---4-|---4---4---4---4-|---4---4---4---4-|--4----4---4---4-|
|-5---5---5---5---|-5---5---5---5---|-5---5---5---5---|-5---5---5---5---|
|-----------------|-----------------|-----------------|-----------------|

|-----------------|-----------------|-----------------|----------------------|
|---------------1-|---------------1-|---------------1-|----------------------|
|---------------0-|---------------0-|---------------0-|----------------------|
|---0---0---0---0-|---0---0---0---0-|---0---0---0---0-|---0---0--------------|
|-3---------------|-----------------|-----------------|---------3p2p0--------|
|-----------------|-----------------|-----------------|---------------3(b)-0-|

    Repeat to fade
 ||------------------|------------------||
 ||------------------|------------------||
 ||.-------0---------|-------0---------.||
 ||.---4-------4---4-|---4-------4---4-.||
 ||------5---5---5---|-----5---5---5----||
 ||--0---------------|-0----------------||

(lyrics)

Oooooooooooh
Oooooooooooh
Oooooooooooh
Did did did did you see the frightened ones?
Did did did did you hear the falling bombs
Did did did did you ever wonder why we had to run for shelter
When the promise of a brave new world unfurled beneath the clear blue
sky?

Oooooooooooh
Oooooooooooh
Did did did did you see the frightened ones?
Did did did did you hear the falling bombs?
The flames are all long gone but the pain lingers on
Goodbye blue sky
Goodbye blue sky
Goodbye, goodbye

----------Empty Spaces----------

Transcription from: Espwish@aol.com

EMPTY SPACES/WHAT SHALL WE DO NOW?
Pink Floyd
(Waters)


E|-----------------|-------------------|---------------------|---------|
B|----5------------|--7----------------|----8----------------|--7------|
G|-----------------|-------------------|---------------------|---------|
D|-----------------|-------------------|---------------------|---------|
A|-----------------|-------------------|---------------------|---------|
E|-----------------|-------------------|---------------------|---------|


E|-------------------|-----------------|--------------------|----------|
B|----5p7--7b9----7--|----5------------|--------------------|----------|
G|-------------------|-----------------|--------------------|----------|
D|-------------------|-----------------|--------------------|----------|
A|-------------------|-----------------|--------------------|----------|
E|-------------------|-----------------|--------------------|----------|


E|----------|---------------------------------------------------|-------|
B|----------|----5------------------------/5--------------------|----7--|
G|----------|---------------------------------------------------|-------|
D|----------|---------------------------------------------------|-------|
A|----------|---------------------------------------------------|-------|
E|----------|---------------------------------------------------|-------|


E|--------------------------------|------------------------------------|
B|--------------------------5--7--|--8------------------7--------------|
G|--------------------------------|------------------------------------|
D|--------------------------------|------------------------------------|
A|--------------------------------|------------------------------------|
E|--------------------------------|------------------------------------|


E|---------------|-----------------------------|----------------------|
B|------------7--|--7h--9----------------------|----------------------|
G|---------------|-----------------------------|----------------------|
D|---------------|-----------------------------|----------------------|
A|---------------|-----------------------------|----------------------|
E|---------------|-----------------------------|----------------------|


E|------------------------------|--------------------------|----------|
B|------------------------------|--------------------------|----------|
G|------------------------------|--------------------------|----------|
D|------------------------------|--------------------------|----------|
A|------------------------------|--------------------------|----------|
E|------------------------------|--------------------------|----------|


E|----------||----19--------------19p17----19--------|--19------19b20--|
B|----------||---------------------------------------|-----------------|
G|----------||---------------------------------------|-----------------|
D|----------||---------------------------------------|-----------------|
A|----------||---------------------------------------|-----------------|
E|----------||---------------------------------------|-----------------|


E|------19------------|------14-------------------|-------------------|
B|--------------------|------------------17p14----|--17b19------------|
G|--------------------|---------------------------|-------------------|
D|--------------------|---------------------------|-------------------|
A|--------------------|---------------------------|-------------------|
E|--------------------|---------------------------|-------------------|


E|--17------17/19----|--19--------------19p18----------|----19----18--|
B|-------------------|---------------------------------|--------------|
G|-------------------|---------------------------------|--------------|
D|-------------------|---------------------------------|--------------|
A|-------------------|---------------------------------|--------------|
E|-------------------|---------------------------------|--------------|


E|--19--------19--|--14-----------------------------|-----------------|
B|----------------|----------------------17p14------|--17b19------17--|
G|----------------|---------------------------------|-----------------|
D|----------------|---------------------------------|-----------------|
A|----------------|---------------------------------|-----------------|
E|----------------|---------------------------------|-----------------|


E|------------------14b16----|--14------------15--------17------------|
B|---------------------------|----------------------------------------|
G|---------------------------|----------------------------------------|
D|---------------------------|----------------------------------------|
A|---------------------------|----------------------------------------|
E|---------------------------|----------------------------------------|

E|----------17/19--|--19------19--19--------------|--------------------|
B|-----------------|------------------------------|--------------------|
G|-----------------|------------------------------|--------------------|
D|-----------------|------------------------------|--------------------|
A|-----------------|------------------------------|--------------------|
E|-----------------|------------------------------|--------------------|


E|----17/19--19--------------------------|----------------------------|
B|---------------------------------------|----------------------------|
G|---------------------------------------|----------------------------|
D|---------------------------------------|----------------------------|
A|---------------------------------------|----------------------------|
E|---------------------------------------|----------------------------|

                        what shall we         use              to

E|----------------------||---------------------|-----------------------|
B|----------------------||---------------------|-----------------------|
G|----------------------||---------------------|-----------------------|
D|----------------------||---------------------|-----------------------|
A|----------------------||---------------------|-----------------------|
E|----------------------||--0------------------|--2--------------------|


       fill                 the       empty

E|----|----------------------------------------------------------------|
B|----|----------------------------------------------------------------|
G|----|----------------------------------------------------------------|
D|----|----------------------------------------------------------------|
A|----|----------------------------------------------------------------|
E|----|--3--------------------------------2----------------3--2p----0--|


          spaces         where             we used    to talk

E|------|-------------------------------------------------------------|
B|------|-------------------------------------------------------------|
G|------|-------------------------------------------------------------|
D|------|-------------------------------------------------------------|
A|------|-------------------------------------------------------------|
E|------|----0------------2----------------------2----3---------------|

                            how           shall I                 fill


E|------------------------|--------------------------------------------|
B|------------------------|--------------------------------------------|
G|------------------------|--------------------------------------------|
D|------------------------|--------------------------------------------|
A|------------------------|--------------------------------------------|
E|----------3--2p----0----|--0----------------------------2------------|

the   final places                                how should I


E|----|------------------------------------|--------------------------|
B|----|------------------------------------|--------------------------|
G|----|------------------------------------|--------------------------|
D|----|------------------------------------|--------------------------|
A|----|------------------------------------|--------------------------|
E|----|--3----2--------2h3------2----------|--xh0--------------2------|


        complete the wall

E|--------------------------|
B|--------------------------|
G|--------------------------|
D|--------------------------|
A|--------------------------|
E|------------3----------2--|


Legend
------

 h  = hammer-on
 p  = pull-off
 b  = bend
 r  = bend release
 /  = slide up/down
<5> = natural harmonic
[5] = artifical harmonic
 ~  = vibrato
 tr = trill

----------Young Lust----------

Contributed by Chris Hannon (http://www.angelfire.com/md/severnapark)


YOUNG LUST
Pink Floyd   (PART 1)
(Waters, Gilmour)


(E5)
I am just a new boy,
---------------------------------|
------------------3--------------|
------------2/4------------------|
---------------------------------|
---------------------------------|
-0----0--------------------------|

A
     a
---------------------------------|
---------------------------------|
--------------x---2---2----------|
--------------x---2---2----------|
--------------x---0---0----------|
---------------------------------|

E5
stranger in this town
--------------------------------|
------------------3-------------|
-----------2/4------------------|
--2---2-------------------------|
--2---2-------------------------|
--0---0-------------------------|

---------------------------------|
---------------------------------|
-----------------0--2----2-------|
---------------------------------|
---------------------------------|
---------------------------------|

Who's gonna show this stranger around.
---------------------------------|
------------------3--------------|
------------2/4------------------|
---------------------------------|
---------------------------------|
-0----0--------------------------|

---------------------------------|
-------------------------0-------|
---------------------------------|
---------------------------------|
------------------------------3--|
------------------------------1--|

Pre-chorus:
G5
--------------------------------------------------|
--------------------------------------------------|
--------------------------------------------------|
--------------------------------------------------|
--5------(5)--7------(7)-5--5--5--5--7--------7---|
--3----3--3--3----3--3--3--3--3--3--3----3--------|

--------------------------------------------------|
--------------------------------------------------|
--------------------------------------------------|
--------------------------------------------------|
--5----x--x--7----x--x--5----x--x--7/---x--x------|
--3----x--x--3----x--x--3----x--x-(3)----x--x-----|

(E5)
---------------------------------|
------------------3--------------|
------------2/4------------------|
---------------------------------|
---------------------------------|
------0--------------------------|

--------------------------------------------------|
--------------------------------------------------|
-----------------------------x--x--x--------------|
-----------------------------x--x--x--------------|
-----------------------------x--x--x--------------|
-----------------------------x--x--x--10\---------|

Chorus:
Am
Ooh,
--------------------------------------------------|
--------------------------------------------------|
--5-------------------------------5---------------|
--7-------------------------------7---------------|
--7-------------------------------7---------------|
--5-------------------------------5--------5------|

  I need a dirty woman
--------------------------------------------------|
--------------------------------------------------|
--5------------------5\---------------------------|
--7------------------7\---------------------------|
--7------------------7\---------------------------|
--5------------------5\---------------------------|

G
--------------------------------------------------|
--------------------------------------------------|
--4------------------4----------------------------|
--5------------------5----------------------------|
--5------------------5----------------------------|
--3------------------3------------------3---------|

--------------------------------------------------|
--------------------------------------------------|
--4-----------------(4)---4------(5)---5----------|
--5------------------5----5-------6---6-----------|
--5------------------5----5-------6---6-----------|
--3------------------3----3-------4---4-----------|

Am
Ooh,
--------------------------------------------------|
--------------------------------------------------|
--5----------------------------------------5------|
--7----------------------------------------7------|
--7----------------------------------------7------|
--5----------------------------------------5------|

  I need a dirty girl.
--------------------------------------------------|
--------------------------------------------------|
--5------------------5--5-------------------------|
--7------------------7--7-------------------------|
--7------------------7--7-------------------------|
--5-------------------------5\--------------------|

(E5)
-------------------------------------------------|
-------------------------------------------------|
-------------------------------------------------|
-------------------------------------------------|
-------------------------------------------------|
----0--------------------------------------------|

---------------------------------------------------|
----------------------12------------15-------------|
----------------------12-------12------------------|
--------------------------------12-----------------|
-----------12/-------------------------------------|
---------------------------------------------------|

----------One of My Turns-----------

Transcription by:  ?

ONE OF MY TURNS
Pink Floyd
(Waters)

C              Em
Day after day, love turns grey
         F                   C
Like the skin of a dying man
C                            Em
And night after night, we pretend it's all right
    Dm
But I have grown older and
Dm
You have grown colder and
Dm                   G7
Nothing is very much fun anymore.
    C     Em   F                      C
And I can feel one of my turns coming on.
C Fmaj7 Em    Dm
I       feel, cold as a razor blade
Dm
Tight as a tourniquet
Dm               G7
Dry as a funeral drum

Eb           Bb            Eb              Bb
Run to the bedroom, in the suitcase on the left
       C7      Dm Bb E7  Dm     Am  Dm    Am
You'll find my favourite axe
Bb
Don't look so frightened
        Eb                   Bb
This is just a passing phase
       Dm
One of my bad days
Bb        Eb              Bb
Would you like to watch T.V.?
    Eb                    Bb
Or get between the sheets?
         Dm
Or contemplate the silent freeway?
Dm
Would you like something to eat?
          Eb
Would you like to learn to fly?  Would you?
          Dm
Would you like to see me try?

D       G   C   Eb   Bb   Eb   Bb   Dm     Eb   Bb   Eb   Bb   Dm

Am7  Dm7  C           Eb
            Would you like to call the cops?
Eb
Do you think it's time I stopped?
Gm(9)
Why are you running away?

----------Don't Leave Me Now----------

Transcription by:  ?


DON'T LEAVE ME NOW
Pink Floyd
(Waters)

G   G+       Fm7
       Ooooh Babe
                     Dm7-5
Don't leave me now.
                              Bb11
Don't say it's the end of the road

Remember the flowers I sent
       G
I need you Babe
   G+
To put through the shredder

In front of my friends
      Fm
Ooooh Babe
                    Dm7-5
Don't leave me now
                   Bb11
How could you go?
                              G
When you know how I need you.
                        G+
To beat to a pulp on a Saturday night
      Fm
Ooooh Babe
               Fm(maj7)  Dm7-5
Don't leave me now
                          Bb9
How can you treat me this way?

Running away
G
Ooooooh babe
                           Dm  Am  Dm  Am  Dm  Am  Dm  G7  Am
Why are you running away?                              Oooooooh

----------Another Brick in the Wall, Pt. 3----------

ANOTHER BRICK IN THE WALL PART THREE
Pink Floyd
(Waters)

Dm                               Dm7
I don't need no arms around me
Dm                                Dm7
I don't need no drugs to calm me
Dm
I have seen the writing on the wall
Dm                             G
Don't think I need anything at all
                                  Dm
No don't think I need anything at all
F                 C                      Dm
All in all it was all just bricks in the wall
F                   C                      Dm
All in all you were all just bricks in the wall

----------Goodbye Cruel World-----------

Transcription by:  ?


GOODBYE CRUEL WORLD
Pink Floyd
(Waters)

D
Goodbye cruel world
    G
I'm leaving you today
    D        A        D
Goodbye, Goodbye, Goodbye
D
Goodbye all you people
        G
There's nothing you can say
           D         A
To make me change my mind
D
Goodbye.



----------Hey You----------

Transcription by:  ?

HEY YOU
Pink Floyd
(Waters)

CAPO 3

INTRO:
e-|-------0-----0---|-------0-----0---|-------2-----2---|-------2-----2-----|
B-|-4---------------|-4---------------|-2-------3-------|-2-------3---------|
G-|-----6---6-----6-|-----6---6-----6-|-----4-----4---4-|-----4-----4---4---|
D-|---6-------6-----|---6-------6-----|---4-------------|---4---------------|
A-|-----------------|-----------------|-----------------|-------------------|
E-|-----------------|-----------------|-----------------|-------------------|

							____________________
						       |1.
|-------0-----0---|-------0-----0---|-------2-----2----|-------2-----2-0----||
|-4---------------|-4-------6-------|-2-------3--------|-2-------3----------||
|-----6---6-----6-|-----6-----6---6-|-----4-----4---4--|-----4-----4-------*||
|---6-------6-----|---6-------------|---4--------------|---4---------------*||
|-----------------|-----------------|------------------|--------------------||
|-----------------|-----------------|------------------|--------------------||

 ________________
|2.
|--------2------||
|--2-------3----||
|------4--------||
|----4----------||
|---------------||
|---------------||
	     Hey

VERSE:
 (Rhythm figure 1)
|--------0-----0---|-------0-----0---|-------0-----0---|
|--4---------------|-4---------------|-4-------4-----0-|
|------6---6-----6-|-----6---6-----6-|-----6-----------|
|----6-------6-----|---6-------6-----|---6-------6-----|
|------------------|-----------------|-----------------|
|------------------|-----------------|-----------------|
   you,             Out there in the cold, getting lonely getting cold, Can

|--------4-------4-|-------4-----4---|-------0-----0---|-------0-----0---|
|--4---4-----4-----|-4---4---4-----0-|-4---------------|-4---------------|
|----------4---4---|-----------4-----|-----6---6-----6-|-----6---6-----6-|
|----6-------------|---6-------------|---6-------6-----|---6-------6-----|
|------------------|-----------------|-----------------|-----------------|
|------------------|-----------------|-----------------|-----------------|
  you feel me                    Hey  you,               Standing in the
							   aisles with itchy

|--------0-----0---|-------4-----4---|-------4-----4---|-------2-----2---|
|--4-------------0-|-4---4---4-----4-|-4---4---4-----4-|-2-------4-------|
|------6---6-------|-----------4-----|-----------4-----|-----4-----4---4-|
|----6-------6-----|---6-------------|---6-------------|---4-------------|
|------------------|-----------------|-----------------|-----------------|
|------------------|-----------------|-----------------|-----------------|
 feet and fasing smiles can you feel me?                Hey, you     don't

							(end Rhy. fig 1)
|--------2-----2---|-4-----------0-|-------0-----0---|-------0-----0---|
|--2-------4-----0-|-5---5-4-------|-2---2---2-----2-|-2---2---2-----0-|
|------2-----4-----|-4-4-------4---|---2-------2-----|---2-------2-----|
|----4-------------|---------4-----|-----------------|-----------------|
|------------------|---------------|-----------------|-----------------|
|------------------|---------------|-----------------|-----------------|
 help them to bury the light.

|--------4-----4---|-------2-----2---|-------0-----0---|-------0-----0---|
|--4---4---4-----4-|-2---2---2-----0-|-4---------------|-4---------------|
|------------4-----|-----------2-----|-----6---6-----6-|-----6---6-----6-|
|----6-------------|---4-------------|---6-------6-----|---6-------6-----|
|------------------|-----------------|-----------------|-----------------|
|------------------|-----------------|-----------------|-----------------|
  Don't give in             without a fight.

|---------2-----2---|-------2---||
|--2--------3-------|-2-------3-||
|-------4-----4---4-|-----4-----||
|-----4-------------|---4-------||
|-------------------|-----------||
|-------------------|-----------||

VERSE 2:(Gtr. 1 - Rhy. fig 1,
	 Gtr. 2 - acoustic no capo strums chords high to low)

    Em9
Hey, you
Out there on you own, sitting naked by the phone,
      Bm
would you touch me?
    Em9
Hey, you,
with you ear against the wall, waiting for someone to call out,
      Bm              Dsus2
would you touch me?
Hey, you,
				G    D    C
Would you help me to carry the sto - o - one?
Bm                      C        Em
	Open your heart, I'm coming home.

SOLO:(Gtr. 2 electric plays Rhy. fig. 2 - 8 X)
   (Rhythm fig 2)                                           (end Rhy. fig 2)
e-|--------------------------|----------------------|-----------------------||
B-|--------------------------|----------------------|-----------------------||
G-|--------------------------|----------------------|-----------------------||
D-|--------------------------|----------------------|-----------------------||
A-|--------------------------|----------------------|-----------------------||
E-|-10\--0--2-2>(3)-2vvvvvv--|--0--2-2>(3)-2vvvvvv--|--0-0-2-2>(3)-2vvvvvvv-||

(Gtr. 3 electric)
|-----------------------------------------------------------------------------|
|-3>(5)=======(5)vvvvvvvvvvvvv(5)=====>3--3>(5)==(5)vvvvvvvvvvvvvvv(5)====>3--|
|-----------------------------------------------------------------------------|
|-----------------------------------------------------------------------------|
|-----------------------------------------------------------------------------|
|-----------------------------------------------------------------------------|

|-----------------------------------------------------------------------------|
|-3>(5)vvvvvvvvvvvvvvvvvvvv>(4)>(5)>===(4)>(5)>===(4)>(5)------3>(5)vvvvvvvv--|
|-----------------------------------------------------------------------------|
|-----------------------------------------------------------------------------|
|-----------------------------------------------------------------------------|
|-----------------------------------------------------------------------------|

|-----------------------------------------------------------------------------|
|--3/7vvvvvvvvvv--5-7-7>(8)>7vvvvvvvvv---5-7-7>(8)>7vvvvvvvv---5-7-7>(8)>7vvvv|
|-----------------------------------------------------------------------------|
|-----------------------------------------------------------------------------|
|-----------------------------------------------------------------------------|
|-----------------------------------------------------------------------------|

|---------------5--7-5-7--7>(8)vvvvvvvvvv(8)==>7>(8)--7>(8)vvvvvvvv-7---|
|--5vvvvvv-7-8----------------------------------------------------------|
|-----------------------------------------------------------------------|
|-----------------------------------------------------------------------|
|-----------------------------------------------------------------------|
|-----------------------------------------------------------------------|

|--7>(8)vvvvvvv(8)===>7--7>(8)vvvvvvvvv----------12-----------------------|
|----------------------------------------15>(17)-----15>(17)vvvvvvv>(16)--|
|-------------------------------------------------------------------------|
|-------------------------------------------------------------------------|
|-------------------------------------------------------------------------|
|-------------------------------------------------------------------------|

|------------12---15-----------12--15-------------------------|
|---15>(17)-----------15>(17)----------15>(17)vvvvvvvvvvvvvv--|
|-------------------------------------------------------------|
|-------------------------------------------------------------|
|-------------------------------------------------------------|
|-------------------------------------------------------------|

|----------------------------------12------------------------------------|
|--15>(17)======>15>12----------12-----15>(17)=====>(16)>(17)=======>15--|
|-----------------------14>(16)------------------------------------------|
|------------------------------------------------------------------------|
|------------------------------------------------------------------------|
|------------------------------------------------------------------------|

|----------14-15/17-17/19--17--19--19>(20)========(20)>19---19>(20)-17>19--|
|--15>(17)-----------------------------------------------------------------|
|--------------------------------------------------------------------------|
|--------------------------------------------------------------------------|
|--------------------------------------------------------------------------|
|--------------------------------------------------------------------------|
							  v-- slow dive w/ bar
|--19>17--20--19>(20)==>19--19>(20)==========(20)==>19>17--19--------------||
|--------------------------------------------------------------------------||
|--------------------------------------------------------------------------||
|--------------------------------------------------------------------------||
|--------------------------------------------------------------------------||
|--------------------------------------------------------------------------||

BRIDGE:
C           D     G  D  C
 But it was only  fantasy
		 D       G   D   C
The wall was too high as you can see.
		 D               G   D     C
No matter how he tried, he could not break free,
		  D        Emadd9
and the worms ate into his brain.

Play This 4 Times:
							 ____________________
							| 1.-3.
e-|-------0-----0---|-------0-----0---|-------2-----2---|-------2-----2-----||
B-|-4---------------|-4---------------|-2-------3-------|-2-------3-----0---||
G-|-----6---6-----6-|-----6---6-----6-|-----4-----4---4-|-----4-----4------*||
D-|---6-------6-----|---6-------6-----|---4-------------|---4--------------*||
A-|-----------------|-----------------|-----------------|-------------------||
E-|-----------------|-----------------|-----------------|-------------------||
   __________________________________________
  | 4.
e-|-----2-----2--------2----|----2-----2----|
B-|--2-----------3----------|-2-----------3-|
G-|--------4--------4-----4-|-------4-------|
D-|-----4-------------------|----4----------|
A-|-------------------------|---------------|
E-|-------------------------|---------------|

VERSE:(with Rhy. fig. 1)
Em add9
Hey, you
out there on the road,
Em add 9
always doing what your told,
    Bm
can you help me?
Em add 9
Hey you,
out beyond the wall,
Em add 9
breaking bottles in the hall,
    Bm
can you help me?

ELECTRIC:
e-|----------------------|--------------------------------------------|
B-|----------------------|--------------------------------------------|
G-|---4------5---6---7---|--------------------------------------------|
D-|---4------5---6---7---|--------------------------------------7\----|
A-|---2------3---4---5---|--------------------------------------5\----|
E-|----------------------|--------------------------------------------|
			   Hey you!  Don't tell me there's no hope at

e-|-------------------|------------------------|-------------------|
B-|-------------------|------------------------|-------------------|
G-|--------7----5-----|-----5-----5--5----5\4--|--4----------------|
D-|---5----7----5-----|-----5-----5--5----5\4--|--4----------------|
A-|---5----5----3-----|-----3-----3--3----3\2--|--2----------------|
E-|---3---------------|------------------------|-------------------|
    all______________.                       To - gether we stand,

e-|------------------------|-------------------------||
B-|------------------------|-------------------------||
G-|---2--------------------|-------------------------||
D-|---2--------------------|---2---------------------||
A-|---0--------------------|---2---------------------||
E-|------------------10\---|---0---------------------||
		   divided we fall.

				[segue to Is There Anybody Out There?]

----------Is There Anybody Out There?----------

IS THERE ANYBODY OUT THERE?
                              Pink Floyd
                       From the Album "The Wall".

                Tabs By John Ware - meat5000@yahoo.com

     *** This my own comprehension of the tabs for this tune. ***
     ***     However, I know that it is quite accurate.       ***


               Am
           E-|-------||
           B-|-------||
           G-|----2--||   x14   (Yes Fourteen! Strange Number, I know)
           D-|-------||
           A-|-0-----||
           E-|-------||

     Am                Am/F             Am/F#              Am/F
E-|-------0---------|-------0---------|-------0---------|-------0---------|
B-|-----1---1-------|-----1---1-------|-----1---1-------|-----1---1-------|
G-|---2-------2---2-|---2-------2---2-|---2-------2---2-|---2-------2---2-|
D-|-2-----------2---|-3-----------3---|-4-----------4---|-3-----------3---|
A-|-----------------|-----------------|-----------------|-----------------|
E-|-----------------|-----------------|-----------------|-----------------|

    Am       Am/D      Am/C    Am/B      Am
E-|-------0-------0-|-------0-------0-|---------0-------|-----------------|
B-|-----1-------1---|-----1-------1---|-------1---1-----|-------1---------|
G-|---2-------2-----|---2-------2-----|-----2-------2---|-----2---2-------|
D-|-2-------0-------|-----------------|---2-----------2-|---2-------2---2-|
A-|-----------------|-3-------2-------|-0---------------|-0-----------0---|
E-|-----------------|-----------------|-----------------|-----------------|


E-|---------0-------|-----------------|
B-|-------1---1-----|-------1---------|
G-|-----2-------2---|-----2---2-------|
D-|---2-----------2-|---2-------2---2-|
A-|-0---------------|-0-----------0---|
E-|-----------------|-----------------|

    Am                Am/F              Am/F#             Am/F
E-|-------0---------|-------0---------|-------0---------|-------0---------|
B-|-----1---1-------|-----1---1-------|-----1---1-------|-----1---1-------|
G-|---2-------2---2-|---2-------2---2-|---2-------2---2-|---2-------2---2-|
D-|-2-----------2---|-3-----------3---|-4-----------4---|-3-----------3---|
A-|-----------------|-----------------|-----------------|-----------------|
E-|-----------------|-----------------|-----------------|-----------------|

    F      Am/D                         Am
E-|---------------0-|-------0---------|---------0-------|
B-|-----1-------1---|-----1---1-------|-------1---1-----|
G-|---2-------2-----|---2-------2-----|-----2-------2---|
D-|-3-----2-0-------|-0---------------|---2-----------2-|
A-|-----------------|-------------3-2-|-0---------------|
E-|-----------------|-----------------|-----------------|

E-|-----------------|---------0-------|---------0-------|
B-|-------1---------|-------1---1-----|-------1---------|
G-|-----2---2-------|-----2-------2---|-----2-----------|
D-|---2-------2---2-|---2-----------2-|---2-------------|
A-|-0-----------0---|-0---------------|-0---------------|
E-|-----------------|-----------------|-----------------|

    C                 G/B               Am              Legato Slide
E-|---------0-------|-----------0-----|---------0-------|----------------|
B-|-------1---1-----|-------1h3---3-1-|-------0---0-----|-5--3/1-1/0-0---|
G-|-----0-------0---|-----0-----------|-2---2-------2/5-|--4-4/2-2/0-0-0-|
D-|-2-2-----------2-|---0-------------|-2-2-------------|----------------|
A-|-3---------------|-2---------------|-0---------------|----------------|
E-|-----------------|-----------------|-----------------|----------------|

    C                  G/B               Am               Let Ring Out
E-|---------0-------|-----------0-----|---------0-------|----8~~----7~~--|
B-|-------1---1-----|-------1h3---3-1-|-------0---0-----|----------------|
G-|-----0-------0---|-----0-----------|-----2-------0  -|-9------7-------|
D-|---2-----------2-|---0-------------|---2-------------|----------------|
A-|-3---------------|-2---------------|-0---------------|----------------|
E-|-----------------|-----------------|-----------------|----------------|

    Am                 Am/F              Am/F#             Am/F       *
E-|-------0---------|-------0---------|-------0---------|-------0---------|
B-|-----1---1-------|-----1---1-------|-----1---1-------|-----1---1-------|
G-|---2-------2---2-|---2-------2---2-|---2-------2---2-|---2-------2---2-|
D-|-2-----------2---|-3-----------3---|-4-----------4---|-3-----------3---|
A-|-----------------|-----------------|-----------------|-----------------|
E-|-----------------|-----------------|-----------------|-----------------|
                                                                 poco ritard.
                                                                   rit.


                                                                     *
    Am       Am/D      Am/C     Am/B    Am         Let Notes Ring    Am
E-|-------0-------0-|-------0-------0-|--------------5--|-7---8------12---||
B-|-----1-------1---|-----1-------1---|--------1 /5-----|------------10---||
G-|---2-------2-----|---2-------2-----|-----2-----------|------------9----||
D-|-2-------0-------|-----------------|---2-------------|------------10---||
A-|-----------------|-3-------2-------|-0---------------|------------0----||
E-|-----------------|-----------------|-----------------|-----------------||
                                      | ritardando poco a poco.      Rake


    Tabs by John Ware.
    meat5000@yahoo.com

    Distribute Freely. They are the most accurate I've found so far.

    };-#)>

----------Nobody Home----------

Transcription by:  ?

NOBODY HOME
Pink Floyd
(Waters)

Am   C+   C   D7   F   Fm

           C
I've got a little black book with  my poems in
           E
I've got a bag with a toothbrush and a comb in
     F                                        C
When I'm a good dog they sometimes throw me a bone in
F      C
I got elastic bands keeping my shoes on
         E             E7
Got these swollen hand blues.
    F                                        C
Got thirteen channels of shit on the T.V. to choose from
C
I've got electric light
C7
And I've got second sight
          F      Fm             C      E7   D7/F#   G
I've got amazing powers of observation
G                 E7/G#
And that is how I know
Am                         C+   C6
When I try to get through
                         C/G   D
On the telephone to you
Fm6               C       F
They'll be nobody home
               C
I've got the obligatory Hendrix perm
          E                        E7+
And the inevitable pinhole burns
F                                           C
All down in the front of my favourite satin shirt
F        C
I've got nicotine stains on my fingers
           E
I've got a silver spoon on a chain
           F                                  C
I've got a grand piano to prop up my mortal remains
C
I've got wild staring eyes
C7                                 F
I've got a strong urge to fly
    Fm                  C       E    Am    D7   G     E7
But I've got nowhere to fly to
Am         C                           D7
Ooooh Babe when I pick up the phone
Fm6                  C       F   C
There's still nobody home
F          C
I've got a pair of Gohills boots
            E       E7
And I've got fading roots


----------Vera-------------

Transcription by:  ?

VERA
Pink Floyd
(Roger Waters)

   (television sound efffects
    for approx. 18 seconds)
e-|----------------------------||--------------------------------|
B-|----------------------------||--------------------------------|
G-|----------------------------||--------------------------------|
D-|----------------------------||--------------------------------|
A-|----------------------------||--------------------------------|
E-|----------------------------||--------------------------------|
			          Does anybody here remember Vera

    Em
e-|----------------------------|-----------0--------------|
B-|--------0-------------------|--------0-----------------|
G-|-----0-----0-------0-----0--|-----0-----------0-----0--|
D-|--2-----------(2)-----2-----|--2-----------2-----0-----|
A-|----------------------------|--------------------------|
E-|----------------------------|--------------------------|
     Lynn?

      C				   D
e-|-------------0---------------|-----------2---------------|
B-|----------1-----1------------|--------3-----3------------|
G-|-------0-----------0---------|-----2-----------2-----0---|
D-|--------------------------2--|--0-----------------0------|
A-|---3-------------------3-----|---------------------------|
E-|-----------------------------|---------------------------|
		Remember	   how   she   said  that

      G	      D/F#		  C			      Em
e-|----------------------------|---------------------------|-----------------|
B-|----------------------------|-----------1---------------|-----------------|
G-|----------------------------|--------0-----0------------|-----------------|
D-|----------------------------|-----2-----------2-----2---|-----------------|
A-|----------------------------|--3-----------------3------|-----------------|
E-|---3--------2---------------|---------------------------|---0-------------|
     we would   meet  again	     some  sun - ny  day.

e-|-----------------------------------|----------------------------------|
B-|--(5)-----5/8-------7-------5------|--5/10-----10/13------------------|
G-|-------0--------0-------0-------0--|--------0----------0--------------|
D-|---2------2/5-------4-------2------|--2/7-------7/10------9-----------|
A-|-----------------------------------|----------------------------------|
E-|-----------------------------------|----------------------------------|

    Am7		    D		       G	      C		          Em
e-|--3-----------|--2-------------|----------------|--0----0--3--0-----------|
B-|--1-----------|--3-------------|-----------3----|--1----------------------|
G-|--0-----------|--2-------------|---(0)----------|--0----------------------|
D-|--2-----------|--0-------------|----------------|--2----------------0---2-|
A-|--0-----------|----------------|----------------|--3-------------3--------|
E-|--------------|----------------|----------------|-------------------------|
     u.		    u.				      u.

							Em7
e-|----------------------------|---------------------------------|
B-|----------------------------|-------------------------3-------|
G-|----------------------------|-------------------------0-------|
D-|----------------------------|-------------------------0-------|
A-|----------------------------|-------------------------2-------|
E-|----------------------------|-------------------------0-------|
    Vera!    Vera!		  What has become of you?

    Em				 C
e-|-----------0---------------|--------------0------------|
B-|--------0------------------|-----------1-----1---------|
G-|-----0------------0-----0--|--------0------------------|
D-|--2------------2-----0-----|-----2------------------2--|
A-|---------------------------|--3------------------3-----|
E-|---------------------------|---------------------------|
					   Does any - body

      D				 G		D/F#
e-|---------------------------|--3----------3---2h3---2-------|
B-|---------3-------0--1--2---|------0--------------------3---|
G-|------2--------------------|---------0---------------------|
D-|---0---------0-------------|-------------------------------|
A-|---------------------------|-------------------------------|
E-|---------------------------|--3--------------2-------------|
     else in here		 feel    the way  I     do?

     C
e-|-(0)--------0---------------|--------------------------------||
B-|---------1-----1------------|--------------------------------||
G-|------0------------0--------|--------------------------------||
D-|--------------------------0-|---2----------------------------||
A-|--3--------------------2----|--------------------------------||
E-|----------------------------|--------------------------------||
					   (Segue to "Bring the
					        Boys Back Home")

----------Bring the Boys Back Home----------

Transcription by:  ?


BRING THE BOYS BACK HOME
Pink Floyd
(Waters)

C         D         G
Bring the boys back home
C         D         G
Bring the boys back home
C               D                 G   D   C
Don't leave the children on their own
Csus      D7        Em
Bring the boys back home

------------Comfortably Numb------------------

Transcription by:  ?

COMFORTABLY NUMB
Pink Floyd
(Gilmour, Waters)

Bm                               A
        Hello, Is there any body in there?
                    G       D/F#  Em        Bm
Just nod if you can hear me,      is there anyone at home?
A
Come on, now, I hear your feeling  down,
      G            D/F#   Em            Bm
well, I can ease  your  pain,   get you on your feet again.
                        A                   G          D/F#   Em
relax, I need soem information, first,  just the basic facts,
         Bm
Can you show me where it hurts

D                           A
There is no pain you are receding,
D                                A        G/B
A distant ships smoke, on the horizon,
C                               G
You are only coming through in waves,
C                                               G
Your lips move, but I can't hear what your saying,
     D                       A
When I was a child, I had a fever,
  D                             A       G/B
my hands felt just like, two ballons,
C                                   G
Now I've got that feeling once again,
G                                 C
I can't explain, you would not understand,
                        G
This is not how I am,
A               G/B  C             G                D
I______________________  have become, comforatbly numb.


SOLO 1:
e-|---14vvvvvv-----12-14>15>14------------------------------------------------|
B-|------------------------------15>17vvvvvvvvvv>15--15-14--------------------|
G-|---------------------------------------------------------14----------------|
D-|-------------------------------------------------------------14\12vvvvvv---|
A-|---------------------------------------------------------------------------|
E-|---------------------------------------------------------------------------|

e-|--14>12--14>(15)>14--------------------------------------------------------|
B-|-----------------------15>17---------15--14--------------------------------|
G-|---------------------------------------------14------------------/12vvvvvv-|
D-|-------------------------------------------------14\12--11--9--7-----------|
A-|---------------------------------------------------------------------------|
E-|---------------------------------------------------------------------------|

e-|---------------------------------------------------------------|
B-|---------------------------------------------------------------|
G-|---11--------------11\9---9\7vvvvv----9>7------7---9---11>12---|
D-|----------14--12----------------------------9------------------|
A-|---------------------------------------------------------------|
E-|---------------------------------------------------------------|

e-|---15-14-12---------------------------------------------------|
B-|------------15-12---------------------------------------------|
G-|------------------12------------------------------------------|
D-|---------------------12vvvvvvvv--10\9vvvvvvv---10\9\7vvvvv----|
A-|--------------------------------------------------------------|
E-|--------------------------------------------------------------|

                               v-- strike note
e-|-----------------------------------------------------------|
B-|-----------------------------------------------------------|
G-|-11>(12)vvvvvvvv--9>(11)===(11)==>9>7----------------------|
D-|---------------------------------------7/9\7vvvvvvvvvvv\---|
A-|-----------------------------------------------------------|
E-|-----------------------------------------------------------|


Bm                      A                         G   D/F#  Em
O.K., just a little pin prick, there'll be no more (scream),
           Bm
But you may feel a little sick.  Can you stand up?
                   A                              G             D/F#  Em
I do believe it's working, good. That'll keep you going throught the show,
Bm
C'mon it's time to go

D                            A
There is no pain you are receding,
D                               A       G/B
A distant ships smoke on the horizon,
C                                G
You are only coming through in waves,
    C                                         G
Your lips move, but I can't hear what your saying,
    D                              A
When I was a child, I caught a fleeting glimpse,
D                        A     G/B
Out of the corner of my eye,
C                              G
I turned to look, but it was gone,
                           C
I can not put my finger on it now,
                            G
The child is grown, the dream is gone,
A               G/B  C          G                 D
and I___________________, have become comfortably numb.


OUTRO SOLO:
|---------------------------------------------------------------|
|---------------------------------------------------------------|
|--7--9--9>(11)vvvvvv--9>(11)>9>7---7--9--9--7-------7vvvvvvv---|
|---------------------------------9-------------9--9------------|
|---------------------------------------------------------------|
|---------------------------------------------------------------|

|-------------------------------------------10------------------------------|
|--------10------10--12--12>(15)>12>10--12----------------------------------|
|---/11------11---------------------------------------7--9--9>(10)>9>7------|
|----------------------------------------------------------------------9vvvv|
|---------------------------------------------------------------------------|
|---------------------------------------------------------------------------|

|--------------------------------------------------------------------------|
|----10>7-------7----------------------------------------------------------|
|-----------9-------9---7-------------------------------7------------------|
|--------------------------9vvvvvvvvvv--------7---7--9-----9>7---9vvvvvv---|
|-----------------------------------------/9-------------------------------|
|--------------------------------------------------------------------------|

|--9--9>(10)----7-------7---------------------------|
|-------------------10-----10>(12)vvv----10>7-------|
|-----------------------------------------------9---|
|---------------------------------------------------|
|---------------------------------------------------|
|---------------------------------------------------|

|-------7--------------------------------------------------------|
|--7--7---10>7---------------------------------------------------|
|--------------9>(11)>9>7---9-7----------------------------------|
|-------------------------9-----9-7------------------------------|
|-----------------------------------9-8-7-5---5vvvvvvvvvvvvvv----|
|-------------------------------------------7--------------------|

|--------------------------7-------------------------------------------------|
|------------------------7---10>7--------------------------------------------|
|--7-7-7vvvvvvv---9>(11)----------9>(11)>9>7---9-7---------------------------|
|--------------------------------------------9-----9>7-----------------------|
|------------------------------------------------------9\7-5-7>5---5--7-7/9--|
|----------------------------------------------------------------7-----------|

|----------------------------7----------------------------7-----------------|
|--------------------------7---10--------7--------------7---10>7------------|
|-------------7---7-9>(11)--------9>(11)---7--9--9>(11)----------9>(11)>9>7-|
|--7-7-7--9>7---9-----------------------------------------------------------|
|---------------------------------------------------------------------------|
|---------------------------------------------------------------------------|

|----------------------------------------------------------------------------|
|---------------------------7--------------7-7-7------------------7-7-7------|
|----9-7--------------------7--------------7-7-7------------------7-7-7------|
|--9-----9-7----------------7--9vvvvvvv----7-7-7--"9"vvvvvvvvvv---7-7-7--9vvv|
|------------9-8-7-5---5>0---------------------------------------------------|
|--------------------7-------------------------------------------------------|

|---------------------------------------------7------------------------|
|--7---------------------------------------------10>7--10>(12)====>10--|
|--7----9>(11)>9>7-----7--9--9>(11)vvvvvvvv----------------------------|
|-----7-------------9--------------------------------------------------|
|----------------------------------------------------------------------|
|----------------------------------------------------------------------|

|----------7-------------------------------------------------------|
|--------7---10>7--------------------------------------------------|
|-9>(11)----------9>(11)>9>7-9>7---7---------------------------7---|
|--------------------------------9---9>7-9>7---7------------9--7---|
|--------------------------------------------9---9-8-7-------------|
|------------------------------------------------------10-7--------|

|-----------------------------------------------------------------------|
|----------7-----7>(8)>7--------------------------7-----------------7---|
|--------7-7-----7>(8)>7-----------------7>9>7----7-----------------7---|
|--9-7-9---7-----7>(8)>7-7vvvvvv-7>9------------9---9>7-----7-9>7>9-----|
|--------------------------------------------------------9--------------|
|-----------------------------------------------------------------------|

|-----------------------------------7-----17-17-17>(19)vvv--17-19-21-21>(22)vv|
|-------7---7---7--7------7---7--7--7-----------------------------------------|
|-9>7---7---7---7--7----7-7---7--7--7-----------------------------------------|
|-----9-----7-----------------------7-----------------------------------------|
|-----------------------------------------------------------------------------|
|-----------------------------------------------------------------------------|

|--21>(22)vvv-21-21>(22)>21--21>(22)-21>(22)-21>(22)>21--19>21>19-19-19\---|
|--------------------------------------------------------------------------|
|--------------------------------------------------------------------------|
|--------------------------------------------------------------------------|
|--------------------------------------------------------------------------|
|--------------------------------------------------------------------------|

|-----------------------------------------------------------------------------|
|-17-17-17--17>(19)>17>15----17-17-17vvvvvv---15--17-17>(18)>17>15vvv---------|
|-------------------------16-----------------------------------------16-16-16-|
|-----------------------------------------------------------------------------|
|-----------------------------------------------------------------------------|
|-----------------------------------------------------------------------------|

|----------------------------10---------10----12-12>(13)-10-12-------12--|
|--------------------10>(12)----10>(12)----10------------------12-12-----|
|--14-16vvv--------------------------------------------------------------|
|-----------14-12--------------------------------------------------------|
|-----------------14-----------------------------------------------------|
|------------------------------------------------------------------------|

|-------------------------------------------------------------|
|-12>(15)>12--12-10---------------------------------------7---|
|-------------------9>(11)>9>0--9>7---7-9>7---------------7---|
|-----------------------------------9-------9-7---------------|
|-----------------------------------------------9-8-7-5-------|
|-------------------------------------------------------------|

|-----------------------------------7--7--7--7---7---7---7--7-7--7---7--7--|
|---7--7--7--7--7-----7---7---7--7--7--7--7--7---7---7---7--7-7--7---7--7--|
|---7--7--7--7--7-----7---7---7--7-----------------------------------------|
|-------------------9---9---9----------------------------------------------|
|--------------------------------------------------------------------------|
|--------------------------------------------------------------------------|

|---7-----------------------------------------------||
|------10-------------------------------------------||
|----------9>(11)-9--7------------------------------||
|----------------------9-9-9-7----7-7>9-9>7-9vvvvv--||
|---------------------------------------------------||
|---------------------------------------------------||


-------------The Show Must Go On---------------------

Transcription by:  ?

THE SHOW MUST GO ON
Pink Floyd
(Waters)

G  C  G  C  G  C

G      C                          G     C  G
Oooh Ma Oooh Pa, must the show go on ?
D    Bm6
Oooh Pa take me home
D    Bm6
Oooh Ma let me go
Cmaj7
There must be some mistake, I didn't mean to let them
                                          G     C  G
Take away my soul, Am I too old is it too late ?
D      G  C
Oooh Ma   Oooh Pa
G
Where has the feeling gone?
D      G  C
Oooh Ma   Oooh Pa

Will I remember the songs?
D  G C                     Gsus/C  G
Oooh ah - The show must go on.


-------------------------In The Flesh---------------------

TAB by:  Jacob Sudol (sudol@azstarnet.com)


IN THE FLESH ?
Pink Floyd
(Waters)

INTRO:
e-|-------------------|-----------------------------|--------------0-----|
B-|-------------------|-----------------------------|-8----\--3----0-----|
G-|-------------------|-----------------------------|-7----\--2----------|
D-|-------------------|-----------------------------|--------------------|
A-|-------------------|---------0-------2---3vvvvv--|--------------------|
E-|--0--------2vvvvv--|-3vvvvv----------------------|--------------------|

|---------0------------0-----------------------------------------------|
|------------3------------3--------------------------------------------|
|-2>(4)-0------2>(4)-0------2>(4)--2-0---------------------------------|
|--------------------------------------2-0-----------------------------|
|------------------------------------------2-1-0---------2vvvvvvv------|
|------------------------------------------------3>(4)p0---------------|

|-2vvvvv---4vvvvv---5vvvvv---4vvvvv-|-2vvvvv---4vvvvv---5vvvvv---7vvvvv-|
|-3vvvvv---5vvvvv---6vvvvv---5vvvvv-|-3vvvvv---5vvvvv---6vvvvv---8vvvvv-|
|-2vvvvv---4vvvvv---5vvvvv---4vvvvv-|-2vvvvv---4vvvvv---5vvvvv---7vvvvv-|
|-0vvvvv---0vvvvv---0vvvvv---0vvvvv-|-0vvvvv---0vvvvv---0vvvvv---0vvvvv-|
|-----------------------------------|-----------------------------------|
|-----------------------------------|-----------------------------------|

%
|-------------------------|-----------------------------|
|-------------------------|-----------------------------|
|-(2)---------------------|----x------------------------|
|-(2)---------------------|----x-x----------------------|
|--0---2>(4)-2vvvvv--0----|----x-x--4>(5)-4vvvvv-2vvvvv-|
|-----------------------2>|(4)---x----------------------|

|-------------------------|-----------------------------|
|-------------------------|-----------------------------|
|-------------------------|-----------------------------|
|--2----------------------|-----------------------------|
|--0---2>(4)-2vvvvv--0----|----x-x--4>(5)-4vvvvv-2vvvvv-|
|-----------------------2>|(4)-x-x----------------------|

|-------------------------|-----------------------------|
|-------------------------|-----------------------------|
|--2----------------------|----x------------------------|
|--2----------------------|----x------------------------|
|--0---2>(4)-2vvvvv--0--1-|-2v---x--4>(5)-4vvvvv-2---3--|
|-------------------------|-----------------------------|

                               %
|------------------------------|
|------------------------------|
|--------x---------------------|
|--------x---------------------|
|--4vvvv---5>(7)-5vvvvv-4------|
|-------------------------12\--|

VERSE:
|------------------|------------------|----------2-------|----------2-------|
|----------2-------|----------2-------|-------3-----3----|-------3-----3----|
|-------2-----2----|-------2-----2----|----2-----------2-|----2-----------2-|
|----2-----------2-|----2-----------2-|-0----------------|-0----------------|
|-0----------------|-0----------------|------------------|------------------|
|------------------|------------------|------------------|------------------|

|------------------|------------------|----------2-------|----------2-------|
|----------2-------|----------2-------|-------3-----3----|-------3-----3----|
|-------2-----2----|-------2-----2----|----2-----------2-|----2-----------2-|
|----2-----------2-|----2-----------2-|-0----------------|-0----------------|
|-0----------------|-0----------------|------------------|------------------|
|------------------|------------------|------------------|------------------|

|------------------|------------------|------------------|------------------|
|----------2-------|----------2-------|----------3-------|----------3-------|
|-------2-----2----|-------2-----2----|-------4-----4----|-------4-----4----|
|----2-----------2-|----2-----------2-|----4-----------4-|----4-----------4-|
|-0----------------|-0----------------|-2----------------|-2----------------|
|------------------|------------------|------------------|------------------|

|------------------|------------------|----------0-------|----------0-------|
|----------5-------|----------5-------|-------------0----|-------------0----|
|-------6-----6----|-------6-----6----|-------1--------1-|-------1--------1-|
|----6-----------6-|----6-----------6-|----2-------------|----2-------------|
|-4----------------|-4----------------|------------------|------------------|
|------------------|------------------|-0----------------|-0----------------|

Repeat that over the verse two more times, except on the third time,
replace the last three measures with:

|------------------|------------------|------------------|
|----------5-------|------------------|------------------|
|-------6----------|------------------|------------------|
|----6-------------|--2---------------|------------------|
|-4----------------|--2---------------|------------------|
|--------------12\-|--0---------------|------------------|

then repeat the measures between the percent signs in the intro, and end
with:

|------------------|--/--|-----|
|------------------|--/--|-----|
|------------------|--2--|--2--|
|--2---2-2-2-2-2-2-|--2--|--2--|
|--2---2-2-2-2-2-2-|--0--|--0--|
|--0---0-0-0-0-0-0-|-----|-----|

------------------------Run Like Hell-----------------

Transcribed by www.mikesguitarsite.co.uk

Words & Music by Roger Waters & Dave Gilmour

Em      2 2 2 0 0 0
D       0 0 0 2 3 2
D5      0 0 0 2 3 x

all drop D tuning - D A D G B E
Gtr I, II, IV - 'overdrive w/flange + delay'
Gtr II - 'overdrive w/delay'


Intro
 4/4
  Gtr I
  S S S S Q  S S S S S S S S   S S S S S  E. H
|----------------------------|--------------------|
|----------------------------|--------------------|
|-x-x--------x-x---------x-x-|-----x-x-x----------|
|-x-x--------x-x---------x-x-|-----x-x-x----------|
|-----x-x--------x-x-x-x-----|-x-x----------------|
|-----x-x--------x-x-x-x-----|-x-x-------12\------|

                                  Q=116
  S S S S S S S S S S S S S S S S     Q      Q     H
|---------------------------------||------------------------------|
|---------------------------------||------------------------------|
|---------x-x-----x-x-----x-x-----||------------------------------|
|---------x-x-----x-x-----x-x-----||------------------------------|
|-------------x-x-----x-x-------x-||------------------------------|
|-x---x-x-----x-x-----x-x-----0-x-||-12\--------------------------|
|
|Gtr I, II
|                                     PM---------------------|
| W                                   E  S S e S S e S S e S S
|---------------------------------||------------------------------|
|---------------------------------||------------------------------|
|---------------------------------||------------------------------|
|---------------------------------||--0--0-0-0-0-0-0-0-0-0-0-0----|
|---------------------------------||------------------------------|
|---------------------------------||------------------------------|

  PM-------------------------------------------------
  e S S e S S e S S e S S   E S S e S S e S S e S S
|-------------------------|-------------------------|
|-------------------------|-------------------------|
|-------------------------|-------------------------|
|-0-0-0-0-0-0-0-0-0-0-0-0-|-0-0-0-0-0-0-0-0-0-0-0-0-|
|-------------------------|-------------------------|
|-------------------------|-------------------------|
                          |-Riff A

 --------------------------|
  E S S e S S  s S S S e S S
|-----------------------------|
|-----------------------------|
|-----------------------------|
|-0-0-0-0-0-0--0-0-0-0-0-0-0--|
|-----------------------------|
|-----------------------------|
                   end Riff A-|

  PM---------------------------------------------------
  e S S e S S e S S S S S S   E S S e S S S e S e S S
|---------------------------|-------------------------|
|---------------------------|-------------------------|
|---------------------------|-------------------------|
|-0-0-0-0-0-0-0-0-0-3p0---3p|=0-0-0-0-0-0-0-0-0-0-0-0-|
|-----------------------3---|-------------------------|
|---------------------------|-------------------------|


 -------------------------|
  E S S e S S s S S S e S S
|----------------------------||
|----------------------------||
|----------------------------||
|-0-0-0-0-0-0-0-0-0-0-0-0-0--||
|----------------------------||
|----------------------------||


w/Riff A x4
  Gtr III
   E  S  S  +S   E.      +H               +W
|-10-10-10-(10)--9-------(9)-----------|--(9)-------------------------|
|-10-10-10-(10)-10------(10)-----------|-(10)-------------------------|
|-11-11-11-(11)--9-------(9)-----------|--(9)-------------------------|
|--0--0--0--(0)--0-------(0)-----------|--(0)-------------------------|
|--------------------------------------|------------------------------|
|--------------------------------------|------------------------------|
|
| Gtr IV
|  E  S  S  +S   E.      +H               +W
|--2--2--2--(2)--0-------(0)-----------|--(0)-------------------------|
|--3--3--3--(3)--3-------(3)-----------|--(3)-------------------------|
|--2--2--2--(2)--2-------(2)-----------|--(2)-------------------------|
|--0--0--0--(0)--0-------(0)-----------|--(0)-------------------------|
|--------------------------------------|------------------------------|
|--------------------------------------|------------------------------|

  E S S +S  E.     +H              +W
|-7-7-7-(7)-5------(5)-----------|-(5)----------------------------|
|-8-8-8-(8)-7------(7)-----------|-(7)----------------------------|
|-7-7-7-(7)-7------(7)-----------|-(7)----------------------------|
|-0-0-0-(0)-0------(0)-----------|-(0)----------------------------|
|--------------------------------|--------------------------------|
|--------------------------------|--------------------------------|
|
| E S S +S  E.     +H              +W
|-----------2------(2)-----------|-(2)----------------------------|
|-3-3-3-(3)-3------(3)-----------|-(3)----------------------------|
|-0-0-0-(0)-2------(2)-----------|-(2)----------------------------|
|-0-0-0-(0)-0------(0)-----------|-(0)----------------------------|
|--------------------------------|--------------------------------|
|--------------------------------|--------------------------------|

  E S S +S  E.     +H              +H.                   S S E
|-5-5-5-(5)-3------(3)-----------|-(3)-------------------0-0-0---|
|-5-5-5-(5)-3------(3)-----------|-(3)-------------------2-2-2---|
|-6-6-6-(6)-4------(4)-----------|-(4)-------------------2-2-2---|
|-0-0-0-(0)-0------(0)-----------|-(0)-------------------2-2-2---|
|--------------------------------|-------------------------0-0---|
|--------------------------------|-------------------------------|
|
| E S S +S  E.     +H              +H.                   S S E
|--------------------------------|-------------------------------|
|-2-2-2-(2)-0------(0)-----------|-(0)---------------------------|
|-2-2-2-(2)-0------(0)-----------|-(0)-------------------x-x-2---|
|-0-0-0-(0)-0------(0)-----------|-(0)-------------------x-x-2---|
|--------------------------------|-----------------------x-x-0---|
|--------------------------------|-------------------------------|

  E E   H.                   +W
|-0-2---2------------------|-(2)----------------------------|
|-2-3---3------------------|-(3)----------------------------|
|-2-2---2------------------|-(2)----------------------------|
|-2-0---0------------------|-(0)----------------------------|
|-0------------------------|--------------------------------|
|--------------------------|--------------------------------|
|
| E E   H.                   +W
|--------------------------|--------------------------------|
|---3---3------------------|-(3)----------------------------|
|-2-2---2------------------|-(2)----------------------------|
|-2-0---0------------------|-(0)----------------------------|
|-0------------------------|--------------------------------|
|--------------------------|--------------------------------|


w/Riff A x4
     E  S  S  +S   E.      +H               +W
||--10-10-10-(10)--9-------(9)-----------|--(9)-------------------------|
||o-10-10-10-(10)-10------(10)-----------|-(10)-------------------------|
||--11-11-11-(11)--9-------(9)-----------|--(9)-------------------------|
||---0--0--0--(0)--0-------(0)-----------|--(0)-------------------------|
||o--------------------------------------|------------------------------|
||---------------------------------------|------------------------------|
|
|    E  S  S  +S   E.      +H               +W
||---2--2--2--(2)--0-------(0)-----------|--(0)-------------------------|
||o--3--3--3--(3)--3-------(3)-----------|--(3)-------------------------|
||---2--2--2--(2)--2-------(2)-----------|--(2)-------------------------|
||---0--0--0--(0)--0-------(0)-----------|--(0)-------------------------|
||o--------------------------------------|------------------------------|
||---------------------------------------|------------------------------|

  E S S +S  E.     +H              +W
|-7-7-7-(7)-5------(5)-----------|-(5)----------------------------|
|-8-8-8-(8)-7------(7)-----------|-(7)----------------------------|
|-7-7-7-(7)-7------(7)-----------|-(7)----------------------------|
|-0-0-0-(0)-0------(0)-----------|-(0)----------------------------|
|--------------------------------|--------------------------------|
|--------------------------------|--------------------------------|
|
| E S S +S  E.     +H              +W
|--------------------------------|--------------------------------|
|-3-3-3-(3)-3------(3)-----------|-(3)----------------------------|
|-0-0-0-(0)-2------(2)-----------|-(2)----------------------------|
|-0-0-0-(0)-0------(0)-----------|-(0)----------------------------|
|--------------------------------|--------------------------------|
|--------------------------------|--------------------------------|

  E S S +S  E.     +H              +H.                   +E  S S
|-5-5-5-(5)-3------(3)-----------|-(3)-------------------(3)-0-0-|
|-5-5-5-(5)-3------(3)-----------|-(3)-------------------(3)-2-2-|
|-6-6-6-(6)-4------(4)-----------|-(4)-------------------(4)-2-2-|
|-0-0-0-(0)-0------(0)-----------|-(0)-------------------(0)-2-2-|
|--------------------------------|---------------------------0-0-|
|--------------------------------|-------------------------------|
|
| E S S +S  E.     +H              +H.                   +E  S S
|--------------------------------|-------------------------------|
|-2-2-2-(2)-0------(0)-----------|-(0)-------------------(0)-----|
|-2-2-2-(2)-0------(0)-----------|-(0)-------------------(0)-2-2-|
|-0-0-0-(0)-0------(0)-----------|-(0)-------------------(0)-2-2-|
|--------------------------------|---------------------------0-0-|
|--------------------------------|-------------------------------|

  E E   H.                   +H.                   E S S
|-0-2---2------------------|-(2)---------------------0-0-|
|-2-3---3------------------|-(3)---------------------0-0-|
|-2-2---2------------------|-(2)---------------------5-5-|
|-2-0---0------------------|-(0)---------------------3-3-|
|-0-0---0------------------|-(0)---------------------3-3-|
|--------------------------|-------------------------3-3-|
|
| E E   H.                   +H.                   E S S
|--------------------------|-------------------------0-0-|
|---3---3------------------|-(3)---------------------0-0-|
|-2-2---2------------------|-(2)---------------------5-5-|
|-2-0---0------------------|-(0)---------------------3-3-|
|-0-0---0------------------|-(0)---------------------3-3-|
|---0---0------------------|-(0)---------------------3-3-|


  Gtrs III, IV
  W                      +H.                 E. S   W
|-0--------------------|-(0)-----------------0--0-|-0--------------------|
|-0--------------------|-(0)-----------------5--5-|-0--------------------|
|-5--------------------|-(5)-----------------5--5-|-9--------------------|
|-3--------------------|-(3)-----------------3--3-|-7--------------------|
|-3--------------------|-(3)-----------------3--3-|-7--------------------|
|-3--------------------|-(3)-----------------3--3-|-7--------------------|
|
| Gtrs I, II
| PM----------------------------------------------------------------|
| e e e S S S S S S Q     e  e e S S S S S S Q      e e E S S S S S S Q
|----------------------|--------------------------|----------------------|
|----------------------|--------------------------|----------------------|
|----------------------|--------------------------|----------------------|
|-3-1-3-1h3-3p1-1-3----|--3--1-3-1h3-3p1-1-3------|-7-5-7-5h7-7p5-5-7----|
|----------------------|--------------------------|----------------------|
|----------------------|--------------------------|----------------------|


  +H          +E   E   S S E
|-(0)---------(0)--0---0-0-0-|
|-(0)---------(0)--0---0-0-0-|
|-(9)---------(9)--9---9-9-9-|
|-(7)---------(7)--7---7-7-7-|
|-(7)---------(7)--7---7-7-7-|
|-(7)---------(7)--7---7-7-7-|
|
|  PM----------------|
|  e  e E S S  S S S S Q
|----------------------------|
|----------------------------|
|----------------------------|
|--7--5-7-5h7--7p5-5-7-------|
|----------------------------|
|----------------------------|


  W                       +W
|-----------------------|----------------------------|
|-3---------------------|-(3)------------------------|
|-2---------------------|-(2)------------------------|
|-0---------------------|-(0)------------------------|
|-0---------------------|-(0)------------------------|
|-0---------------------|-(0)------------------------|
|
| PM----------------------------------------------|
| e e e E S S S S E S S    e  e e S S E S S S S S S
|-----------------------|----------------------------|
|-----------------------|----------------------------|
|-----------------------|----------------------------|
|-0---0---0-0---0---0-0-|--0----0-----0---0-3p0---3p=|
|---3---3-----3---------|-----3---3-3-----------3----|
|-----------------------|----------------------------|


  +W
|---------------------------|
|-(3)-----------------------|
|-(2)-----------------------|
|-(0)-----------------------|
|-(0)-----------------------|
|-(0)-----------------------|
|
|  PM------------------------
|  e  e e S S S S S S E S S
|---------------------------|
|---------------------------|
|---------------------------|
|--0----0-----0-0---0---0-0-|
|-----3---3-3-----3---------|
|---------------------------|


                            Verse 1 & 2 & Synth Solo
                          $
  H         Q       E S S    +W
|---------------------0-0-||-(0)--------------------|
|---------------------0-0-||-(0)--------------------|
|---------------------0-0-||-(0)--------------------|
|---------------------2-2-||-(2)--------------------|
|---------------------2-2-||-(2)--------------------|
|---------------------2-2-||-(2)--------------------|
|
|------------------------------------------------|
| e e e S S S S S S E S S     e  e e S S S S S S Q
|-------------------------||------------------------|
|-------------------------||------------------------|
|-------------------------||------------------------|
|-0---0-----0-0---0---0-0-||--2--0-2-0h2-2p0-0-2----|
|---3---3-3-----3---------||------------------------|
|-------------------------||------------------------|


  +H.                 E S S   W                      +H.                 E S S
|-(0)-----------------0-0-0-|-0--------------------|-(0)-----------------0-0-0-|
|-(0)-----------------0-0-0-|-0--------------------|-(0)-----------------0-0-0-|
|-(0)-----------------0-0-0-|-0--------------------|-(0)-----------------0-0-0-|
|-(2)-----------------2-2-2-|-3--------------------|-(3)-----------------3-2-2-|
|-(2)-----------------2-2-2-|-3--------------------|-(3)-----------------3-2-2-|
|-(2)-----------------2-2-2-|-3--------------------|-(3)-----------------3-2-2-|
|
|  PM--------------------------------------------------------------------|
|  e  e e S S S S S S Q       E E E S S s S S s Q     E  E E S S s S S s Q
|---------------------------|----------------------|---------------------------|
|---------------------------|----------------------|---------------------------|
|---------------------------|----------------------|---------------------------|
|--2--0-2-0h2-2p0-0-2-------|-3-1-3-1-2-3p1-1-3----|--3--1-3-1-2-3p1-1-3-------|
|---------------------------|----------------------|---------------------------|
|---------------------------|----------------------|---------------------------|


  W                      +H.                 E S S   +W
|-0--------------------|-(0)-----------------0-0-0-|-(0)---------------------|
|-0--------------------|-(0)-----------------0-0-0-|-(0)---------------------|
|-0--------------------|-(0)-----------------0-0-0-|-(0)---------------------|
|-2--------------------|-(2)-----------------2-2-2-|-(2)---------------------|
|-2--------------------|-(2)-----------------2-3-3-|-(3)---------------------|
|-2--------------------|-(2)-----------------2-----|-------------------------|
|
| PM---------------------------------------------------------------------|
| e e e S S S S S S Q     e  e e S S S S S S Q        E  e e S S S S S S Q
|----------------------|---------------------------|-------------------------|
|----------------------|---------------------------|-------------------------|
|----------------------|---------------------------|-------------------------|
|-2-0-2-0-2-2p0-0-2----|--2--0-2-0-2-2p0-0-2-------|-------------------------|
|----------------------|---------------------------|--3--1-3-1-2-3p1-1-3-----|
|----------------------|---------------------------|-------------------------|


  +H.                 +E  S S
|-(0)-----------------(0)-0-0-|
|-(0)-----------------(0)-0-0-|
|-(0)-----------------(0)-0-0-|
|-(2)-----------------(2)-4-4-|
|-(3)-----------------(3)-2-2-|
|-----------------------------|
|
|  PM--------------------------
|  E  e e S S S S S S  Q
|-----------------------------|
|-----------------------------|
|-----------------------------|
|-----------------------------|
|--3--1-3-1-2-3p1-1-3---------|
|-----------------------------|


  W                      +H.                 S S S S
|-0--------------------|-(0)-----------------0-0-0-0--|
|-0--------------------|-(0)-----------------0-0-0-0--|
|-0--------------------|-(0)-----------------0-0-0-0--|
|-4--------------------|-(4)-----------------4-4-4-4--|
|-2--------------------|-(2)-----------------2-2-2-2--|
|----------------------|------------------------------|
|
|--------------------------------------------|
| e e e S S S S S S Q     e  e e S S S S S S Q
|----------------------|------------------------------|
|----------------------|------------------------------|
|----------------------|------------------------------|
|----------------------|------------------------------|
|-2-0-2-0-2-2p0-0-2----|--2--0-2-0-2-2p0-0-2----------|
|----------------------|------------------------------|


                                              To Coda
  Em                                             D
  Gtrs III, IV
    W                      +H.                 E S S
    |                       |                  | | |
    /                       /                  / / /

                                                     Gt
  a e e e S S S S S S Q     e  e e S S S S S S Q
|------------------------|---------------------------||
|------------------------|---------------------------||
|------------------------|---------------------------||
|-0h2-0-2-0-2-2p0-0-2----|--2--0-2-0-2-2p0-0-2-------||
|------------------------|---------------------------||
|------------------------|---------------------------||


Synth Solo enters 2nd time see below main score
  W
  |
  /
  PM----------------------|
  E S S e S S e   S S e S S
|---------------------------|
|---------------------------|
|---------------------------|
|-0-0-0-0-0-0-0---0-0-0-0-0-|
|---------------------------|
|---------------------------|
|
|r II
| e e   e S S S S S S Q
|---------------------------|
|---------------------------|
|---------------------------|
|-0-----0---0-0-0---0-------|
|---3-----3-------3---------|
|---------------------------|


  +W                                   +W
   |                                    |
   /                                    /

   PM-----------------------------------------------------------|
   E S S e   S S s S S S e       S S    E S S e S S e   S S e S S
|------------------------------------|----------------------------|
|------------------------------------|----------------------------|
|------------------------------------|----------------------------|
|--0-0-0-0---0-0-0-0-0-0-0-------0-0-|--0-0-0-0-0-0-0---0-0-0-0-0-|
|------------------------------------|----------------------------|
|------------------------------------|----------------------------|
|
|  e e   S S S S e   S S S     S S S    e e   e S S S S S S Q
|------------------------------------|----------------------------|
|------------------------------------|----------------------------|
|------------------------------------|----------------------------|
|--0-----0-----0-0-----0-3b3.5p0---3-|--0-----0---0-0-----0-------|
|----3-----3p0-------------------3---|----3-----3-----3p0---------|
|------------------------------------|----------------------------|


  1.                            2.
                                                        D.S. al Coda
                                Gtrs I, II
  PM------------------------------------------------|
  E S S e S S s S S S e S S     e S S e S S S S S S Q
|----------------------------||---------------------------||
|---------------------------o||---------------------------||
|----------------------------||---------------------------||
|-0-0-0-0-0-0-0-0-0-0-0-0-0--||-0-----0-----0-----0-------||
|---------------------------o||---3-4---3-4---3p0---------||
|----------------------------||---------------------------||
|
|                               Gtr III
| PM------------------|
| e e   e S S S S S S Q         H           Q       E  E
|----------------------------||------------------------0--||
|---------------------------o||------------------------0--||
|----------------------------||------------------------0--||
|-0-----0---0-0-----0--------||------------------------2--||
|---3-----3-----3p0---------o||------------------------2--||
|----------------------------||------------------------2--||


 Breakdown
  &
  D5
  Gtrs III, IV
  W                         +W
  |                          |
  /                          /

  Gtrs I, II
  PM-----------------------------------------|
  e S S e S S e S S e S S    e S S e S S e S S S S S S
|-------------------------|-----------------------------|
|-------------------------|-----------------------------|
|-------------------------|-----------------------------|
|-0-0-0-0-0-0-0-0-0-0-0-0-|--0-0-0-0-0-0-0-0-0-3p0---3p=|
|-------------------------|------------------------3----|
|-------------------------|-----------------------------|


  +W                           W
   |
   /

   PM------------------------------------------------|
   e S S e S S S S S S e S S   E S S E S S E S S S S E
|----------------------------|-------------------------|
|----------------------------|-------------------------|
|----------------------------|-------------------2p0---|
|--0-0-0-0-0-0-0-0-0-0-0-0-0-|-0-0-0-0-0-0-0-0-0-----3-|
|----------------------------|-------------------------|
|----------------------------|-------------------------|


  PM  PM-----------------------
  s S S S e S S S S S S e S S
|-----------------------------|
|-----------------------------|
|-----------------------------|
|-----0-0-0-0-0-0-0-0-0-0-0-0-|
|-3s5-------------------------|
|-----------------------------|


 -------------------|           PM----------------------|
  e S S e S S S S S S S S S S   e S S e S S S S S S e S S
|-----------------------------|----------------------------|
|-----------------------------|----------------------------|
|-----------------------------|----------------------------|
|-0-0-0-0-0-0-0-0-0-0-3p0---3p|=0-0-0-0-0-0-0-0-0-0-0-0-0--|
|-------------------------3---|----------------------------|
|-----------------------------|----------------------------|


  PM--------------|
  E S S E S S E S S S S S S
|---------------------------|
|---------------------------|
|-------------------2p0---2-|
|-0-0-0-0-0-0-0-0-0-----3---|
|---------------------------|
|---------------------------|


   E       +E    Q     H             e S S e S S e S S S S S S
|-13b14---(13)---------------------|---------------------------|
|----------------------------------|---------------------------|
|----------------------------------|-------------------2p0-----|
|--------------0-0-0-0-0-0-0-0-0-0-|-0-0-0-0-0-0-0-0-0-----3p0-|
|--3s===5--------------------------|---------------------------|
|----------------------------------|---------------------------|
   s    E      S e S S S E S e S S


  PM--------------------------------------------|
  e S S e S S S S S S e S S   e S S e S S S S S S S S S S
|---------------------------|-----------------------------|
|---------------------------|-----------------------------|
|---------------------------|-----------------------------|
|-0-0-0-0-0-0-0-0-0-0-0-0-0-|-0-0-0-0-0-0-0-0-0-0-3p0---3p|
|---------------------------|-------------------------3---|
|---------------------------|-----------------------------|


  PM----------------------|
  e S S e S S S S S S e S S
|-----------------------------|
|-----------------------------|
|-----------------------------|
|-0-0-0-0-0-0-0-0-0-0-0-0-0---|
|-----------------------------|
|-----------------------------|


  PM---------------------------------------------------
  e S S e S S e S S e S S   e S S e S S S S S S e S S
|-------------------------|---------------------------|
|-------------------------|---------------------------|
|-------------------------|---------------------------|
|-0-0-0-0-0-0-0-0-0-0-0-0-|-0-0-0-0-0-0-0-0-0-0-0-0-0-|
|-------------------------|---------------------------|
|-------------------------|---------------------------|


 -----------------|
  e S S e S S e S S S S S S
|-----------------------------|
|-----------------------------|
|-----------------------------|
|-0---0-0-0-0-0-0-0-3p0-3-3p==|
|---3-------------------------|
|-----------------------------|


  PM----------------------------------------------|
  e S S e S S S e S e S S   e S S e S S e S S e S S
|-------------------------|-------------------------|
|-------------------------|-------------------------|
|-------------------------|-------------------------|
|-0---0-0-0-0-0-0-0-0-0-0-|-0-0-0-0-0-0-0-0-0-0-0-0-|
|---3---------------------|-------------------------|
|-------------------------|-------------------------|


                  PM--------|
  S S S S S S S S e S S e S S
|------------------------------|
|------------------------------|
|------------------------------|
|-----0-----0-----0-0-0-0-0-0--|
|-3s5---3s5---3s5--------------|
|------------------------------|


  PM--------------|
  e S S e S S e S S S S S S
|---------------------------|
|---------------------------|
|-------------------2p0---2p|
|-0-0-0-0-0-0-0-0-0-----3---|
|---------------------------|
|---------------------------|


    PM--------------------------------------------|
  e S S e S S S e S e S S   e S S e S S S e S e S S
|-------------------------|-------------------------||
|-------------------------|-------------------------||
|-0-----------------------|-------------------------||
|---0-0-0---0-0-0-0-0-0-0-|-0---0-0---0-0-0-0-0-0-0-||
|---------3---------------|---3-----3---------------||
|-------------------------|-------------------------||


 Outro
w/Riff A
  Gtr III
   E  S  S  +S   E.      +H               +W
|-10-10-10-(10)--9-------(9)-----------|--(9)-------------------------|
|-10-10-10-(10)-10------(10)-----------|-(10)-------------------------|
|-11-11-11-(11)--9-------(9)-----------|--(9)-------------------------|
|--0--0--0--(0)--0-------(0)-----------|--(0)-------------------------|
|--------------------------------------|------------------------------|
|--------------------------------------|------------------------------|
|
| Gtr IV
|  E  S  S  +S   E.      +H               +W
|--2--2--2--(2)--0-------(0)-----------|--(0)-------------------------|
|--3--3--3--(3)--3-------(3)-----------|--(3)-------------------------|
|--2--2--2--(2)--2-------(2)-----------|--(2)-------------------------|
|--0--0--0--(0)--0-------(0)-----------|--(0)-------------------------|
|--------------------------------------|------------------------------|
|--------------------------------------|------------------------------|

  E S S +S  E.     +H              +W
|-7-7-7-(7)-5------(5)-----------|-(5)----------------------------|
|-8-8-8-(8)-7------(7)-----------|-(7)----------------------------|
|-7-7-7-(7)-7------(7)-----------|-(7)----------------------------|
|-0-0-0-(0)-0------(0)-----------|-(0)----------------------------|
|--------------------------------|--------------------------------|
|--------------------------------|--------------------------------|
|
| E S S +S  E.     +H              +W
|-----------2------(2)-----------|-(2)----------------------------|
|-3-3-3-(3)-3------(3)-----------|-(3)----------------------------|
|-0-0-0-(0)-2------(2)-----------|-(2)----------------------------|
|-0-0-0-(0)-0------(0)-----------|-(0)----------------------------|
|--------------------------------|--------------------------------|
|--------------------------------|--------------------------------|
|
|------------------------------------------------------------|
| E S S  e     S S  e  S S e S S    E  S S e S S s S S S e S S
|--------------------------------|--------------------------------|
|--------------------------------|--------------------------------|
|--------------------------------|--------------------------------|
|-0-0-0--0-----0-0--0--0-0-0-0-0-|--0--0-0-0-0-0-0-0-0-0-0-0-0----|
|--------------------------------|--------------------------------|
|--------------------------------|--------------------------------|


  E S S +S  E.     +Q.       E     E E E E E E E E   E E E E +H
|-5-5-5-(5)-3------(3)-------3---|-3-3-3-3-3-3-3-3-|-3-3-2-2-(2)----*|
|-5-5-5-(5)-3------(3)-------3---|-3-3-3-3-3-3-3-3-|-3-3-3-3-(3)----*|
|-6-6-6-(6)-4------(4)-------4---|-4-4-4-4-4-4-4-4-|-4-4-2-2-(2)----*|
|-0-0-0-(0)-0------(0)-------0---|-0-0-0-0-0-0-0-0-|-0-0-0-0-(0)----*|
|--------------------------------|-----------------|-----0-0-(0)----*|
|--------------------------------|-----------------|-----0-0-(0)----*|
|
| E S S +S  E.     +Q.       E     E E E E E E E E   E E E E +H
|--------------------------------|-----------------|----------------*|
|-2-2-2-(2)-0------(0)-------0---|-0-0-0-0-0-0-0-0-|-0-0-3-3-(3)----*|
|-2-2-2-(2)-0------(0)-------0---|-0-0-0-0-0-0-0-0-|-0-0-2-2-(2)----*|
|-0-0-0-(0)-0------(0)-------0---|-0-0-0-0-0-0-0-0-|-0-0-0-0-(0)----*|
|--------------------------------|-----------------|-----0-0-(0)----*|
|--------------------------------|-----------------|-----0-0-(0)----*|
|
| PM---------------------------------------------------------|
| E S S  e     S S  e  S S e S S   E E E E E E E E   E E E E +H
|--------------------------------|-----------------|----------------*|
|--------------------------------|-----------------|----------------*|
|--------------------------------|-----------------|----------------*|
|-0-0-0--0-----0-0--0--0-0-0-0-0-|-0-0-0-0-0-0-0-0-|-0-0-0-0-(0)----*|
|--------------------------------|-----------------|----------------*|
|--------------------------------|-----------------|----------------*|


 Synth Solo arr. for guitar
  Gtrs I, II
                       ~~~~~~~~~~~~~~~~~~
  W          +H.      +Q     +W
|----------|---------------|------------|
|----------|---------------|------------|
|-7--------|-(7)------(7)--|-(7)--------|
|----------|---------------|------------|
|----------|---------------|------------|
|----------|---------------|------------|


                                 \1/
 ~~~~~               ~~~~~~~~~~~~~~~~
  +H.       S  E.    W           W
|-------------10--||----------|---------|
|----------10-----||----------|-12------|
|-(7)-------------||-9--------|---------|
|-----------------||----------|---------|
|-----------------||----------|---------|
|-----------------||----------|---------|


                              \1/
   ~~~               ~~~              ~~~~~~~~
   H.       E.  S    H.       Q       H     H
|----------13-----|-13-------13----|-12----------|
|-13-----------13-|----------------|-------12----|
|-----------------|----------------|-------------|
|-----------------|----------------|-------------|
|-----------------|----------------|-------------|
|-----------------|----------------|-------------|


             ~~~~~~~~~~~~~            ~             ~~
   S  S  E  +H.         W           a W          a  W
|-12----12-(12)------|-15--------|-15s8--------|-8s14----|
|----12--------------|-----------|-------------|---------|
|--------------------|-----------|-------------|---------|
|--------------------|-----------|-------------|---------|
|--------------------|-----------|-------------|---------|
|--------------------|-----------|-------------|---------|


      ~~~~~~~~~~~              ~~~~~~~~~~~
   a  H.       Q     H.       +Q      +H.      Q     W
|-14s19-------17--|-19-------(19)--|-(19)---------|-15b17=========|
|-----------------|----------------|--------------|---------------|
|-----------------|----------------|--------------|---------------|
|-----------------|----------------|--------------|---------------|
|-----------------|----------------|--------------|---------------|
|-----------------|----------------|--------------|---------------|


    ~~~~~~~~~~~~~~~~~
   +W            +W            +Q    +Q    +Q    +Q
|-(15)--------|-(15)--------|-(15)r=(15)--(15)--(15)b17----*|
|-------------|-------------|------------------------------*|
|-------------|-------------|------------------------------*|
|-------------|-------------|------------------------------*|
|-------------|-------------|------------------------------*|
|-------------|-------------|------------------------------*|


-----------------Waiting for the Worms------------

Transcription by: Daniele Rongione


WAITING FOR THE WORMS
Pink Floyd
(Roger Waters)

 G   C   G                       C
Ooh Ooh Ooh You cannot reach me now
 G                      C
Ooh No matter how you try

(with distortion)
e-|-------------------------------------------------------|
B-|-------------------------------------------------------|
G-|-------------------------------------------------------|
D-|--x--x--7-----------------------5----------------------|
A-|--x--x--5-----------------------3-------------5--------|
E-|----------------------------------------------3--------|
          Goodbye cruel world it's over walk on by


 G                          G    D  C    C B Am
Sitting in a bunker here behind my wall
 Am              G        C
Waiting for the worms to come
    G                        G    D  C    C B Am
In perfect isolation here behind my wall
  Am              G        C
Waiting for the worms to come

(powerchords with distortion)
A                               G A
Waiting to cut up the deadwood
                              G A
Waiting to clean up the city
            G          A
Waiting to follow the worms
                                G A
Waiting to put on a black shirt
                                  G A
Waiting to weed out the weaklings
                                                          G A
Waiting to smash in their windows and kick in their doors
                                                         G A
Waiting for the final solution to strengthen the strain
            G          A
Waiting to follow the worms
                                                   G A
Waiting to turn on the showers and fire the ovens
                                                               G A
Waiting for the queers and the coons and the reds and the jews
            G          A
Waiting to follow the worms

G                                    D C             C B Am
Would you like to see Britannia rule again my friend
Am                     G          C      Riff1 x 2
All you have to do is follow the worms
G                                                D C             C B Am
Would you like to send our coloured cousins home again my friend
Am                     G          C      Riff1 x 20
All you need to do is follow the worms

[Segue to "Stop"]

Riff1
-----
(with distortion)
e-|------------------------------|
B-|------------------------------|
G-|------------------------------|
D-|---2--------------------------|
A-|---2--------------------------|
E-|---0---2vv---3vv---2vvvvvvv---|


-------------------------Stop--------------------

Transcription by: Daniele Rongione

STOP
Pink Floyd
(Waters)

Em  Bm

   A        C
I wanna go home
Em               Bm
   take off this uniform
     A          C
and leave the show
         Em              Bm
and I'm waiting in this cell
           A            C
because I have to know
Em              Bm              A      C
   have I been guilty all this time?
Em  G  A  C

--------------------The Trial-----------------

THE TRIAL
Pink Floyd
(Waters/Ezrin)

Fm
Good morning worm your honour

The crown will plainly show
    Gb/F
The prisoner who now stands before you
                              Fm
Was caught red handed showing feelings
                                    D
Showing feelings of an almost human nature
              C7
This will not do

Call the schoolmaster
Fm
I always said he'd come to no good

In the end your honour
          G/F
If they'd let me have my way I could
     Fm
Have flayed him into shape
Ab
But my hands were tied
    Ao
The bleeding hearts and artists
        Eb
Let him get away with murder

Let me hammer him today
Fo Fm                         Cmaj7 C
Crazy  toys in the attic I am cra---zy, truly gone fishing
Gm   Eb                           Eo
       They must have taken my marbles away
Fo Fm                         Cmaj7 C
Crazy  toys in the attic I am cra---zy
Call the defendants wife
Fm
You little shit, you're in it now
                           F7-9
I hope they throw away the key

You should have talked to me more often
                         Fm
Than you did, but no you had to

Go your own way. Have you broken any

Homes up lately?
Db
"Just five minutes Worm your honour
C
Him and me alone"
Fo
Babe
Gm             G           Cm
Come to mother baby let me hold you
G     Cm
In my arms
  Ab                        Ao
M'lud I never wanted him to get in any trouble
         Eb/Bb
Why'd he ever have to leave me

Worm your honour let me take him home
Fo Fm                       Cmaj7 C
Crazy over the rainbow I am cra---zy
                     Gm
Bars in the window
      Eb                                 Eo
There must have been a door there in the wall

When I came in
Fo Fm                        Cmaj7 C
Crazy over the rainbow he is cra---zy
    Fm
The evidence before the court is
                          Bbm
Incontravertable, there's no need for

The jury to retire
   Fm
In all my years of judging

I have never heard before of
Bbm
Someone more deserving

The full penalty of law
    Fm
The way you made them suffer

Your exquisite wife and mother
Bbm
Fills me with the urge to defecate
Fm
Since, my friend, you have revealed your

Deepest fear
  Bbm
I sentence you to be exposed before

Your peers.
Fm                    Bbm
Tear down the wall.


-----------------Outside the Wall----------------

Transcription by:  ?

OUTSIDE THE WALL
Pink Floyd
(Waters)


C             F  C
All alone, or in twos
C                   F    C
The ones who really love you
G                  G7        C     F  C
Walk up and down outside the wall
C         F  C
Some hand in hand
                 F        C
Some gathered together in bands
    G
The bleeding hearts and artists
           C     F  C
Make their stand
                           F     C
And when they've given you their all
                 Am          F            C
Some stagger and fall, after all it's not easy
G7
Banging your heart against some mad buggers
C
Wall
comments
print report bad tab
13 comments total. Showing first comments. show 1 bad comment
+1 reply
Iboseth wrote on March 1 2005, 12:00 am

Thanks dude

0 reply
Pink_Floyd_Net wrote on March 1 2005, 12:00 am

There mistakes!!!!.....lots

I want to post or [tab]
guest
You may want to rate the tab now too:
select rating
Please do not post tabs as comments. Select "correction" instead!