Oops, an error
Loading. Please wait.

The Wall Tab

ver2
ver2

Album

More versions @911Tabs.com
33,799 views 51 this week
1 commentread comment
1 2 3 4 5
excellent!
x 3
add to favorites launch autoscroll
font size
0
reset
Autoscroll
+/-
esc
set tempo
stop
Contributor
WARNING: You are trying to view
                                    content from Ultimate-Guitar.com
                                    in an unauthorized application,
                                    which is prohibited.

                                    Please use an official Ultimate
                                    Guitar Tabs application for iPhone,
                                    iPad or Android to access legitimate
                                    chords, guitar, bass, and drum tabs
                                    from Ultimate-Guitar.com database.

                                    Type "ultimate guitar tabs" in Apple
                                    App Store's or Android Market's
                                    search to find the application.
Send "When The Tigers Broke Free" to Cell Phone

#-----------------------------Please Note---------------------------------#
# This file is the author's own work and represents their interpretation  #
# ofthe song. You may only use this file for private study, scholarship   #
# or research.                                                            #
#-------------------------------------------------------------------------#

            Pink Floyd "When The Tigers Broke Free" (Roger Waters)
		   from "The Wall", only in the movie

Tabbed by: torsten lasse
Email: t.lasse@uni-bonn.de 2004

Originally no guitar in it, but here it is for the soloists...

Tuning:
C A D G B E

4/4
     It was...
 |   |   |   |    |   |   |   |    |   |   |   |    |   |   |   |
|----------------|3-----------1---|0---------0-----|----------------|
|1-----------3-1-|1---------------|1-----------3-1-|3---------------|
|0---------------|0---------------|0---------------|--0-0-------0---|
|----------------|------------3---|2---------------|----------------|
|3---3---3---3---|3---3---3---3---|3---3---3---3---|2---2---2---2---|
|0---------------|0---------------|0---------------|----------------|

...forward...
 |   |   |   |    |   |   |   |    |   |   |   |    |   |   |   |
|----------------|3-----------3---|3-----------5---|3---------------|
|1-----------3-1-|1---------------|1---------------|1---------------|
|0---------------|0---------------|0---------------|0---------------|
|----------------|----------------|------------3---|2---------------|
|3---3---3---3---|3---3---3---3---|3---3---3---3---|3---3---3---3---|
|0---------------|0---------------|0---------------|0---------------|

     ...be withdrawn....
 |   |   |   |    |   |   |   |    |   |   |   |    |   |   |   |
|3-----------5-3-|0-----------0---|----------------|0---------------|
|1---------------|1---------------|3---------3-1-3-|1---------------|
|0---------------|0---------------|0---------------|0-0-0-------0---|
|------------3---|2---------------|----------------|----------------|
|3---3---3---3---|3---3---3---3---|2---2---2---2---|3---3---3---2---|
|0---------------|0---------------|----------------|0---0-----------|

...Anzio...		   ...few hundred ordinary lives.
 |   |   |   |    |   |   |   |    |   |   |   |    |   |   |   |
|----------------|3-----------1---|0---------------|----------------|
|1-----------3-1-|1---------------|1---1-------1---|1---------------|
|0---------------|0---------------|0---0-------0---|0---------------|
|----------------|------------3---|2-----------3---|2---------------|
|3---3---3---3---|3---3---3---3---|3---3---3---3---|3---------------|
|0---------------|0---------------|0---------------|0---------------|

(play 4x, Intro/Verse1/Verse2/Verse3)

(It was just before dawn
One miserable morning in black 'forty four.
When the forward commander
Was told to sit tight
When he asked that his men be withdrawn.
And the Generals gave thanks
As the other ranks held back
The enemy tanks for a while.
And the Anzio bridgehead
Was held for the price
Of a few hundred ordinary lives.)

And kind-old King George
Sent Mother a note
When he heard that father was gone.
It was a recall
In the form of a scroll,
With gold leaf and all.
And I found it one day
In a drawer of old photographs, hidden away.
And my eyes still grow damp to remember
His Majesty signed
With his own rubber stamp.

It was dark all around.
There was frost in the ground
When the tigers broke free.
And no one survived
From the Royal Fusiliers Company C.
They were all left behind,
Most of them dead,
The rest of them dying.
And that's how the High Command
Took my daddy from me.

#------------------------------------------------------------------2004---#

----------------------------------PLEASE NOTE------------------------------
This file is the author's own work and represents their interpretation of
the song. You may only use this file for private study, scholarship, or
research.
---------------------------------------------------------------------------
TAB by:  Jacob Sudol (sudol@azstarnet.com)


IN THE FLESH ?
Pink Floyd
(Waters)

INTRO:
e-|-------------------|-----------------------------|--------------0-----|
B-|-------------------|-----------------------------|-8----\--3----0-----|
G-|-------------------|-----------------------------|-7----\--2----------|
D-|-------------------|-----------------------------|--------------------|
A-|-------------------|---------0-------2---3vvvvv--|--------------------|
E-|--0--------2vvvvv--|-3vvvvv----------------------|--------------------|

|---------0------------0-----------------------------------------------|
|------------3------------3--------------------------------------------|
|-2>(4)-0------2>(4)-0------2>(4)--2-0---------------------------------|
|--------------------------------------2-0-----------------------------|
|------------------------------------------2-1-0---------2vvvvvvv------|
|------------------------------------------------3>(4)p0---------------|

|-2vvvvv---4vvvvv---5vvvvv---4vvvvv-|-2vvvvv---4vvvvv---5vvvvv---7vvvvv-|
|-3vvvvv---5vvvvv---6vvvvv---5vvvvv-|-3vvvvv---5vvvvv---6vvvvv---8vvvvv-|
|-2vvvvv---4vvvvv---5vvvvv---4vvvvv-|-2vvvvv---4vvvvv---5vvvvv---7vvvvv-|
|-0vvvvv---0vvvvv---0vvvvv---0vvvvv-|-0vvvvv---0vvvvv---0vvvvv---0vvvvv-|
|-----------------------------------|-----------------------------------|
|-----------------------------------|-----------------------------------|

%
|-------------------------|-----------------------------|
|-------------------------|-----------------------------|
|-(2)---------------------|----x------------------------|
|-(2)---------------------|----x-x----------------------|
|--0---2>(4)-2vvvvv--0----|----x-x--4>(5)-4vvvvv-2vvvvv-|
|-----------------------2>|(4)---x----------------------|

|-------------------------|-----------------------------|
|-------------------------|-----------------------------|
|-------------------------|-----------------------------|
|--2----------------------|-----------------------------|
|--0---2>(4)-2vvvvv--0----|----x-x--4>(5)-4vvvvv-2vvvvv-|
|-----------------------2>|(4)-x-x----------------------|

|-------------------------|-----------------------------|
|-------------------------|-----------------------------|
|--2----------------------|----x------------------------|
|--2----------------------|----x------------------------|
|--0---2>(4)-2vvvvv--0--1-|-2v---x--4>(5)-4vvvvv-2---3--|
|-------------------------|-----------------------------|

                               %
|------------------------------|
|------------------------------|
|--------x---------------------|
|--------x---------------------|
|--4vvvv---5>(7)-5vvvvv-4------|
|-------------------------12\--|

VERSE:
|------------------|------------------|----------2-------|----------2-------|
|----------2-------|----------2-------|-------3-----3----|-------3-----3----|
|-------2-----2----|-------2-----2----|----2-----------2-|----2-----------2-|
|----2-----------2-|----2-----------2-|-0----------------|-0----------------|
|-0----------------|-0----------------|------------------|------------------|
|------------------|------------------|------------------|------------------|

|------------------|------------------|----------2-------|----------2-------|
|----------2-------|----------2-------|-------3-----3----|-------3-----3----|
|-------2-----2----|-------2-----2----|----2-----------2-|----2-----------2-|
|----2-----------2-|----2-----------2-|-0----------------|-0----------------|
|-0----------------|-0----------------|------------------|------------------|
|------------------|------------------|------------------|------------------|

|------------------|------------------|------------------|------------------|
|----------2-------|----------2-------|----------3-------|----------3-------|
|-------2-----2----|-------2-----2----|-------4-----4----|-------4-----4----|
|----2-----------2-|----2-----------2-|----4-----------4-|----4-----------4-|
|-0----------------|-0----------------|-2----------------|-2----------------|
|------------------|------------------|------------------|------------------|

|------------------|------------------|----------0-------|----------0-------|
|----------5-------|----------5-------|-------------0----|-------------0----|
|-------6-----6----|-------6-----6----|-------1--------1-|-------1--------1-|
|----6-----------6-|----6-----------6-|----2-------------|----2-------------|
|-4----------------|-4----------------|------------------|------------------|
|------------------|------------------|-0----------------|-0----------------|

Repeat that over the verse two more times, except on the third time,
replace the last three measures with:

|------------------|------------------|------------------|
|----------5-------|------------------|------------------|
|-------6----------|------------------|------------------|
|----6-------------|--2---------------|------------------|
|-4----------------|--2---------------|------------------|
|--------------12\-|--0---------------|------------------|

then repeat the measures between the percent signs in the intro, and end
with:

|------------------|--/--|-----|
|------------------|--/--|-----|
|------------------|--2--|--2--|
|--2---2-2-2-2-2-2-|--2--|--2--|
|--2---2-2-2-2-2-2-|--0--|--0--|
|--0---0-0-0-0-0-0-|-----|-----|


--
Updated:  April 10/98
------------------------------------------------------------------------------|
----------------------------------PLEASE NOTE---------------------------------|
This file is the author's own work and represents their interpretation of
the song. You may only use this file for private study, scholarship, or
research.
---------------------------------------------------------------------------
Transcription by:  ?

THE THIN ICE
Pink Floyd
(Waters)

INTRO:(with baby crying)
C           Am7           Fmaj9       G
C     G     F     C/G     Am7

VERSE:
C               Am
Mamma loves her baby
F               G
and daddy loves you too
C                    Am
and the sea may look warm to you babe
F                    G
and the sky may look blue

C  G  F  C/G  Am
Ooooooooooooh babe
C  G  F  C/G  Am    Am7  Am6
Oooooooh baby blue
C  G  F  C  Am  D7  G
Ooooooooooh ooooooh babe

C                Am
If you should go skating
       F                        G
On the thin ice of modern life
C                       Am
Dragging behind you the silent reproach
     Fmaj7                 G
Of a million  tear stained eyes
C                         Am
Dont be surprised, when a crack in the ice
F                  G
Appears under your feet
         C                     Am
You slip out of your depth and out of your mind
          F                        G
With your fear flowing out  behind you
N.C.
As you claw the thin ice

SOLO:
   Gtr. 1
e-|-----------------------------------------------------------------|
B-|-----------------------------------------------------------------|
G-|-7B(9)---R---(7)-7~~~~~~~~~~~~~~~7B(10)--R---(7)-7B(9)-----------|
D-|-----------------------------------------------------------------|
A-|-----------------------------------------------------------------|
E-|-----------------------------------------------------------------|
  | Gtr. 2
e-|-----------------------------------------------------------------|
B-|-----------------------------------------------------------------|
G-|-9---------------7---------X-X-X-10--------------9---------------|
D-|-9---------------7---------X-X-X-10--------------9---------------|
A-|-7---------------5---------X-X-X-8---------------7---------------|
E-|----------------------------------------------------------X-12\--|

                                                              w/bar
|-----------------5---5----------------------------------------------|
|---------------5---8------------------------------------------------|
|----------7B(9)--------7-7B(8)R(7)P5---5----------------------------|
|-------------------------------------7---7-6-5----------------------|
|-----------------------------------------------7-6-5-3---3--\(0)/-\-|
|-------------------------------------------------------5------------|
|                                                         *   w/bar
|--------------------------------------------------------------------|
|--------------------------------------------------------------------|
|-2------------------------------------------------------------------|
|-2------------------------------------------------------------------|
|-0------------------------------------------------------------------|
|--------------------------------------------------------(-12)/----0-|
| *depress bar equivalent to 12 frets down, strike note & slowly release

|-----------------------------------------------------------------|
|-----------------------------------------------------------------|
|-----------------7---7---------------------------9---9-----------|
|-----------------7---7---------------------------9---9-----------|
|-7~~~~~~~~~~~~~~~5---5-----------8~~~~~~~~~~~~~~~7---7-----------|
|------------------------------------------------------------12\--|
|
|-----------------------------------------------------------------|
|-----------------------------------------------------------------|
|-9---------------7---------------10--------------9---9-----9-9\--|
|-9---------------7---------------10--------------9---9-----9-9\--|
|-7---------------5---------------8---------------7---7-----7-7\--|
|-----------------------------------------------------------------|

|----------------17------------------17------17------17------------17---|
|-------------17----20-17-20-20B(22)~--20B(22)-20B(22)-20B(22)-20B(22)~~|
|-2----19B(21)----------------------------------------------------------|
|-2---------------------------------------------------------------------|
|-0---------------------------------------------------------------------|
|-----------------------------------------------------------------------|
|
|-----------------------------------------------------------------------|
|-----------------------------------------------------------------------|
|-2---------------------------2------2----------------------------------|
|-2---------------------------2------2----------------------------------|
|-0---------------------------0------0----------------------------------|
|--------------------------------3B(5)----------------------------------|

|---------------------------------------------------------------------|
|-15B(17)--R--(15)-15~~~~~~~~~~~~~~~15B(18)--R--(15)--15B(17)~~~~~~~~~|
|---------------------------------------------------------------------|
|---------------------------------------------------------------------|
|---------------------------------------------------------------------|
|---------------------------------------------------------------------|
|
|---------------------------------------------------------------------|
|---------------------------------------------------------------------|
|-9----------------7----------------10----------------9---------------|
|-9----------------7----------------10----------------9---------------|
|-7----------------5----------------8-----------------7---------------|
|---------------------------------------------------------------------|

                            rake-]
|--------------------------------15-17B(19)-----------------------------|
|-15B(17)--R--(15)-15~~~~~~~~--15---------------------------------------|
|----------------------------16-----------------------------------------|
|-----------------------------------------------------------------------|
|-----------------------------------------------------------------------|
|-----------------------------------------------------------------------|
|
|-----------------------------------------------------------------------|
|-----------------------------------------------------------------------|
|-9----------------10---------------12----------------------------------|
|-9----------------10---------------12----------------------------------|
|-7----------------8----------------10----------------------------------|
|-----------------------------------------------------------------------|

                                  fade out
|-----------------------------------------------------------------||
|-17--------------------------------------------------------------||
|-17--------------------------------------------------------------||
|-17--------------------------------------------------------------||
|-15--------------------------------------------------------------||
|-----------------------------------------------------------------||
|
|-----------------------------------------------------------------||
|-----------------------------------------------------------------||
|-----------------------------------------------------------------||
|-10--------------------------------------------------------------||
|-10--------------------------------------------------------------||
|-8---------------------------------------------------------------||


--
Updated:  April 10/98
------------------------------------------------------------------------------|
----------------------------------PLEASE NOTE---------------------------------|
This file is the author's own work and represents their interpretation of
the song. You may only use this file for private study, scholarship, or
research.
---------------------------------------------------------------------------
Transcription by:  ?


ANOTHER BRICK IN THE WALL PART ONE
Pink Floyd
(Waters)

INTRO:(fade in)
  gtr. 1* (w/chorus & delay) P.M. throughout
 Rhy. Fig. 1---------------------] w/Rhy. Fig. 1----------------------|
|---------------------------------|-----------------------------------|
|---------------------------------|-----------------------------------|
|---------------------------------|-----------------------------------|
|---------------------------------|-----------------------------------|
|-5'''''''''''''''''''''''''''''''|-----------------------------------|
|---------------------------------|-----------------------------------|
 *two guitars arranged for one

                                   Fill 1-----------------------------|
|---------------------------------|-----------------------------------|
|---------------------------------|-----------------------------------|
|---------------------------------|-----------------------------------|
|---------------------------------|-------------------------3---5P3---|
|-3H5-X-3H5'''''''''''''''''''''''|-5'''''''''''''''''''''''--5-------|
|---------------------------------|-----------------------------------|


 w/Rhy. Fig. 1                     Fill 2-----------------------------|
|---------------------------------|-----------------------------------|
|---------------------------------|-----------------------------------|
|---------------------------------|-----------------------------------|
|---------------------------------|-----------------------------------|
|---------------------------------|-5'''''''''''''''''''''''''''3P0---|
|---------------------------------|-----------------------------------|


 w/Rhy. Fig. 1                     w/Fill 1
|---------------------------------|---------------------------------|
|---------------------------------|---------------------------------|

  gtr. 2 (w/chorus & delay)
 w/Rhy. Fig. 1 (3x)
|---------------------------------|----------------------------7\(5)|
|---------------------------------|---------------------------------|
|---------------------------------|------------------------5/(7)\(5)|
|---------------------------------|---------------------------------|
|---------------------------------|---------------------------------|
|---------------------------------|---------------------------------|
  Dad  -  dy's flown                'cross  the o   -   cean

  gtr. 3 (w/chorus & delay)        w/Fill 2
|---------------------------------|---------------------------------|
|-5-------------------------------|-5-------------------------------|
|-5-------------------------------|-4-------------------------------|
|-3-------------------------------|-3-------------------------------|
|---------------------------------|---------------------------------|
|---------------------------------|---------------------------------|

  gtr. 3
 w/Rhy. Fig. 1 (3x)		    gtr. 2
|---------------------------------|---------------------------------|
|-5-------------------------------|---------------------------------|
|-5-------------------------------|---------------------------7/----|
|-3-------------------------------|---------------------------------|
|---------------------------------|---------------------------------|
|---------------------------------|---------------------------------|
  Leav  -  ing just   a             mem  -  o - ry
                                    gtr. 1
                                   Fill 3-----------------------------|
|---------------------------------|-----------------------------------|
|-13B(15)-------------------------|-----------------------------------|
|---------------------------------|-----------------------------------|
|---------------------------------|-----------------------------3P0---|
|---------------------------------|-5'''''''''''''''''''''''''''------|
|---------------------------------|-----------------------------------|
                                                                A
  gtr. 2
 w/Rhy. Fig. 1 (3x)
|---------------------------------|---------------------------------|
|---------------------------------|---------------------------------|
|---------------------------------|----------------------(5)/(7)\(5)|
|---------------------------------|----------------------(5)/(7)\(5)|
|---------------------------------|---------------------------------|
|---------------------------------|---------------------------------|
  snap  -  shot   in  the           fam  -  'ly al   -   bum

 w/wind                            w/Fill 1
|---------------------------------|---------------------------------|
|---------------------------------|---------------------------------|

  gtr. 1
 w/Rhy. Fig. 1
|---------------------------------|---------------------------------|
|---------------------------------|---------------------------------|
|---------------------------------|---------------------------------|
|---------------------------------|---------------------------------|
|---------------------------------|-5'''''''''''''''''''''''''''----|
|---------------------------------|-----------------------------1-1-|
|
| gtr. 4* (w/dist. & chorus)
|---------------------------------|---------------------------------|
|---------------------------------|---------------------------------|
|---------------------------------|---------------------------------|
|---------------------------------|----------------------------3/(5)|
|---------------------------------|----------------------------3/(5)|
|---------------------------------|----------------------------3/(5)|
| *gtr. 4 w/drop D tuning
  Dad-dy          what else         did     you leave       for me

 Rhy. Fig. 2----------------------------------------------------------| w/Rhy. Fig. 2 (3x)
|---------------------------------|-----------------------------------|
|---------------------------------|-----------------------------------|
|---------------------------------|-----------------------------------|
|---------------------------------|-----------------------------------|
|---------------------------------|-----------------------------------|
|-3'''''''''''''''''''''''''''''''|-----------------------------------|
|
|                                  w/bar
|---------------------------------|---------------------------10-10-|
|---------------------------------|-----------------------X---8--8--|
|---------------------------------|~~~~~~~~~~~~~~~~~~~~~~~X---7--7--|
|-5-------------------------------|~~~~~~~~~~~~~~~~~~~~~~~----------|
|-5-------------------------------|~~~~~~~~~~~~~~~~~~~~~~~----------|
|-5-------------------------------|~~~~~~~~~~~~~~~~~~~~~~~----------|

  gtr. 4          w/bar
|-10--------------~~~~~~~~~~~~~~~~|~~~~~~~~~~~~~~~~~~~~~~~~~~~~~~~~~|
|-8---------------~~~~~~~~~~~~~~~~|~~~~~~~~~~~~~~~~~~~~~~~~~~~~~~~~~|
|-7---------------~~~~~~~~~~~~~~~~|~~~~~~~~~~~~~~~~~~~~~~~~~~~~~~~~~|
|---------------------------------|---------------------------------|
|---------------------------------|---------------------------------|
|---------------------------------|---------------------------------|
|-3-------------------------------|-3-------------------------------|
                                    Dad   what d'ya leave behind for
  gtr. 2
 w/Rhy. Fig. 1 (2x)
|---------------------------------|---------------------------------|
|---------------------------------|---------------------------------|
|---------------------------------|-7-------------------------------|
|---------------------------5-7-7-|-------------------------5/------|
|-5'''''''''''''''''''''''''------|-----------------------------5\--|
|---------------------------------|---------------------------------|
  me

  gtr. 1
|---------------------------------|---------------------------------|
|---------------------------------|---------------------------------|
|-2-------------------------------|---------------------------------|
|-3-3'''''''''''''0'''''''''''''''|-5''''''''''''''''''''''''''5/(7)|
|---------------------------------|-3''''''''''''''''''''''''''3/(5)|
|---------------------------------|---------------------------------|
|
| gtr. 2
|---------------------------------|---------------------------------|
|---------------------------------|---------------------------------|
|---------------------------------|---------------------------------|
|-3-----------------------3---3---|-5'''''''''''''''''''''''''''''''|
|-3-----------------------3---3---|-3'''''''''''''''''''''''''''''''|
|-1-----------------------1---1---|---------------------------------|
                          PM--]
          All in all  it was                just a  brick in    the

  Rhy. Fig. 3--------------------] w/Rhy. Fig. 3----------------------|
|---------------------------------|-----------------------------------|
|---------------------------------|-----------------------------------|
|---------------------------------|-----------------------------------|
|-7'''''''''''''''''''''''''''''''|-----------------------------------|
|-5'''''''''''''''''''''''''''''''|-----------------------------------|
|---------------------------------|-----------------------------------|
|
|---------------------------------|---------------------------------|
|---------------------------------|---------------------------------|
|---------------------------------|---------------------------------|
|-7'''''''''''''''''''''''''''''''|-7'''''''''''''''''''''''''''----|
|-5'''''''''''''''''''''''''''''''|-5'''''''''''''''''''''''''''5\--|
|---------------------------------|-----------------------------5\--|
  wall

|---------------------------------|---------------------------------|
|---------------------------------|---------------------------------|
|-2'''''''''''''''''''''''''''''''|---------------------------------|
|-3'''''''''''''''''''''''''''''''|-5'''''''''''''''''''''''''''''''|
|---------------------------------|-3'''''''''''''''''''''''''''''''|
|---------------------------------|---------------------------------|
|
|---------------------------------|---------------------------------|
|---------------------------------|-------1-------------------------|
|---------------------------------|-0-----0-----0-------------5-6-7-|
|-3-----------------------3---3---|-2-----2-----2-------5-6-7-------|
|-3-----------------------3---3---|-3-----------3-------------------|
|-1-----------------------1---1---|---------------------------------|
                          PM--]
          All in all  it was        all   just  bricks  in    the
  gtr. 2
 w/Rhy. Fig. 1 (2x)
|---------------------------------|---------------------------------|
|---------------------------------|---------------------------------|
|-----------5---------------------|---------------------------------|
|---------7---5-7---5-7-----------|-----------------------------5B--|
|-----------------8-----8B5---3-5-|---5-3-4-5-3-4-5---------------5-|
|---------------------------------|---------------------------------|
  wall
  gtr. 4
 w/Rhy. Fig. 3 (3x)                 gtr. 2
|---------------------------------|---------------------------------|
|---------------------------------|----------------------10--12\(10)|
|---------------------------------|----------------------10--12\(10)|
|---------------------------------|--------------------------12\(10)|
|---------------------------------|---------------------------------|
|-0-------------------------------|---------------------------------|

  gtr. 1				      w/vocal sounds
|---------------------------------|---------------------------------|
|---------------------------------|---------------------------------|
|---------------------------------|---------------------------------|
|---------------------------------|-7'''''''''''''''''''''''--------|
|---------------------------------|-5'''''''''''''''''''''''5---3BP0|
|---------------------------------|---------------------------------|
|
| gtr. 3
|------13--15\(13)----------------|---------------------------------|
|------15--17\(15)----------------|---------------------------------|
|---------------------------------|------5--(5)/(7)\(5)-------------|
|---------------------------------|------5--(5)/(7)\(5)-------------|
|---------------------------------|-------------------------5---3H5-|
|---------------------------------|---------------------------------|
|
| gtr. 2
|---------------------------------|---------------------------------|
|---------------------------------|---------------------------------|
|----------------------10--12\(10)|---------------------------------|
|----------------------10--12\(10)|---------------------------------|
|---------------------------------|-------------------------5---3H5-|
|---------------------------------|---------------------------------|

  gtrs. 2 & 3
 w/Rhy. Fig. 1 (3x)
|---------------------------------|---------------------------------|
|---------------------------------|---------------------------------|
|---------------------------------|---------------------------------|
|---------------------------------|------------------------7\(5)3---|
|---------------------------------|----------------------5----------|
|---------------------------------|---------------------------------|

  gtr. 1
|---------------------------------|---------------------------------|
|---------------------------------|---------------------------------|
|---------------------------------|---------------------------------|
|---------------------------------|---------------------------------|
|---------------------------------|-5'''''''''''''''''''''''''--3P0-|
|---------------------------------|---------------------------5-----|
|
| gtr. 2
|---------------------------------|---------------------------------|
|---------------------------------|----------------------10--12\(10)|
|---------------------------------|----------------------10--12\(10)|
|---------------------------------|----------------------10--12\(10)|
|---------------------------------|---------------------------------|
|---------------------------------|---------------------------------|

  gtr. 1                                w/Rhy. Fig. 1 (4x)
|--------------------------------------|--------------------------------|
|--------------------------------------|--------------------------------|
|--------------------------------------|--------------------------------|
|--------------------------------------|--------------------------------|
|-5-3P0-5''''''''''''''''''''''''''''''|--------------------------------|
|--------------------------------------|--------------------------------|
|
| gtr. 3
|--------13--(13)/(15)\(13)------------|--------------------------------|
|--------15--(15)/(17)\(15)------------|--------------------------------|
|--------------------------------------|-----5--(5)/(7)\(5)----5---6\(5)|
|--------------------------------------|-----7--(7)/(9)\(7)----5---6\(5)|
|--------------------------------------|--------------------------------|
|--------------------------------------|--------------------------------|
|
| gtr. 2
|--------------------------------------|--------------------------------|
|--------------------------------------|--------------------------------|
|---------------------------10--12\(10)|-----------------------5---6\(5)|
|---------------------------12--14\(12)|-----------------------5---6\(5)|
|--------------------------------------|--------------------------------|
|--------------------------------------|--------------------------------|

  gtrs. 2 & 3
|---------------------------------|---------------------------------|
|---------------------------------|---------------------------------|
|---------------------------------|------------------------3---4\(3)|
|---------------------------------|------------------------3---4\(3)|
|---------------------------------|---------------------------------|
|---------------------------------|---------------------------------|

  gtr. 1
|---------------------------------|---------------------------------|
|---------------------------------|---------------------------------|
|---------------------------------|---------------------------------|
|---------------------------------|---------------------------------|
|---------------------------------|-5'''''''''''''''''''3'''''''''''|
|---------------------------------|---------------------------------|
|
| gtrs. 2 & 3
|---------------------------------|---------------------------------|
|---------------------------------|---------------------------------|
|---------------------------------|---------------------------------|
|---------------------------------|---------------------------------|
|---------------------------------|---------------------3'''''''''''|
|---------------------------------|---------------------------------|
                                    "One,   two,   three"

  gtr. 1                           w/Rhy. Fig. 1 (2x)
|---------------------------------|---------------------------------|
|---------------------------------|---------------------------------|
|---------------------------------|---------------------------------|
|---------------------------------|---------------------------------|
|-3H5-5'''''''''''''''''''''''''''|---------------------------------|
|---------------------------------|---------------------------------|
|
| gtrs. 2 & 3                                           *
|---------------------------------|---------------------------------|
|---------------------------------|-----------------------------5-6-|
|---------------------------------|---------------------5---7-5-5-7-|
|---------------------------------|---------------------5---7-5-----|
|-/3H5----------------------------|---------------------------------|
|---------------------------------|---------------------------------|
  *gtr. 2 plays higher note, gtr. 3 plays lower note
  [whistle]		       "Hey!"

 fade in schoolyard sounds
|---------------------------------|---------------------------------|
|---------------------------------|---------------------------------|
|---------------------------------|---------------------------------|
|---------------------------------|---------------------------------|
|---------------------------------|-5'''''''''''''''''''------------|
|---------------------------------|---------------------5-------5-5-|
|
|-----5---------------------------|-------------------------5P3-----|
|-----6B--------------------------|---------------------(5)H6P5-7~~~|
|---------------------------------|-----------------------------7\--|
|---------------------------------|---------------------------------|
|---------------------------------|---------------------------------|
|---------------------------------|---------------------------------|

 w/Rhy. Fig. 1
|---------------------------------|---------------------------------|
|---------------------------------|---------------------------------|
|---------------------------------|---------------------------------|
|---------------------------------|---------------------------------|
|---------------------------------|-5'''''''''''''''''''''''5---3P0-|
|---------------------------------|---------------------------5-----|
|
|---------------------------------|---------------------------------|
|---------------------------------|-----------------------------5-6-|
|---------------------------------|---------------------5---7---5-7~|
|---------------------------------|---------------------5---7-------|
|---------------------------------|---------------------------------|
|---------------------------------|---------------------------------|

 w/Rhy. Fig. 1                     Fill 4-----------------------------|
|---------------------------------|-----------------------------------|
|---------------------------------|-----------------------------------|
|---------------------------------|-----------------------------------|
|---------------------------------|-----------------------------3BP0--|
|---------------------------------|-5'''''''''''''''''''''''''''------|
|---------------------------------|-----------------------------------|
|
|-----5---------------------------|----------------------7B(8)--7P5-|
|-----6B--------------------------|----------------------8B(10)-8P6-|
|~~~~~----------------------------|---------------------------------|
|---------------------------------|---------------------------------|
|---------------------------------|---------------------------------|
|---------------------------------|---------------------------------|

  gtrs. 2 & 3
 w/Rhy. Fig. 1                     w/Fill 2
|~~~~~~~~~~~~~~~~~~~~~~~~~~~~~~~~~|~~~~~~~~~~~~~~~~~----------------|
|~~~~~~~~~~~~~~~~~~~~~~~~~~~~~~~~~|~~~~~~~~~~~~~~~~~------------5-6~|
|---------------------------------|---------------------5---7---5-7~|
|---------------------------------|---------------------5---7-------|
|---------------------------------|---------------------------------|
|---------------------------------|---------------------------------|

 w/Rhy. Fig. 1                     w/Fill 1
|~~~~~5---------------------------|--------------------10B(12)-10P8-|
|~~~~~6---------------------------|--------------------12B(13)-12P10|
|---------------------------------|---------------------------------|
|---------------------------------|---------------------------------|
|---------------------------------|---------------------------------|
|---------------------------------|---------------------------------|
|
|---------------------------------|---------------------------------|
|---------------------------------|---------------------------------|
|-5-----------3---5-----------3---|-5-----------3---5-----------3---|
|---------------------------------|---------------------------------|

 w/Rhy. Fig. 1                     w/Fill 4
|~~~~~~~~~~~~~~~~~~~~~~~~~~~~~~~~~|~~~~~~~~~~~~~~~------------------|
|~~~~~~~~~~~~~~~~~~~~~~~~~~~~~~~~~|~~~~~~~~~~~~~~~------------12-13-|
|---------------------------------|-----------------12--14-12-12-14-|
|---------------------------------|-----------------14--15----------|
|---------------------------------|---------------------------------|
|---------------------------------|---------------------------------|

  gtr. 1
 w/Rhy. Fig. 1
|---------------------------------|---------------------------------|
|---------------------------------|---------------------------------|
|---------------------------------|---------------------------------|
|---------------------------------|---------------------------------|
|---------------------------------|-5'''''''''''''''''''3-5-5---3P0-|
|---------------------------------|---------------------------------|
|
| gtrs. 2 & 3
|-----12--------------------------|-------------------------12-B(13)|
|-----13--------------------------|-------------------------13-B(15)|
|---------------------------------|---------------------------------|
|---------------------------------|---------------------------------|
|---------------------------------|---------------------------------|
|---------------------------------|---------------------------------|

 w/Rhy. Fig. 1
|---------------------------------|---------------------------------|
|---------------------------------|---------------------------------|
|---------------------------------|---------------------------------|
|---------------------------------|-----------------------------3P0-|
|---------------------------------|-5---3-5-5---3-5-5---3-5-5---3P0-|
|---------------------------------|---------------------------------|
|
|-(13)----------------~~~~~~~~~~~~|~~~~~~~~~~~~~~~~~~~~~~~~~--------|
|-(15)----------------~~~~~~~~~~~~|~~~~~~~~~~~~~~~~~~~~~~~~~--------|
|---------------------------------|---------------------------------|
|---------------------------------|---------------------------------|
|---------------------------------|---------------------------------|
|---------------------------------|---------------------------------|

  gtr. 1
 w/Rhy. Fig. 1
|---------------------------------|---------------------------------|
|---------------------------------|---------------------------------|
|---------------------------------|---------------------------------|
|---------------------------------|-------------------------3B--5-3B|
|---------------------------------|-5''''''''''''3-5-5---3B5--5-----|
|---------------------------------|---------------------------------|
|
| gtr. 3
|---------------------------------|---------------------------------|
|---------------(15)R(13)(15)R(13)|(15)R(13)B(15)(15)--~~~~~~~~~~~~~|
|---------------------------------|---------------------------------|
|---------------------------------|---------------------------------|
|---------------------------------|---------------------------------|
|---------------------------------|---------------------------------|

 w/Rhy. Fig. 1
|---------------------------------|---------------------------------|
|---------------------------------|---------------------------------|
|---------------------------------|---------------------------------|
|---------------------------------|---------------------------------|
|---------------------------------|-5'''''''''''''''''''''''3---3B--|
|---------------------------------|---------------------------------|
|
|
|---------------------------------|---------------------------------|
|~~~~~~~~~~~~~~~~~----------------|--------------------------13B(15)|
|---------------------------------|---------------------------------|
|---------------------------------|---------------------------------|
|---------------------------------|---------------------------------|
|---------------------------------|---------------------------------|

 w/Rhy. Fig. 1
|---------------------------------|---------------------------------|
|---------------------------------|---------------------------------|
|---------------------------------|---------------------------------|
|---------------------------------|-----------------------------3P0-|
|---------------------------------|-5'''''''''''''''''''3H5---3-----|
|---------------------------------|---------------------------------|
|
|---------------------------------|---------------------------------|
|-13B(15)(15)~~~~~~~~~~~~~~~~~~~~~|~~~~~~~~~~~~~~~~~~~~~~~~~--------|
|---------------------------------|---------------------------------|
|---------------------------------|---------------------------------|
|---------------------------------|---------------------------------|
|---------------------------------|---------------------------------|

			      begin fade
|---------------------------------|---------------------------------|
|---------------------------------|---------------------------------|
|---------------------------------|---------------------------------|
|-0-------------------------------|----------------------------3B---|
|-0---0-3-5'''''''''''''''''''''''|''''''''''''''''''''3H5-5-5----5-|
|---------------------------------|---------------------------------|
|
|---------------------------------|---------------------------------|
|---------------------------------|-------------------13B(15)13B(15)|
|---------------------------------|---------------------------------|
|---------------------------------|---------------------------------|
|---------------------------------|---------------------------------|
|---------------------------------|---------------------------------|

  gtr. 1
 w/Rhy. Fig. 1
|---------------------------------|---------------------------------|
|---------------------------------|---------------------------------|
|---------------------------------|---------------------------------|
|---------------------------------|---------------------------------|
|---------------------------------|-5'''''''''''''''''''''''3-3-3---|
|---------------------------------|-------------------------------5-|

  gtr. 1      fade in helicopter
|---------------------------------|---------------------------------|
|---------------------------------|---------------------------------|
|---------------------------------|---------------------------------|
|---------------------------------|-----------------------------3B--|
|-3/(5)-5-3-5---3-5'''''''''''''''|-5---3-5-5-3-3-5-5-3-3-5-5-3---5-|
|---------------------------------|---------------------------------|
|
| gtr. 3
|---------------------------------|---------------------------------|
|---------------------------------|-----------------------13B(14)13B|
|---------------------------------|---------------------------------|
|---------------------------------|---------------------------------|
|---------------------------------|---------------------------------|
|---------------------------------|---------------------------------|

 w/Rhy. Fig. 1
|---------------------------------|---------------------------------|
|---------------------------------|---------------------------------|
|---------------------------------|---------------------------------|
|---------------------------------|-------------------------3---3P0-|
|---------------------------------|-5'''''''''''''''''''''''--5-----|
|---------------------------------|---------------------------------|
|
|---------------------------------|---------------------------------|
|(15)~~~~~~~~~~~~~~~~~~~~~~~~~~~~~|~~~~~~~~~~~~~~~~~----------------|
|---------------------------------|---------------------------------|
|---------------------------------|---------------------------------|
|---------------------------------|---------------------------------|
|---------------------------------|---------------------------------|

  gtr. 1			   w/Fill 2
|---------------------------------|---------------------------------|
|---------------------------------|---------------------------------|
|---------------------------------|---------------------------------|
|---------------------------------|---------------------------------|
|-5-3---5'''''''''''''''''''''''''|---------------------------------|
|-----5---------------------------|---------------------------------|

 w/Rhy. Fig. 1	fade out
|---------------------------------|             ------------|
|---------------------------------| "You! Yes, you!     ----|
|---------------------------------| Stand still, laddy!" ---|
|---------------------------------|             ------------|
|---------------------------------|             ------------|
|---------------------------------|             ------------|


--
Updated:  April 10/98
-----------------------------------------------------------------------------
Send "When The Tigers Broke Free" to Cell Phone

#-----------------------------Please Note---------------------------------#
# This file is the author's own work and represents their interpretation  #
# ofthe song. You may only use this file for private study, scholarship   #
# or research.                                                            #
#-------------------------------------------------------------------------#

            Pink Floyd "When The Tigers Broke Free" (Roger Waters)
		   from "The Wall", only in the movie

Tabbed by: torsten lasse
Email: t.lasse@uni-bonn.de 2004

Originally no guitar in it, but here it is for the soloists...

Tuning:
C A D G B E

4/4
     It was...
 |   |   |   |    |   |   |   |    |   |   |   |    |   |   |   |
|----------------|3-----------1---|0---------0-----|----------------|
|1-----------3-1-|1---------------|1-----------3-1-|3---------------|
|0---------------|0---------------|0---------------|--0-0-------0---|
|----------------|------------3---|2---------------|----------------|
|3---3---3---3---|3---3---3---3---|3---3---3---3---|2---2---2---2---|
|0---------------|0---------------|0---------------|----------------|

...forward...
 |   |   |   |    |   |   |   |    |   |   |   |    |   |   |   |
|----------------|3-----------3---|3-----------5---|3---------------|
|1-----------3-1-|1---------------|1---------------|1---------------|
|0---------------|0---------------|0---------------|0---------------|
|----------------|----------------|------------3---|2---------------|
|3---3---3---3---|3---3---3---3---|3---3---3---3---|3---3---3---3---|
|0---------------|0---------------|0---------------|0---------------|

     ...be withdrawn....
 |   |   |   |    |   |   |   |    |   |   |   |    |   |   |   |
|3-----------5-3-|0-----------0---|----------------|0---------------|
|1---------------|1---------------|3---------3-1-3-|1---------------|
|0---------------|0---------------|0---------------|0-0-0-------0---|
|------------3---|2---------------|----------------|----------------|
|3---3---3---3---|3---3---3---3---|2---2---2---2---|3---3---3---2---|
|0---------------|0---------------|----------------|0---0-----------|

...Anzio...		   ...few hundred ordinary lives.
 |   |   |   |    |   |   |   |    |   |   |   |    |   |   |   |
|----------------|3-----------1---|0---------------|----------------|
|1-----------3-1-|1---------------|1---1-------1---|1---------------|
|0---------------|0---------------|0---0-------0---|0---------------|
|----------------|------------3---|2-----------3---|2---------------|
|3---3---3---3---|3---3---3---3---|3---3---3---3---|3---------------|
|0---------------|0---------------|0---------------|0---------------|

(play 4x, Intro/Verse1/Verse2/Verse3)

(It was just before dawn
One miserable morning in black 'forty four.
When the forward commander
Was told to sit tight
When he asked that his men be withdrawn.
And the Generals gave thanks
As the other ranks held back
The enemy tanks for a while.
And the Anzio bridgehead
Was held for the price
Of a few hundred ordinary lives.)

And kind-old King George
Sent Mother a note
When he heard that father was gone.
It was a recall
In the form of a scroll,
With gold leaf and all.
And I found it one day
In a drawer of old photographs, hidden away.
And my eyes still grow damp to remember
His Majesty signed
With his own rubber stamp.

It was dark all around.
There was frost in the ground
When the tigers broke free.
And no one survived
From the Royal Fusiliers Company C.
They were all left behind,
Most of them dead,
The rest of them dying.
And that's how the High Command
Took my daddy from me.

#------------------------------------------------------------------2004-----|
----------------------------------PLEASE NOTE-------------------------------|
This file is the author's own work and represents their interpretation of
the song. You may only use this file for private study, scholarship, or
research.
---------------------------------------------------------------------------
Transcription by:  Jacob Sudol (sudol@azstarnet)-stolen from OLGA


GOODBYE BLUE SKY
Pink Floyd
(Waters)

TUNING: D A D G B E

 |-----------------|-----------------|-----------------|
 |-----------------|-----------------|-----------------|
 |-------0---------|-------0---------|-------0---------|
 |---4-------4---4-|---4-------4---4-|---4-------4---4-|
 |-----5-------5---|-----5-------5---|-----5-------5---|
 |-0-------0-------|-0-------0-------|-0-------0-------|

 |----------------|-----------------|
 |----------------|-----------------|
 |------0---------|---5---5-------4-|
 |---4----4-2-----|---5---5-------4-|
 |-----5------3p2-|-0---------------|
 |-0--------------|-----0---0---0---|

|---------|-----------------|---------|-----------------|-----------------|
|---------|-----------------|---------|-----------------|-----------------|
|-4-------|---5---5-------4-|-4-------|---5---5-------4-|---4------4-5-6--|
|-4-------|---5---5-------4-|-4-------|---5---5-------4-|---4------4-5-6--|
|---------|-----------------|---------|-----------------|-----------------|
|---0-0-0-|-0---0---0---0---|-0-0-0-0-|-0---0---0---0---|-0---0-----------|
                                        Repeat x3
|-----------------|-----------------||-------------------|-------------------|
|-----------------|-----------------||-------------------|-------------------|
|-----0-------0---|-----0-------0---||.---11---9-------7-|-----6---6h7p6p7---|
|---4---4---4---4-|---4---4---4---4-||.------------------|-------------------|
|-5-------5-------|-5-------5-------||-------------------|-------------------|
|-----------------|-----------------||--0----0---0---0---|-0-0---0---------0-|

 |-----------------|------------------|
 |-----------------|------------------|
 |-----0-------0---|-----0-------0---.|
 |---4---4---4---4-|---4---4---4---4-.|
 |-2-------2-------|-2-------2--------|
 |-----------------|------------------|

|-----------------|-----------------|-----------------|-----------------|
|-----------------|-----------------|-----------------|-----------------|
|---5---5---5---5-|-4---------------|---5---5---5---5-|-4---------------|
|---5---5---5---5-|-4---------------|---5---5---5---5-|-4---------------|
|-----------------|-----------------|-----------------|-----------------|
|-0---0---0---0---|-0---0---0---0---|-0---0---0---0---|-0---0---0---0---|

|-----------------|-----------------|-----------------|-----------------|
|-----------------|-----------------|-----------------|-----------------|
|---5---5-------5-|-----4---4-4-4-4-|-----2---2-2-2-2-|-----0---0-0-0-0-|
|---5---5-------5-|-----4---4-4-4-4-|-----2---2-2-2-2-|-----0---0-0-0-0-|
|-----------------|-----------------|-----------------|-----------------|
|-0---0---0---0---|-0---0---0---0---|-0---0---0---0---|-0---0---0---0---|

|-----------------|-----------------|-----------------|-----------------|
|-----------------|-----------------|-----------------|-----------------|
|-----------------|-----------------|-----0-------0---|-----0-------0---|
|-----4---4-4-4-4-|---2---2-----0---|---4---4---4---4-|---4---4---4---4-|
|-----4---4-4-4-4-|---2---2---4---4-|-2-------2-------|-2-------2-------|
|-0-0---0---0-----|-0---0---0-------|-----------------|-----------------|
                                        Repeat x2
|-----------------|-----------------||-------------------|-------------------|
|-----------------|-----------------||-------------------|-------------------|
|-------0---------|-------0---------||.---11---9-------7-|-----6---6h7p6p7---|
|---4-------4---4-|---4-------4---4-||.------------------|-------------------|
|-----5---5---5---|-----5---5---5---||-------------------|-------------------|
|-0---------------|-0---------------||--0----0---0---0---|-0-0---0---------0-|

 |-----------------|------------------|
 |-----------------|------------------|
 |-----0-------0---|-----0-------0---.|
 |---4---4---4---4-|---4---4---4---4-.|
 |-2-------2-------|-2-------2--------|
 |-----------------|------------------|

|-----------------|-----------------|-----------------|-----------------|
|-----------------|-----------------|-----------------|-----------------|
|---5---5---5---5-|-4---4-----------|---5---5---5---5-|-4---4-----------|
|---5---5---5---5-|-4---4-----------|---5---5---5---5-|-4---4-----------|
|-----------------|-----------------|-----------------|-----------------|
|-0---0---0---0---|-0---0---0---0---|-0---0---0---0---|-0---0---0---0---|

 |-----------------|-----------------|-----------------|
 |-----------------|-----------------|-----------------|
 |---5---5-------5-|-----4---4-4-4-4-|---------4-5-6---|
 |-----------------|-----------------|-----------------|
 |-----------------|-----------------|-----------------|
 |-0---0---0---0---|-0---0---0---0---|-0---0---0---0---|

 |-----------------|-----------------|
 |-----------------|-----------------|
 |-----0-------0---|-----0-------0---|
 |---4---4---4---4-|---4---4---4---4-|
 |-5-------5-------|-5-------5-------|
 |-----------------|-----------------|

|-----------------|-----------------|-----------------|-----------------|
|-----------------|-----------------|-----------------|-----------------|
|-----------------|-----------------|-----------------|-----------------|
|---4---4---4---4-|---4---4---4---4-|---4---4---4---4-|--4----4---4---4-|
|-5---5---5---5---|-5---5---5---5---|-5---5---5---5---|-5---5---5---5---|
|-----------------|-----------------|-----------------|-----------------|

|-----------------|-----------------|-----------------|----------------------|
|---------------1-|---------------1-|---------------1-|----------------------|
|---------------0-|---------------0-|---------------0-|----------------------|
|---0---0---0---0-|---0---0---0---0-|---0---0---0---0-|---0---0--------------|
|-3---------------|-----------------|-----------------|---------3p2p0--------|
|-----------------|-----------------|-----------------|---------------3(b)-0-|

    Repeat to fade
 ||------------------|------------------||
 ||------------------|------------------||
 ||.-------0---------|-------0---------.||
 ||.---4-------4---4-|---4-------4---4-.||
 ||------5---5---5---|-----5---5---5----||
 ||--0---------------|-0----------------||

(lyrics)

Oooooooooooh
Oooooooooooh
Oooooooooooh
Did did did did you see the frightened ones?
Did did did did you hear the falling bombs
Did did did did you ever wonder why we had to run for shelter
When the promise of a brave new world unfurled beneath the clear blue
sky?

Oooooooooooh
Oooooooooooh
Did did did did you see the frightened ones?
Did did did did you hear the falling bombs?
The flames are all long gone but the pain lingers on
Goodbye blue sky
Goodbye blue sky
Goodbye, goodbye

--
Updated:  April 10/98
------------------------------------------------------------------------------|
----------------------------------PLEASE NOTE---------------------------------|
This file is the author's own work and represents their interpretation of
the song. You may only use this file for private study, scholarship, or
research.
---------------------------------------------------------------------------
Transcription by:  ?

THE HAPPIEST DAYS OF OUR LIVES
Pink Floyd
(Waters)

  gtr. 1 (w/delay) PM throughout
|---------------------------------|---------------------------------|
|---------------------------------|---------------------------------|
|---------------------------------|---------------------------------|
|---------------------------------|---------------------------------|
|-5'''''''''''''''''''''''''''''''|'''''''''''''''''''''''''''''''''|
|---------------------------------|---------------------------------|

|---------------------------------|-----------------------------------|
|---------------------------------|-----------------------------------|
|---------------------------------|-----------------------------------|
|---------------------------------|-----------------------------------|
|'''''''''''''''''''''''''''''''''|'''''''''''3'''''''----------------|
|---------------------------------|-------------------6'''''''5---3'''|

|---------------------------------|---------------------------------|
|---------------------------------|---------------------------------|
|---------------------------------|---------------------------------|
|---------------------------------|---------------------------------|
|---------------------------------|---------------------------------|
|'''''''''''''''''''''''''''''''''|'''''''''''''''''''''''''''''''''|

|---------------------------------|---------------------------------|
|---------------------------------|---------------------------------|
|---------------------------------|---------------------------------|
|---------------------------------|---------------------------------|
|---------------------------------|---------------------------------|
|'''''''''''''''''''''''''''''''''|'''''''''''''''''''''''''''''''''|

|---------------------------------|---------------------------------||
|---------------------------------|---------------------------------||
|---------------------------------|---------------------------------||
|---------------------------------|---------------------------------||
|---------------------------------|---------------------------------||
|-3H5---5'''''''''''''''''''''''''|'''''''''''''''''''''''''''''''''||
							    When

|-------------------------------------------------|
|-------------------------------------------------|
|-------------------------------------------------|
|-------------------------------------------------|
|-------------------------------------------------|
|'''''''''''''''''''''''''''''''''''''''''''''''''|
  we    grew  up    and   went  to    school

|-------------------------------------------------|
|-------------------------------------------------|
|-------------------------------------------------|
|-------------------------------------------------|
|-------------------------------------------------|
|'''''''''''''''''''''''''''''''''''''''''''3-----|
  There were  cer - tain  teachers    who   would

|-------------------------------------------------|
|-------------------------------------------------|
|-------------------------------------------------|
|-------------------------------------------------|
|-------------------------------------------------|
|-------------------------3''''''''''''''''''''---|
|-5'''''''''''''''''''''''---------------------3--|
  Hurt  the children      an-y- way         they

|---------------------------------|---------------------------------|
|---------------------------------|---------------------------------|
|---------------------------------|---------------------------------|
|---------------------------------|---------------------------------|
|---------------------------------|---------------------------------|
|-5'''''''''''''''''''''''''''''''|'''''''''''''''''''''''''''''''''|
  could              "Oof!"  				        By

|---------------------------------|---------------------------------|
|---------------------------------|---------------------------------|
|---------------------------------|---------------------------------|
|---------------------------------|---------------------------------|
|---------------------------------|---------------------------------|
|'''''''''''''''''''''''''''''3---|-1'''''''''''''''''''''''''''3---|
  pouring their derision    Upon    anything    we  did         Ex-

|---------------------------------|---------------------------------|
|---------------------------------|---------------------------------|
|---------------------------------|---------------------------------|
|---------------------------------|---------------------------------|
|---------------------------------|---------------------------------|
|-5'''''''''''''''''''''''''''3---|-0'''''''''''''''''''''''''''3B--|
  pos-ing ev- 'ry weakness    How - ever  carefully hidden  by  the

|---------------------------------|---------------------------------|
|---------------------------------|---------------------------------|
|---------------------------------|---------------------------------|
|---------------------------------|---------------------------------|
|---------------------------------|---------------------------------|
|-5'''''''''''''''''''''''''''3-4-|-5'''''''''''''''''''''''''''3-4-|
  kids [laughing]

|---------------------------------|---------------------------------|
|---------------------------------|---------------------------------|
|---------------------------------|---------------------------------|
|---------------------------------|---------------------------------|
|---------------------------------|---------------------------------|
|-5'''''''''''''''''''''''''''3-4-|-5'''''''''''''''''''''''''''''''|
							But in  the

|-------------------------------------------------|
|-------------------------------------------------|
|-------------------------------------------------|
|-------------------------------------------------|
|-5'''''''''''''''''''''''''''''''''''''''''3-----|
|-------------------------------------------------|
  town  it was      well  known When  they  got

|-------------------------------------------------|
|-------------------------------------------------|
|-------------------------------------------------|
|-------------------------------------------------|
|-------------------------------------------------|
|-6'''''''''''''''''''''''''''''''''''''''''5-----|
  home  at night,   their fat   and   Psy - cho -

|-------------------------------------------------|
|-------------------------------------------------|
|-------------------------------------------------|
|-------------------------------------------------|
|-------------------------------------------------|
|-3'''''''''''''''''''''''''''''''''''''''''''''''|
  pathic   wives    would thrash them       Within

				     gtr. 2 (w/dist.)
|---------------------------------||-----------------|-----------------|
|---------------------------------||-----------------|-----------------|
|---------------------------------||-----------------|-3---------------|
|---------------------------------||-3---------------|-3---------------|
|-3'''''''''''''''''''''''''''''''||-3---------------|-1---------------|
|---------------------------------||-1---------------|-----------------|
  inches of their lives		     Ooh   ooh ooh     Ooh   ooh ooh

|-----------------|-----------------|-----------------|
|-----------------|-----------------|-----------------|
|-----------------|-3---------------|-----------------|
|-3---------------|-3---------------|-3---------------|
|-3---------------|-1---------------|-3---------------|
|-1---------------|-----------------|-1---------------|
  Ooh   ooh ooh     Ooh   ooh ooh     Ooh   ooh ooh

|-----------------|-----------------|-----------------||
|-----------------|-----------------|-----------------||
|-3---------------|-5---------------|-----------------||
|-3---------------|-5---------------|-----------------||
|-1---------------|-3---------------|-----------------||
|-----------------|-----------------|-----------------||
  Ooh   ooh ooh     Ooh		      [Scream]


--
Updated:  April 10/98
--------------------------------------------------------------------------------|
#----------------------------------PLEASE NOTE----------------------------------|
#This file is the author's own work and represents their interpretation of the#
#song. You may only use this file for private study, scholarship, or research.#
#-----------------------------------------------------------------------------#
Transcription by: Espwish@aol.com and Gareth J. Hill (HILLGJ@CARDIFF.AC.UK)
(aka BUJIN on IRC)

ANOTHER BRICK IN THE WALL(PART TWO)
Pink Floyd
(Waters)


LEGEND:
 h  =3D hammer-on
 p  =3D pull-off
 b  =3D bend
 r  =3D bend release
 /  =3D slide up/down
<5> =3D natural harmonic
[5] =3D artifical harmonic
 ~  =3D vibrato
 tr =3D trill


VERSE:
E|------------------------------5------5--5----x----5--5----5--5------|
B|------------------------------5p6----6--6----x----6--6----6--6------|
G|------------------------------5-7----7--7----x----7--7----7--7------|
D|--0--2--3--2----0--2--3--2----5-7----7--7----x----7--7----7--7------|
A|------------------------------5------5--5----x----5--5----5--5------|
E|------------------------------5------5--5----x----5--5----5--5------|

                                                       repeat 2x i think

E|--5------5--5----x----5--5----5--5----------------------------------|
B|--5p6----6--6----x----6--6----6--6----------------------------------|
G|--5-7----7--7----x----7--7----7--7----------------------------------|
D|--5-7----7--7----x----7--7----7--7----0--2--3--2----0--2h3----------|
A|--5------5--5----x----5--5----5--5----------------------------------|
E|--5------5--5----x----5--5----5--5----------------------------------|

E|------------------------------------------------------5------5--5----|
B|------------------------------------------------------5p6----6--6----|
G|------------------------------------------------------5-7----7--7----|
D|------------------------------------------------------5-7----7--7----|
A|------------------------------------------------------5------5--5----|
E|------------------------------------------------------5------5--5----|

E--x----5----5--------5------5--5----x----5----5----------------------|
B--x----6----6--------5p6----6--6----x----6----6----------------------|
G--x----7----7--------5-7----7--7----x----7----7----------------------|
D--x----7----7--------5-7----7--7----x----7----7----------------------|
A--x----5----5--------5------5--5----x----5----5----------------------|
E--x----5----5--------5------5--5----x----5----5----------------------|

PRE-CHORUS:
E|--------3------x--3--x--3----3--3--3--3--3----------3------x--3--x--|
B|--------3------x--3--x--3----3--3--3--3--3----------3------x--3--x--|
G|--------4------x--4--x--4----4--4--4--4--4----------4------x--4--x--|
D|--------5------x--5--x--5----5--5--5--5--5----------5------x--5--x--|
A|--------5------x--5--x--5----5--5--5--5--5----------5------x--5--x--|
E|--------3------x--3--x--3----3--3--3--3--3----------3------x--3--x--|

E|--3----3--3--3--3--3------------------5------5--5------10----9----10--|
B|--3----3--3--3--3--3------------------5p6----6--6------10----9----10--|
G|--4----4--4--4--4--4------------------5-7----7--7---------------------|
D|--5----5--5--5--5--5------------------5-7----7--7---------------------|
A|--5----5--5--5--5--5------------------5------5--5---------------------|
E|--3----3--3--3--3--3------------------5------5--5---------------------|

                                                CHORUS:
                                                               F
E----10----9--9----7--7--7----5--------------------------------1------|
B----10----9--9----8--8--8----6--------------------------------1------|
G--------------------------------------------------------------2------|
D--------------------------------------------------------------3------|
A--------------------------------------------------------------3------|
E--------------------------------------------------------------1------|

                         C      C      C      C
E|--1------1------1------3------3------3------3------------5------5--5--|
B|--1------1------1------5------5------5------5------------5p6----6--6--|
G|--2------2------2------5------5------5------5------------5-7----7--7--|
D|--3------3------3------5------5------5------5------------5-7----7--7--|
A|--3------3------3------3------3------3------3------------5------5--5--|
E|--1------1------1------3------3------3------3------------5------5--5--|

                                                                F
E----x----5----5----------5------5--5----x----5----5------------1------|
B----x----6----6----------5p6----6--6----x----6----6------------1------|
G----x----7----7----------5-7----7--7----x----7----7------------2------|
D----x----7----7----------5-7----7--7----x----7----7------------3------|
A----x----5----5----------5------5--5----x----5----5------------3------|
E----x----5----5----------5------5--5----x----5----5------------1------|

                         C      C      C      C
E|--1------1------1------3------3------3------3----------5------5--5--|
B|--1------1------1------5------5------5------5----------5p6----6--6--|
G|--2------2------2------5------5------5------5----------5-7----7--7--|
D|--3------3------3------5------5------5------5----------5-7----7--7--|
A|--3------3------3------3------3------3------3----------5------5--5--|
E|--1------1------1------3------3------3------3----------5------5--5--|

                                                repeat whole thing again
                                               before solo :
E----x----5--5----------5------5--5----x----5----5-----------------------|
B----x----6--6----------5p6----6--6----x----6----6------------13p10------|
G----x----7--7----------5-7----7--7----x----7----7-------------------12--|
D----x----7--7----------5-7----7--7----x----7----7-----------------------|
A----x----5--5----------5------5--5----x----5----5-----------------------|
E----x----5--5----------5------5--5----x----5----5-----------------------|

E|------------------------------10--------------------------------------|
B|--10--------------------------10--10----10------------13b15----r--13--|
G|------12b14----13--13b15------10--10----10----------------------------|
D|----------------------------------------------------------------------|
A|----------------------------------------------------------------------|
E|----------------------------------------------------------------------|

E|--------------------------------------------------------------------|
B|----13------12p10---------------------------------------------------|
G|---------------------12----12b14----------10\9----------9-----------|
D|--------------------------------------------------12-------10/12----|
A|--------------------------------------------------------------------|
E|--------------------------------------------------------------------|

E|----------------------------------------------------------------------|
B|------------10------10--------------10----10----------10----12----10--|
G|--12-----12p10------10--------------10----10----------10----12----10--|
D|------x-----------------12--12------------------12--------------------|
A|----------------------------------------------------------------------|
E|----------------------------------------------------------------------|

E|-------------------------13b15------13----13-------------------r----|
B|----------------------x-----------------------------13b15-----------|
G|-------------------x------------------------------------------------|
D|----------------x---------------------------------------------------|
A|--------------------------------------------------------------------|
E|--------------------------------------------------------------------|

E|-------------------------------------------------------------------10--|
B|------13b15------------13--------------------------------------10------|
G|-------------------------------------------------------12--------------|
D|-----------------------------------------------------------------------|
A|-----------------------------------------------------------------------|
E|-----------------------------------------------------------------------|

E|-----------------------------------------------------------x-----------|
B|--13p10----------------------------------------------------x-----------|
G|---------12----12b14----10----12p10--------10b12----------------12p10--|
D|-------------------------------------12-----------12----x-------12p10--|
A|-----------------------------------------------------------------------|
E|-----------------------------------------------------------------------|

E|---------------------------------------------------------------------|
B|---------------------------------------------------------------------|
G|---------------------------------------------------------------------|
D|---------------------------------------------------------------------|
A|----12p10----12p/10----8--------10p8----------------------------8----|
E|--------------------------------------10p8------10----10--10---------|

E|----------------------------------------------------------------------|
B|----------------------------------5h6p5-------------------------------|
G|--------------------------5--7-----------7----7p5-----5b7----------7--|
D|----------------------/7---------------------------7------------------|
A|----------------------------------------------------------------------|
E|--10p8----10----------------------------------------------------------|

E|---------------------------------------------------------------------|
B|----------6------b2------------13b15------------------------13b15----|
G|--x--7p5-------------------------------------------------------------|
D|---------------------------------------------------------------------|
A|---------------------------------------------------------------------|
E|---------------------------------------------------------------------|

E|----r---------------------------------15b17----------13p10----------|
B|-------------13b15------------13------------------------------------|
G|--------------------------------------------------------------------|
D|--------------------------------------------------------------------|
A|--------------------------------------------------------------------|
E|--------------------------------------------------------------------|

E|---------------13----12----15b17----r--b2--r--b2--r--------15b17----|
B|----/----15---------------------------------------------------------|
G|--------------------------------------------------------------------|
D|--------------------------------------------------------------------|
A|--------------------------------------------------------------------|
E|--------------------------------------------------------------------|

E|----------18b20------18b20--------------------20b22--------------20--|p
B|----15---------------------------------------------------------------|
G|---------------------------------------------------------------------|
D|---------------------------------------------------------------------|
A|---------------------------------------------------------------------|
E|---------------------------------------------------------------------|

E|--17----20p17-------------------------------------------------------|
B|--------------------------------------------------------------------|
G|---------------------10--------------10--------10----b--------------|
D|----------------------------------------------------------12--------|
A|--------------------------------------------------------------------|
E|--------------------------------------------------------------------|

E|-----------------------------------------------------------------------|
B|---------------------10----10--x--x------------------------------------|
G|----------x----------10----10--x--x--------------x----------------10/h-|
D|----------x----12----------------------12--------x----10----10----12/h-|
A|-----------------------------------------------------------------------|
E|-----------------------------------------------------------------------|

E|--------------------------------------------------------------------|
B|--------13------12--------12----------\--10-------------------------|
G|--12----12------12--------12----------\--10--------------x----------|
D|--14----14-----------------------------------------------x----12----|
A|--------------------------------------------------------------------|
E|--------------------------------------------------------------------|

E|--------------------------------------------------------------------|
B|--10--10--x--x------------------x------x--x-------------------------|
G|--10--10--x--x------------------x------x--x-------------------------|
D|--------------------12----------------------------------------------|
A|-----------------------------------------------10----8p10--10----x--|
E|--------------------------------------------------------------------|

E|-----------|
B|-----------|
G|-----------|
D|-----------|
A|----8------|
E|-------10--|

- -

Below is the fill between the lines:
"Hey Teacher, leave them kids alone" and "All in all..." in Another Brick
in the Wall pt 2. This is how DG plays it on the 1994 Earls Court video:

Hey Teacher, leave them kids alone
                                                    F
E:--10---8---10-----10-10---8---8---7-7-7---5-------1--------------|
B:--10---8---10-----10-10---8---8---8-8-8---6-------1--------------|
G:--10---9---10-----10-10---9---9---7-7-7---5-------2--------------|
D:--------------------------------------------------3--------------|
A:--------------------------------------------------3--------------|
E:--------------------------------------------------1--------------|

                     C                    Dm
All in all it's just another brick in the wall


--
Updated January 6/98
------------------------------------------------------------------------------|
----------------------------------PLEASE NOTE---------------------------------|
This file is the author's own work and represents their interpretation of
the song. You may only use this file for private study, scholarship, or
research.
---------------------------------------------------------------------------
Transcription by: Daniele Rongione

MOTHER
Pink Floyd
(Waters)

G                                       C       D G
Mother do you think they'll drop the bomb?
G                                        C      D G
Mother do you think they'll like this song?
C                                               G
Mother  do you think they'll try to break my balls?

D         C                                   G
Ohhhh..   Ahhhh.. Mother should I build the wall?

G                               C               D G
Mother should I run for president?
G                                   C           D G
Mother should I trust the government?
C                                         G
Mother will they put me in the firing line?
D         C                                         G
Ohhhh...  Ahhhhh.. Mother is it just a waste of time?

G                         C
Hush now baby don't you cry.
F                             C
Mama's gonna make all of your nightmares come true
F                           C
Mama's gonna put all of her fears into you,
F                                 C
Mama's gonna keep you right here, under her wing,
F                              C
She won't let you fly, but she might let you sing,
F                       C        G
Mama's gonna keep baby cozy and warm.

D         C
Ohhhh...  Babe,
D         C
Ohhhh...  Babe,
D            C                                       G
Ohh... Babe, of course mama's gonna help build the wall.

SOLO:
e-|-----------------------------------------------|
b-|-----13b(14)----13b(14)r13-12-13---------------|
g-|-12--------------------------------------------|
d-|------------------------------------14p13-14---|
a-|-----------------------------------------------|
E-|-----------------------------------------------|

e-|-------------------------------------|
b-|-------------------------------------|
g-|-------------------------------------|
d-|------5--5--4------------------------|
a-|-5s7-----------5---3-2-3--3-5-3vvvv--|
E-|-------------------------------------|

e-|---------------------------------------------------------|
b-|-----8-10-10b12---10b(12)r10-8-10b(13)-------------------|
g-|-2s7------------------------------------9p8-9------------|
d-|---------------------------------------------------------|
a-|---------------------------------------------------------|
E-|---------------------------------------------------------|

e-|---12b(14)r12-10----10b(12)r10-8--8p7h8p7----------------|
b-|--x----------------x----------------------8--------------|
g-|-x----------------x-------------------------7-5s4--------|
d-|--------------------------------------------------5------|
a-|---------------------------------------------------------|
E-|---------------------------------------------------------|


G                                    C                    G
Mother do you think she's good enough..                 for me?
G                                    C                    G
Mother do you think she's dangerous..                   to me?
C                                       G
Mother will she tear your little boy apart?
D         C
Oohhhh..   Aaahhh...
G                             C
Mother will she break my heart?

G                          C
Hush now baby don't you cry.
F                                  C
Mama's gonna cheak out all of your girlfriends for you,
F                    C
Mama won't let anyone dirty get through,
F                    C
Mama's gonn wait up, untill you get in,
F                         C
Mama will always find out just where you've been,
F                       C                G
Mama's gonna keep baby, healthy and clean.
D            C
Ooohhhh...  Baby,
D            C
Ooohhhh...  Baby,
D       C       G
Ooohhhh baby, you'll always be baby to me.

G                           C
Mother did it need to be so high?

--
Updated:  March 3/98
------------------------------------------------------------------------------|
----------------------------------PLEASE NOTE---------------------------------|
This file is the author's own work and represents their interpretation of
the song. You may only use this file for private study, scholarship, or
research.
---------------------------------------------------------------------------
TRANSCRIBED BY JEFF SCOTT (jscotts@iinet.net.au)(comments etc welcome)

EMPTY SPACES/WHAT SHALL WE DO NOW?
Pink Floyd
(Roger Waters)

FROM THE MOVIE PINK FLOYD THE WALL

Guitar has distortion and echo, plus lots of use of whammy bar.

|N.C.
E---------|----------|----------|------B---R---|--------|---------|--------|
B--5------|-7--------|8---------|7----7(8)--7--|5-------|---------|--------|
G---------|----------|----------|--------------|--------|---------|--------|
D---------|----------|----------|--------------|--------|---------|--------|
A---------|----------|----------|--------------|--------|---------|--------|
E---------|----------|----------|--------------|--------|---------|--------|

|
E---------|----------|----------|---------|-----------|---------|----------|
B-5-------|/5--------|7-----5-7-|8--------|7----------|---------|----------|
G---------|----------|----------|---------|---------7-|7-9------|----------|
D---------|----------|----------|---------|-----------|---------|----------|
A---------|----------|----------|---------|-----------|---------|----------|
E---------|----------|----------|---------|-----------|---------|----------|

|                     B5                                        F#5
E---------|----------|19-----19-17-19-----|19--19(20)---19-----|14----17-14|
B---------|----------|-(2 guitars)--------|------B-------------|-----------|
G---------|----------|11------------------|--------------------|-----------|
D---------|----------|-9------------------|--------------------|11---------|
A---------|----------|--------------------|--------------------|-9---------|
E---------|----------|--------------------|--------------------|-----------|

|                    B5                                F#5
E---B------17--17/19|19-------19-18|19--18-19----19\--|14----17-14|17(19)--|
B-17(19)------------|--------------|------------------|-----------|--B-----|
G-------------------|-4------------|------------------|-----------|--------|
D-------------------|-4------------|------------------|-4---------|--------|
A-------------------|-2------------|------------------|-4---------|--------|
E-------------------|--------------|------------------|-2---------|--------|

| E5
E----------14(15)|14--------|15--------|17-----17/19|19---19-19-19---------|
B-17---------B---|----------|----------|------------|----------------------|
G--4-------------|-6--------|-7--------|-9----------|11--------------------|
D--2-------------|-4--------|-5--------|-7----------|-9--------------------|
A----------------|----------|----------|------------|----------------------|
E----------------|----------|----------|------------|----------------------|

|
E-------------17/19|---------------|------------|----------------|---------|
B------------------|---------------|------------|----------------|---------|
G-4----2-----------|---------------|------------|----------------|---------|
D-----------4------|3----2---------|------------|----------------|---------|
A-(Bass run)-------|----------3----|2-----------|----------------|---------|
E------------------|---------------|------------|0---------------|2--------|
                                                 What shall   we  use    to

|
E-------------|-------------|--------------|----------|---------|----------|
B-------------|-------------|--------------|----------|---------|----------|
G-------------|-------------|--------------|----------|---------|----------|
D-------------|-------------|--------------|----------|---------|----------|
A-------------|-------------|--------------|----------|---------|----------|
E-3-----------|2------3-2-0-|0-------------|2---------|3--------|2----3-2-0|
  fill    the  empty         spaces  where  waves  of  hunger    roar

|
E-----------------|---------------|----------|----------------|------------|
B-----------------|---------------|----------|----------------|------------|
G-----------------|---------------|----------|----------------|------------|
D-----------------|---------------|----------|----------------|------------|
A-----------------|---------------|----------|----------------|------------|
E-0---------------|2--------------|3---------|2----------3-2-0|0-----------|
  Shall we set out__  across this  sea    of  faces            In search of

|                                    E5            F#5          G5
E-------------|----------|----------|-------------|------------|-----------|
B-------------|----------|----------|-------------|------------|-----------|
G-------------|----------|----------|-9-9-9-------|11-11-11----|12-12-12---|
D-------------|----------|----------|-9-9-9-------|11-11-11----|12-12-12---|
A-------------|----------|----------|-7-7-7-------|-9--9--9----|10-10-10---|
E-2-----------|3---------|2---------|-------------|------------|-----------|
  more    and  more    ap-plause

|F#5       |E5        |F#5      |G5      |F#5           |G5                |
 sim power chords                              Shall we  buy a new guitar?

|F#5        |G5                   |F#5           |G5                       |
    Shall we drive a more powerful car?  Shall we work straight through the

|F#5                     |G5                       |                       |
 night?          Shall we get into fights leave the lights on drop bombs do

|                     |                   |B5                       |
 tours of the East con-tract diseases bury bones break up homes send

|                        |                           |                     |

 flowers by phone take to drink go to shrinks give up meat rarely sleep keep

|                    |                       |                    |
 people as pets train dogs race rats fill the attic with cash bury

|                 |                          |F#5                 |
 treasure store up leisure but never relax at all

|                       |E5             ||
   With our backs to the wall

--
Updated:  April 10/98
------------------------------------------------------------------------------|
----------------------------------PLEASE NOTE---------------------------------|
This file is the author's own work and represents their interpretation of
the song. You may only use this file for private study, scholarship, or
research.
---------------------------------------------------------------------------
Contributed by Chris Hannon (http://www.angelfire.com/md/severnapark)


YOUNG LUST
Pink Floyd   (PART 1)
(Waters, Gilmour)


(E5)
I am just a new boy,
---------------------------------|
------------------3--------------|
------------2/4------------------|
---------------------------------|
---------------------------------|
-0----0--------------------------|

A
     a
---------------------------------|
---------------------------------|
--------------x---2---2----------|
--------------x---2---2----------|
--------------x---0---0----------|
---------------------------------|

E5
stranger in this town
--------------------------------|
------------------3-------------|
-----------2/4------------------|
--2---2-------------------------|
--2---2-------------------------|
--0---0-------------------------|

---------------------------------|
---------------------------------|
-----------------0--2----2-------|
---------------------------------|
---------------------------------|
---------------------------------|

Who's gonna show this stranger around.
---------------------------------|
------------------3--------------|
------------2/4------------------|
---------------------------------|
---------------------------------|
-0----0--------------------------|

---------------------------------|
-------------------------0-------|
---------------------------------|
---------------------------------|
------------------------------3--|
------------------------------1--|

Pre-chorus:
G5
--------------------------------------------------|
--------------------------------------------------|
--------------------------------------------------|
--------------------------------------------------|
--5------(5)--7------(7)-5--5--5--5--7--------7---|
--3----3--3--3----3--3--3--3--3--3--3----3--------|

--------------------------------------------------|
--------------------------------------------------|
--------------------------------------------------|
--------------------------------------------------|
--5----x--x--7----x--x--5----x--x--7/---x--x------|
--3----x--x--3----x--x--3----x--x-(3)----x--x-----|

(E5)
---------------------------------|
------------------3--------------|
------------2/4------------------|
---------------------------------|
---------------------------------|
------0--------------------------|

--------------------------------------------------|
--------------------------------------------------|
-----------------------------x--x--x--------------|
-----------------------------x--x--x--------------|
-----------------------------x--x--x--------------|
-----------------------------x--x--x--10\---------|

Chorus:
Am
Ooh,
--------------------------------------------------|
--------------------------------------------------|
--5-------------------------------5---------------|
--7-------------------------------7---------------|
--7-------------------------------7---------------|
--5-------------------------------5--------5------|

  I need a dirty woman
--------------------------------------------------|
--------------------------------------------------|
--5------------------5\---------------------------|
--7------------------7\---------------------------|
--7------------------7\---------------------------|
--5------------------5\---------------------------|

G
--------------------------------------------------|
--------------------------------------------------|
--4------------------4----------------------------|
--5------------------5----------------------------|
--5------------------5----------------------------|
--3------------------3------------------3---------|

--------------------------------------------------|
--------------------------------------------------|
--4-----------------(4)---4------(5)---5----------|
--5------------------5----5-------6---6-----------|
--5------------------5----5-------6---6-----------|
--3------------------3----3-------4---4-----------|

Am
Ooh,
--------------------------------------------------|
--------------------------------------------------|
--5----------------------------------------5------|
--7----------------------------------------7------|
--7----------------------------------------7------|
--5----------------------------------------5------|

  I need a dirty girl.
--------------------------------------------------|
--------------------------------------------------|
--5------------------5--5-------------------------|
--7------------------7--7-------------------------|
--7------------------7--7-------------------------|
--5-------------------------5\--------------------|

(E5)
-------------------------------------------------|
-------------------------------------------------|
-------------------------------------------------|
-------------------------------------------------|
-------------------------------------------------|
----0--------------------------------------------|

---------------------------------------------------|
----------------------12------------15-------------|
----------------------12-------12------------------|
--------------------------------12-----------------|
-----------12/-------------------------------------|
---------------------------------------------------|

--
Updated:  April 10/98
------------------------------------------------------------------------------|
----------------------------------PLEASE NOTE---------------------------------|
This file is the author's own work and represents their interpretation of
the song. You may only use this file for private study, scholarship, or
research.
---------------------------------------------------------------------------
Transcription by:  ?

ONE OF MY TURNS
Pink Floyd
(Waters)

C              Em
Day after day, love turns grey
         F                   C
Like the skin of a dying man
C                            Em
And night after night, we pretend it's all right
    Dm
But I have grown older and
Dm
You have grown colder and
Dm                   G7
Nothing is very much fun anymore.
    C     Em   F                      C
And I can feel one of my turns coming on.
C Fmaj7 Em    Dm
I       feel, cold as a razor blade
Dm
Tight as a tourniquet
Dm               G7
Dry as a funeral drum

Eb           Bb            Eb              Bb
Run to the bedroom, in the suitcase on the left
       C7      Dm Bb E7  Dm     Am  Dm    Am
You'll find my favourite axe
Bb
Don't look so frightened
        Eb                   Bb
This is just a passing phase
       Dm
One of my bad days
Bb        Eb              Bb
Would you like to watch T.V.?
    Eb                    Bb
Or get between the sheets?
         Dm
Or contemplate the silent freeway?
Dm
Would you like something to eat?
          Eb
Would you like to learn to fly?  Would you?
          Dm
Would you like to see me try?

D       G   C   Eb   Bb   Eb   Bb   Dm     Eb   Bb   Eb   Bb   Dm

Am7  Dm7  C           Eb
            Would you like to call the cops?
Eb
Do you think it's time I stopped?
Gm(9)
Why are you running away?


--
Updated:  April 10/98
------------------------------------------------------------------------------|
----------------------------------PLEASE NOTE---------------------------------|
This file is the author's own work and represents their interpretation of
the song. You may only use this file for private study, scholarship, or
research.
---------------------------------------------------------------------------
Transcription by:  ?


DON'T LEAVE ME NOW
Pink Floyd
(Waters)

G   G+       Fm7
       Ooooh Babe
                     Dm7-5
Don't leave me now.
                              Bb11
Don't say it's the end of the road

Remember the flowers I sent
       G
I need you Babe
   G+
To put through the shredder

In front of my friends
      Fm
Ooooh Babe
                    Dm7-5
Don't leave me now
                   Bb11
How could you go?
                              G
When you know how I need you.
                        G+
To beat to a pulp on a Saturday night
      Fm
Ooooh Babe
               Fm(maj7)  Dm7-5
Don't leave me now
                          Bb9
How can you treat me this way?

Running away
G
Ooooooh babe
                           Dm  Am  Dm  Am  Dm  Am  Dm  G7  Am
Why are you running away?                              Oooooooh


--
Updated:  April 10/98
------------------------------------------------------------------------------|
----------------------------------PLEASE NOTE---------------------------------|
This file is the author's own work and represents their interpretation of
the song. You may only use this file for private study, scholarship, or
research.
---------------------------------------------------------------------------
Transcription by:  ?


ANOTHER BRICK IN THE WALL PART THREE
Pink Floyd
(Waters)

Dm                               Dm7
I don't need no arms around me
Dm                                Dm7
I don't need no drugs to calm me
Dm
I have seen the writing on the wall
Dm                             G
Don't think I need anything at all
                                  Dm
No don't think I need anything at all
F                 C                      Dm
All in all it was all just bricks in the wall
F                   C                      Dm
All in all you were all just bricks in the wall

--
Updated:  April 10/98
-----------------------------------------------------------------------------
D
|----------------------------------------------------------------------------|
|----------------------------------------------------------------------------|
|----------------------------------------------------------------------------|
|-----0------0---------------------------------------------------------------|
|----------------------------------------------------------------------------|
|-0-------0------------------------------------------------------------------|
Goodbye cruel world

    G
|-------------------------------------------------------------------------------|
|-------------------------------------------------------------------------------|
|-------------------------------------------------------------------------------|
|------5-----5------------------------------------------------------------------|
|-------------------------------------------------------------------------------|
|---5-----5---------------------------------------------------------------------|
I'm leaving you today

    D        A        D
|---------------------------------------------------------------------------------|
|---------------------------------------------------------------------------------|
|---------------------------------------------------------------------------------|
|-----0--------7---------0--------------------------------------------------------|
|---------------------------------------------------------------------------------|
|--0-------7----------0-----------------------------------------------------------|
Goodbye, Goodbye, Goodbye

(interlude)
D
|---------------------------------------------------------------------------------|
|---------------------------------------------------------------------------------|
|---------------------------------------------------------------------------------|
|-----0----0-----0-----0----------------------------------------------------------|
|---------------------------------------------------------------------------------|
|--0-----0----0-----0-------------------------------------------------------------|

D
|-------------------------------------------------------------------------------|
|-------------------------------------------------------------------------------|
|-------------------------------------------------------------------------------|
|----0-----0--------------------------------------------------------------------|
|-------------------------------------------------------------------------------|
|-0-----0-----------------------------------------------------------------------|
Goodbye all you people

        G
|-------------------------------------------------------------------------------|
|-------------------------------------------------------------------------------|
|-------------------------------------------------------------------------------|
|-----5-----5-------------------------------------------------------------------|
|-------------------------------------------------------------------------------|
|--5-----5----------------------------------------------------------------------|
There's nothing you can say

           D         A
|-------------------------------------------------------------------------------|
|-------------------------------------------------------------------------------|
|-------------------------------------------------------------------------------|
|---------0---------7-----------------------------------------------------------|
|-------------------------------------------------------------------------------|
|------0---------7--------------------------------------------------------------|
To make me change my mind

D
|------------------------------------------------------------------------------|
|------------------------------------------------------------------------------|
|------------------------------------------------------------------------------|
|------------------------------------------------------------------------------|
|------------------------------------------------------------------------------|
|-0----------------------------------------------------------------------------|
Goodbye.
------------------------------------------------------------------------------|
----------------------------------PLEASE NOTE---------------------------------|
This file is the author's own work and represents their interpretation of
the song. You may only use this file for private study, scholarship, or
research.
---------------------------------------------------------------------------
Transcription by: Jacob David Sudol

HEY YOU
Pink Floyd
(Roger Waters)


INTRO:
e-|-----------------|-----------------|-------5-----5---|-------5-----5-----|
B-|-7-----8-----8---|-7-----8-----8---|-5-------6-------|-5-------6---------|
G-|-----9---9-----9-|-----9---9-----9-|-----7-----7---7-|-----7-----7---7---|
D-|---9-------9-----|---9-------9-----|---7-------------|---7---------------|
A-|-----------------|-----------------|-----------------|-------------------|
E-|-----------------|-----------------|-----------------|-------------------|
							 ____________________
                                                        |1.
|-----------------|-----------------|-------5-----5----|-------5-----5------||
|-7-----8-----8---|-7-----8-9---8---|-5-------6--------|-5-------6-----8----||
|-----9---9-----9-|-----9-----9---9-|-----7-----7---7--|-----7-----7-------*||
|---9-------9-----|---9-------------|---7--------------|---7---------------*||
|-----------------|-----------------|------------------|--------------------||
|-----------------|-----------------|------------------|--------------------||

 ________________
|2.
|--------2------||
|--2-------3----||
|------4--------||
|----4----------||
|---------------||
|---------------||
  Hey

VERSE:
(Rhythm figure 1)
|------------------|-----------------|-----------------|
|--7-----8-----8---|-7-----8-----8---|-7-----8-7---8---|
|------9---9-----9-|-----9---9-----9-|-----9---------7-|
|----9-------9-----|---9-------9-----|---9-------9-----|
|------------------|-----------------|-----------------|
|------------------|-----------------|-----------------|
you,             Out there in the cold, getting lonely getting cold, Can

|--------7-------7-|-------7-----7---|-----------------|-----------------|
|--7---7-----7-----|-7---7---7-------|-7-----8-----8---|-7-----8-----8---|
|----------7---7---|-----------7---7-|-----9---9-----9-|-----9---9-----9-|
|----9-------------|---9-------------|---9-------9-----|---9-------9-----|
|------------------|-----------------|-----------------|-----------------|
|------------------|-----------------|-----------------|-----------------|
you feel me                       Hey  you,         Standing in the
                                                         aisles with itchy

|------------------|-------7-----7---|-------7-----7---|-------5-----5---|
|--7-----8-----8---|-7---7---7-----7-|-7---7---7-----7-|-5-------7-------|
|------9---9-----7-|-----------7-----|-----------7-----|-----7-----7---7-|
|----9-------9-----|---9-------------|---9-------------|---7-------------|
|------------------|-----------------|-----------------|-----------------|
|------------------|-----------------|-----------------|-----------------|
feet and fasing smiles can you feel me?            Hey, you     don't

(end Rhy. fig 1)
|--------5-----5---|-7-----------3-|-------3-----3---|-------3-----3---|
|--5-------7-------|-8---8-7-------|-5---5---5-----5-|-5---5---5-----3-|
|------5-----7---7-|-7-7-------7---|---5-------5-----|---5-------5-----|
|----7-------------|---------7-----|-----------------|-----------------|
|------------------|---------------|-----------------|-----------------|
|------------------|---------------|-----------------|-----------------|
 help them to bury the light.

|--------7-----7---|-------5-----5---|-----------------|-----------------|
|--7---7---7-----7-|-5---5---5-------|-7-----8-----8---|-7-----8-----8---|
|------------7-----|-----------5---7-|-----9---9-----9-|-----9---9-----9-|
|----9-------------|---7-------------|---9-------9-----|---9-------9-----|
|------------------|-----------------|-----------------|-----------------|
|------------------|-----------------|-----------------|-----------------|
Don't give in             without a fight.

|---------5-----5---|-------5---||
|--5--------6-------|-5-------6-||
|-------7-----7---7-|-----7-----||
|-----7-------------|---7-------||
|-------------------|-----------||
|-------------------|-----------||

VERSE 2:
(Gtr. 1 - Rhy. fig 1
 Gtr. 2 - acoustic strums chords high to low)

Em9
Hey, you
Out there on you own, sitting naked by the phone,
      Bm
would you touch me?
Em9
Hey, you,
with you ear against the wall, waiting for someone to call out,
    Bm              Dsus2
would you touch me?
Hey, you,
                                G    D    C
Would you help me to carry the sto - o - one?
Bm                      C        Em
Open your heart, I'm coming home.

SOLO:(Gtr. 2 electric plays Rhy. fig. 2 - 8 X)
 (Rhythm fig 2)                                           (end Rhy. fig 2)
e-|--------------------------|----------------------|-----------------------||
B-|--------------------------|----------------------|-----------------------||
G-|--------------------------|----------------------|-----------------------||
D-|--------------------------|----------------------|-----------------------||
A-|--------------------------|----------------------|-----------------------||
E-|-10\--0--2-2>(3)-2vvvvvv--|--0--2-2>(3)-2vvvvvv--|--0-0-2-2>(3)-2vvvvvvv-||

(Gtr. 3 electric)
|-----------------------------------------------------------------------------|
|-3>(5)=======(5)vvvvvvvvvvvvv(5)=====>3--3>(5)==(5)vvvvvvvvvvvvvvv(5)====>3--|
|-----------------------------------------------------------------------------|
|-----------------------------------------------------------------------------|
|-----------------------------------------------------------------------------|
|-----------------------------------------------------------------------------|

|-----------------------------------------------------------------------------|
|-3>(5)vvvvvvvvvvvvvvvvvvvv>(4)>(5)>===(4)>(5)>===(4)>(5)------3>(5)vvvvvvvv--|
|-----------------------------------------------------------------------------|
|-----------------------------------------------------------------------------|
|-----------------------------------------------------------------------------|
|-----------------------------------------------------------------------------|

|-----------------------------------------------------------------------------|
|--3/7vvvvvvvvvv--5-7-7>(8)>7vvvvvvvvv---5-7-7>(8)>7vvvvvvvv---5-7-7>(8)>7vvvv|
|-----------------------------------------------------------------------------|
|-----------------------------------------------------------------------------|
|-----------------------------------------------------------------------------|
|-----------------------------------------------------------------------------|

|---------------5--7-5-7--7>(8)vvvvvvvvvv(8)==>7>(8)--7>(8)vvvvvvvv-7---|
|--5vvvvvv-7-8----------------------------------------------------------|
|-----------------------------------------------------------------------|
|-----------------------------------------------------------------------|
|-----------------------------------------------------------------------|
|-----------------------------------------------------------------------|

|--7>(8)vvvvvvv(8)===>7--7>(8)vvvvvvvvv----------12-----------------------|
|----------------------------------------15>(17)-----15>(17)vvvvvvv>(16)--|
|-------------------------------------------------------------------------|
|-------------------------------------------------------------------------|
|-------------------------------------------------------------------------|
|-------------------------------------------------------------------------|

|------------12---15-----------12--15-------------------------|
|---15>(17)-----------15>(17)----------15>(17)vvvvvvvvvvvvvv--|
|-------------------------------------------------------------|
|-------------------------------------------------------------|
|-------------------------------------------------------------|
|-------------------------------------------------------------|

|----------------------------------12------------------------------------|
|--15>(17)======>15>12----------12-----15>(17)=====>(16)>(17)=======>15--|
|-----------------------14>(16)------------------------------------------|
|------------------------------------------------------------------------|
|------------------------------------------------------------------------|
|------------------------------------------------------------------------|

|----------14-15/17-17/19--17--19--19>(20)========(20)>19---19>(20)-17>19--|
|--15>(17)-----------------------------------------------------------------|
|--------------------------------------------------------------------------|
|--------------------------------------------------------------------------|
|--------------------------------------------------------------------------|
|--------------------------------------------------------------------------|

							v-- slow dive w/ bar
|--19>17--20--19>(20)==>19--19>(20)==========(20)==>19>17--19--------------||
|--------------------------------------------------------------------------||
|--------------------------------------------------------------------------||
|--------------------------------------------------------------------------||
|--------------------------------------------------------------------------||
|--------------------------------------------------------------------------||

BRIDGE:
C           D     G  D  C
But it was only  fantasy
C                D       G   D   C
The wall was too high as you can see.
                 D               G   D     C
No matter how he tried, he could not break free,
            D        Emadd9
and the worms ate into his brain.

Play This 4 Times:
____________________
| 1.-3.
e-|-----------------|-----------------|-------5-----5---|-------5-----5-----||
B-|-7-----8-----8---|-7-----8-----8---|-5-------6-------|-5-------6---------||
G-|-----9---9-----9-|-----9---9-----9-|-----7-----7---7-|-----7-----6---7--*||
D-|---9-------9-----|---9-------9-----|---7-------------|---7--------------*||
A-|-----------------|-----------------|-----------------|-------------------||
E-|-----------------|-----------------|-----------------|-------------------||
 __________________________________________
| 4.
e-|-----5-----5--------5----|----5-----5----|
B-|--5-----------6----------|-5-----------6-|
G-|--------7--------7-----7-|-------7-------|
D-|-----7-------------------|----7----------|
A-|-------------------------|---------------|
E-|-------------------------|---------------|

VERSE:(with Rhy. fig. 1)
Em add9
Hey, you
out there on the road,
Em add 9
always doing what your told,
    Bm
can you help me?
Em add 9
Hey you,
out beyond the wall,
Em add 9
breaking bottles in the hall,
    Bm
can you help me?

ELECTRIC:
e-|----------------------|--------------------------------------------|
B-|----------------------|--------------------------------------------|
G-|---4------5---6---7---|--------------------------------------------|
D-|---4------5---6---7---|--------------------------------------7\----|
A-|---2------3---4---5---|--------------------------------------5\----|
E-|----------------------|--------------------------------------------|
			    Hey you!  Don't tell me there's no hope at

e-|-------------------|------------------------|-------------------|
B-|-------------------|------------------------|-------------------|
G-|--------7----5-----|-----5-----5--5----5\4--|--4----------------|
D-|---5----7----5-----|-----5-----5--5----5\4--|--4----------------|
A-|---5----5----3-----|-----3-----3--3----3\2--|--2----------------|
E-|---3---------------|------------------------|-------------------|
     all______________.                       To - gether we stand,

e-|------------------------|-------------------------||
B-|------------------------|-------------------------||
G-|---2--------------------|-------------------------||
D-|---2--------------------|---2---------------------||
A-|---0--------------------|---2---------------------||
E-|------------------10\---|---0---------------------||
		divided we fall.

--
Updated:  April 10/98
------------------------------------------------------------------------------|
----------------------------------PLEASE NOTE---------------------------------|
This file is the author's own work and represents their interpretation of
the song. You may only use this file for private study, scholarship, or
research.
---------------------------------------------------------------------------
Transcription corrected by:  AVI YACOVE from israel


IS THERE ANYBODY OUT THERE?
Pink Floyd
(Waters)

From "The Wall" 1979

    No Chord
e-|-----------||
B-|-----------||
G-|-----2-----||  (x8)
D-|-----------||
A-|--0--------||
E-|-----------||

     Am		       Am/F		Am/F#	           Am/F
e-|--------0---------|------0----------|------0----------|------0----------|
B-|------1---1-------|-----1---1-------|----1---1--------|----1---1--------|
G-|----2------2---2--|---2-------2---2-|---2------2---2--|---2-------2---2-|
D-|--2----------2----|-3-----------3---|-4----------4----|-3-----------3---|
A-|------------------|-----------------|-----------------|-----------------|
E-|------------------|-----------------|-----------------|-----------------|

    Am	     Am/D      Am/C    Am/B      Am
e-|-------0--------0-|-------0-------0-|---------0-------|-------------------|
B-|-----1--------1---|-----1-------1---|-------1---1-----|----------1--------|
G-|---2--------2-----|---2-------2-----|-----2-------2---|--------2---2------|
D-|-2--------0-------|-----------------|---2-----------2-|------2-------2----|
A-|------------------|-3-------2-------|-0---------------|----0--------------|
E-|------------------|-----------------|-----------------|-------------------|


e-|------------0-------|-----------------------|     another mistake ...........
B-|---------1---1-----|-----------1------------|
G-|-------2-------2---|---------2---2----------|
D-|--2--2-----------2-|------2---------2----2--|
A-|0--0---------------|----0--------------0----|
E-|------------------|-------------------------|

		       Am/F	         Am/F#             Am/F
e-|--------0---------|-------0---------|-------0---------|-------0---------|
B-|------1---1-------|-----1---1-------|-----1---1-------|-----1---1-------|
G-|----2------2---2--|---2-------2---2-|---2------2---2--|---2-------2---2-|
D-|--2----------2----|-3-----------3---|-4----------4----|-3-----------3---|
A-|------------------|-----------------|-----------------|-----------------|
E-|------------------|-----------------|-----------------|-----------------|

    F        Am/D                  N.C.  Am
e-|----------------0-|-------0---------|---------0-------|
B-|-----1--------1---|-----1---1-------|-------1---1-----|
G-|---2--------2-----|---2-------2-----|-----2-------2---|
D-|-3------2-0-------|-0---------------|---2-----------2-|
A-|------------------|-------------3-2-|-0---------------|
E-|------------------|-----------------|-----------------|

e-|------------------|---------0-------|--------------0--|
B-|------------1-----|-------1---1-----|-----------1-----|
G-|----------2---2---|-----2-------2---|---------2-------|
D-|----2---2-------2-|---2-----------2-|---2---2---------|
A-|--0---0-----------|-0---------------|-0---0-----------|
E-|------------------|-----------------|-----------------|

    C                  G/B               Am
e-|---------0--------|--------------0--------|---------0------------------|
B-|-------1---1------|-------1h3---3p1---|-------0---0-------5----3---1--0|*the mistake was here,
G-|-----0-------0----|-----0----------------|-----2-------2/5-----4---2-0-|and this is an
D-|---2-----------2--|---0-----------------|---2--------------------------|important part
A-|-3----------------|-2--------------------|-0---------------------------|like everything else
E-|------------------|-------------------------|--------------------------|

    C	               G/B		 Am                N.C.
e-|---------0--------|-----------0-----|---------0-------|-----8------7----|
B-|-------1---1------|-------1-3---3-1-|-------0---0-----|-----------------|
G-|-----0-------0----|-----0-----------|-----2-------2---|---9------7------|
D-|---2-----------2--|---0-------------|---2-------------|-----------------|
A-|-3----------------|-2---------------|-0---------------|-----------------|
E-|------------------|-----------------|-----------------|-----------------|

    Am                 Am/F	         Am/F#	           Am/F
e-|--------0---------|------0----------|-------0---------|------0----------|
B-|------1---1-------|-----1---1-------|-----1---1-------|----1---1--------|
G-|----2------2---2--|---2-------2---2-|----2------2---2-|---2-------2---2-|
D-|--2----------2----|-3-----------3---|--4----------4---|-3-----------3---|
A-|------------------|-----------------|-----------------|-----------------|
E-|------------------|-----------------|-----------------|-----------------|

    Am       Am/D      Am/C     Am/B     Am			      u.
e-|-------0--------0-|-------0-------0-|-----------------|-5-7-8------12---||
B-|-----1--------1---|-----1-------1---|-------1----1/5--|------------10---||
G-|---2--------2-----|---2-------2-----|-----2-----------|------------9----||
D-|-2--------0-------|-----------------|---2-------------|------------10---||
A-|------------------|-3-------2-------|-0---------------|------------0----||
E-|------------------|-----------------|-----------------|-----------------||


--
Updated:  October 28, 1999
------------------------------------------------------------------------------|
e|-12-----12--12-------------12----------------------------------------0------|
B|-13-----13-----15-13h15p13-13--13---------15------10--9--9-----------1------|
G|-14--14-13-----------------12-----12-9----14------10--10---10--------0------|
D|---------------------------------------10-12------10--10------10-----2------|
A|----------------------------------------------5-7-8---8----------8-3-3------|

(Verse chords)

           C
I've got a little black book with my poems in...

      Bm
got a bag with a toothbrush and a comb in...

    F                                       C
but im a good dog sometimes they throw me a boney...

(Pretty much the same each time...except for...)

amazing powers of observation....

G|-9---9--6--4--4---5-|
D|-10--9--7--4--5---6-|
A|-10--9--7--4--5---6-|
E|-8---7--5--2--3---4-|


e|-12---------12-12-12--------------------------12-----------------------0-|
B|-13---------13-13-13--------------------------13-15-10--9--9-----------1-|
G|-14---------14-13-12--------------------------12-14-10--10---10--------0-|
D|-------------------------------------------------12-10--10------10-----2-|
A|----------------------------------------------------8---8----------8-3-3-|
   Oooo...Babe          When I pick up the phone             There's still
nobody home

That's pretty much the entire song, complaments of zerodestructo
------------------------------------------------------------------------------|
----------------------------------PLEASE NOTE---------------------------------|
This file is the author's own work and represents their interpretation of
the song. You may only use this file for private study, scholarship, or
research.
---------------------------------------------------------------------------
Transcription by:  ?

VERA
Pink Floyd
(Roger Waters)

   (television sound efffects
    for approx. 18 seconds)
e-|----------------------------||--------------------------------|
B-|----------------------------||--------------------------------|
G-|----------------------------||--------------------------------|
D-|----------------------------||--------------------------------|
A-|----------------------------||--------------------------------|
E-|----------------------------||--------------------------------|
			          Does anybody here remember Vera

    Em
e-|----------------------------|-----------0--------------|
B-|--------0-------------------|--------0-----------------|
G-|-----0-----0-------0-----0--|-----0-----------0-----0--|
D-|--2-----------(2)-----2-----|--2-----------2-----0-----|
A-|----------------------------|--------------------------|
E-|----------------------------|--------------------------|
     Lynn?

      C				   D
e-|-------------0---------------|-----------2---------------|
B-|----------1-----1------------|--------3-----3------------|
G-|-------0-----------0---------|-----2-----------2-----0---|
D-|--------------------------2--|--0-----------------0------|
A-|---3-------------------3-----|---------------------------|
E-|-----------------------------|---------------------------|
		Remember	   how   she   said  that

      G	      D/F#		  C			      Em
e-|----------------------------|---------------------------|-----------------|
B-|----------------------------|-----------1---------------|-----------------|
G-|----------------------------|--------0-----0------------|-----------------|
D-|----------------------------|-----2-----------2-----2---|-----------------|
A-|----------------------------|--3-----------------3------|-----------------|
E-|---3--------2---------------|---------------------------|---0-------------|
     we would   meet  again	     some  sun - ny  day.

e-|-----------------------------------|----------------------------------|
B-|--(5)-----5/8-------7-------5------|--5/10-----10/13------------------|
G-|-------0--------0-------0-------0--|--------0----------0--------------|
D-|---2------2/5-------4-------2------|--2/7-------7/10------9-----------|
A-|-----------------------------------|----------------------------------|
E-|-----------------------------------|----------------------------------|

    Am7		    D		       G	      C		          Em
e-|--3-----------|--2-------------|----------------|--0----0--3--0-----------|
B-|--1-----------|--3-------------|-----------3----|--1----------------------|
G-|--0-----------|--2-------------|---(0)----------|--0----------------------|
D-|--2-----------|--0-------------|----------------|--2----------------0---2-|
A-|--0-----------|----------------|----------------|--3-------------3--------|
E-|--------------|----------------|----------------|-------------------------|
     u.		    u.				      u.

							Em7
e-|----------------------------|---------------------------------|
B-|----------------------------|-------------------------3-------|
G-|----------------------------|-------------------------0-------|
D-|----------------------------|-------------------------0-------|
A-|----------------------------|-------------------------2-------|
E-|----------------------------|-------------------------0-------|
    Vera!    Vera!		  What has become of you?

    Em				 C
e-|-----------0---------------|--------------0------------|
B-|--------0------------------|-----------1-----1---------|
G-|-----0------------0-----0--|--------0------------------|
D-|--2------------2-----0-----|-----2------------------2--|
A-|---------------------------|--3------------------3-----|
E-|---------------------------|---------------------------|
					   Does any - body

      D				 G		D/F#
e-|---------------------------|--3----------3---2h3---2-------|
B-|---------3-------0--1--2---|------0--------------------3---|
G-|------2--------------------|---------0---------------------|
D-|---0---------0-------------|-------------------------------|
A-|---------------------------|-------------------------------|
E-|---------------------------|--3--------------2-------------|
     else in here		 feel    the way  I     do?

     C
e-|-(0)--------0---------------|--------------------------------||
B-|---------1-----1------------|--------------------------------||
G-|------0------------0--------|--------------------------------||
D-|--------------------------0-|---2----------------------------||
A-|--3--------------------2----|--------------------------------||
E-|----------------------------|--------------------------------||
					   (Segue to "Bring the
					        Boys Back Home")

--
Updated:  April 10/98
-----------------------------------------------------------------------------
     Bring the boys back home
E|-0-----------2---------3-----------|
B|-1-----------3---------0-----------|
G|-0-----------2---------0-----------|
D|-2-----------0---------0-----------|
A|-3---------------------2-----------|
E|-----------------------3-----------|

     Bring the boys back home
E|-0-----------2---------3-----------|
B|-1-----------3---------0-----------|
G|-0-----------2---------0-----------|
D|-2-----------0---------0-----------|
A|-3---------------------2-----------|
E|-----------------------3-----------|

     Dont leave the children home alone
E|-0----------------2---------3---3---0-----|
B|-1----------------3---------0---0---1-----|
G|-0----------------2---------0---0---0-----|
D|-2----------------0---------0---0---2-----|
A|-3--------------------------2---0---3-----|
E|----------------------------3---2---------|

     Bring the boys back home
E|-0-----------2---------0----------------------------------------------------|
B|-1-----------3---------0----------------------------------------------------|
G|-0-----------2---------0----------------------------------------------------|
D|-2-----------0---------2----------------------------------------------------|
A|-3---------------------2----------------------------------------------------|
E|-----------------------0----------------------------------------------------|
------------------------------------------------------------------------------|
  	 Comfortably Numb Tab by Pink Floyd, www.Ultimate-Guitar.Com

Send "Comfortably Numb" to Cell Phone

Transcribed by www.mikesguitarsite.co.uk

Words & Music by Dave Gilmour & Roger Waters

Bm       x 2 4 4 3 2
A        x 0 2 2 2 0
G        3 2 0 0 3 3
Em       0 2 2 0 0 0

D/F#     2 x 0 2 3 x
C        x 3 2 0 1 0
Asus4    x 0 2 2 3 0
Asus2    x 0 2 2 0 0

G/B      x 2 0 0 3 3
Cadd9    x 3 2 0 3 0
D        x x 0 2 3 2

Gtr I (E A D G B E) - 'Dave Gilmour - Clean electric
- with volume pedal, slide and ping pong echo c.715ms'

Gtr II (E A D G B E) - 'String Section arr. for gtr'

Gtr III (E A D G B E) - 'Dave Gilmour - High Strung Acoustic Guitar'
High Strung Acoustic - low E string replaced with high E string
(therefore tuned 2 octaves higher than standard)  A, D, G strings
replaced with thin strings tuned one octave higher than standard

Gtr IV (E A D G B E) - 'Dave Gilmour - Lead - Dist electric'
Gtr V (E A D G B E) - 'Dave Gilmour - Rhythm - Dist Electric'

Intro                         Verse 1
  Q=65
 4/4
  Gtr I
  H    Q  E. S   +H     H       Q  a Q  H
|--------------|-------------||-7s=5---------|
|------------4-|-(4)s===7----||--------------|
|------------4-|-(4)s===7----||--------------|
|--------------|-------------||--------------|
|--------------|-------------||--------------|
|--------------|-------------||--------------|
|
| Gtr II
| W               W             W
|-2------------|--2----------||-2------------|
|-3------------|--3----------||-3------------|
|-4------------|--4----------||-4------------|
|-4------------|--4----------||-4------------|
|-2------------|--2----------||-2------------|
|--------------|-------------||--------------|
                              |-Rhy Fig A

  Q  a Q  H      Q  a Q   H      Q  a Q  H
|-9s=7---------|-7s=5----------|-7s=5---------|
|--------------|---------------|-7s=5---------|
|--------------|---------------|--------------|
|--------------|---------------|--------------|
|--------------|---------------|--------------|
|--------------|---------------|--------------|
|
| W              Q.     E H      W
|-0------------|-3--------0----|-2------------|
|-2------------|-3--------0----|-3------------|
|-2------------|-0--------0----|-4------------|
|-2------------|-0--------2----|-4------------|
|-0------------|-2--------2----|-2------------|
|--------------|-3------2-0----|--------------|
                                end Rhy Fig A-|

w/Rhy Fig A
    Q  a Q  H      Q  a Q  H      Q  a Q   H      Q  a Q  H
||--7s=5---------|-9s=7---------|-7s=5----------|-7s=5----------||
||o-7s=5---------|--------------|---------------|-7s=5---------o||
||---------------|--------------|---------------|---------------||
||---------------|--------------|---------------|---------------||
||o--------------|--------------|---------------|--------------o||
||---------------|--------------|---------------|---------------||

 Bridge
  $
  Gtr III
|-Rhy Fig 1 (Rhythm Slashes)
  D
  E.     S S S S S E   S S E   S S
  |      | | | | | |   | | |   | |
  /      / / / / / /   / / /   / /

  Gtr II
  S  S S S S S S S S S S S S S S S
|-5--------5-------5-------5-------|
|----7p5-----7p5-----7p5-----7p5---|
|--------7-------7-------7-------7-|
|----------------------------------|
|----------------------------------|
|----------------------------------|
|-Orch Fig 1

  A                                 D
  E   S S S S S S E   S S S S S S   E   S S S S S S E   S S S S S S
  |   | | | | | | |   | | | | | |   |   | | | | | | |   | | | | | |
  /   / / / / / / /   / / / / / /   /   / / / / / / /   / / / / / /

  S S S S S S S S S S S S S S S S   S S S S S S S S S S S S S S S S
|-5-------5-------5-------5-------|-5-------5-------5-------5-------|
|---5-------5-------5-------5-----|---7p5-----7p5-----7p5-----7p5---|
|-----7p6-----7p6-----7p6-----7p6-|-------7-------7-------7-------7-|
|---------------------------------|---------------------------------|
|---------------------------------|---------------------------------|
|---------------------------------|---------------------------------|


  A                         G/B
  Q       E   S S E   S S S S S S
  |       |   | | |   | | | | | |
  /       /   / / /   / / / / / /

  S S S S S S S S S S S S S S S S
|-0-------0-------0-------0-------|
|---2p0-----2p0-----2p0-----2p0---|
|-------2-------2-------2-------2-|
|---------------------------------|
|---------------------------------|
|---------------------------------|


  C                                 G                         G/B
  Q       E   S S E   S S E   S S   E   S S S S S S S S S S S S S S
  |       |   | | |   | | |   | |   |   | | | | | | | | | | | | | |
  /       /   / / /   / / /   / /   /   / / / / / / / / / / / / / /

  S S S S S S S S S S S S S S S S   S S S S S S S S S S S S S S S S
|-3-------3-------3-------3-------|-3-------3-------3-------------3-|
|---5p3-----5p3-----5p3-----5p3---|---3-------3-------3---------3---|
|-------5-------5-------5-------5-|-----5p4-----5p4-----5p4---4-----|
|---------------------------------|-------------------------5-------|
|---------------------------------|---------------------------------|
|---------------------------------|---------------------------------|


  C                                 G                 end Orch Fig 1-|
  E   S S E   S S E   S S E   S S   E   S S S S S S E   S S S S S S
  |   | | |   | | |   | | |   | |   |   | | | | | | |   | | | | | |
  /   / / /   / / /   / / /   / /   /   / / / / / / /   / / / / / /

  S S S S S S S S S S S S S S S S   S S S S S S S S S S S S S S S S
|-3-------3-------3-------3-------|-3-------3-------3---------------|
|---5p3-----5p3-----5p3-----5p3---|---3-------3-------3---------3-5-|
|-------5-------5-------5-------5-|-----5p4-----5p4-----5p4---4-----|
|---------------------------------|-------------------------5-------|
|---------------------------------|---------------------------------|
|---------------------------------|---------------------------------|
                                                      end Rhy Fig 1-|

w/Orch Fig 1
  D
  E   E   E   S S E   S S E   S S
  |   |   |   | | |   | | |   | |
  /   /   /   / / /   / / /   / /
|---------------------------------|


  A                                 D
  E   S S S S S S S S S S S S S S   E   E   E   S S S S S S E   S S
  |   | | | | | | | | | | | | | |   |   |   |   | | | | | | |   | |
  /   / / / / / / / / / / / / / /   /   /   /   / / / / / / /   / /
|---------------------------------|---------------------------------|


  A                         G/B
  E   S S S S S S E   S S S E.
  |   | | | | | | |   | | | |
  /   / / / / / / /   / / / /
|---------------------------------|


  C                                 G
  E   S S E   S S E   S S S S S S   E   S S E   S S E   S S E   S S
  |   | | |   | | |   | | | | | |   |   | | |   | | |   | | |   | |
  /   / / /   / / /   / / / / / /   /   / / /   / / /   / / /   / /
|---------------------------------|---------------------------------|


  C                                 G
  E   S S S S S S E   S S E   S S   E   E   E   S S E.     S E   S S
  |   | | | | | | |   | | |   | |   |   |   |   | | |      | |   | |
  /   / / / / / / /   / / /   / /   /   /   /   / / /      / /   / /
|---------------------------------|----------------------------------||


 Chorus

|-Rhy Fig 2
  AsusAsus2 A       G/B  Cadd9       G           To Coda
  E E E S S E S S S E.   E S S E S S E S S E S S
  | | | | | | | | | |    | | | | | | | | | | | |
  / / / / / / / / / /    / / / / / / / / / / / /
|----------------------|-------------------------|


                                          Bridge - Guitar Solo
  Gtr III
  D                      end Rhy Fig 2-|
  E S S S S S S S S S S S  S S  S        |-w/Rhy Fig 1
  | | | | | | | | | | | |  | |  |
  / / / / / / / / / / / /  / /  /

  Gtr IV
                                                   ~~~~~~~~~~~~~~
                                |--3--|
  H             Q       E.      T  T  T     Q     +Q         +E  S  S      +S   +E     S
|------------------------------------10-||-14----(14)-------(14)-x-14b15==(14)r(14)----------|
|---------------------------------10----||--------------------------------------------15b17==|
|------------------------------11-------||---------------------------------------------------|
|---------------------------------------||---------------------------------------------------|
|---------------------------------------||---------------------------------------------------|
|---------------------------------------||---------------------------------------------------|

    ~~~~~~~~~~~~~                        ~~
             |-------3-------|
   +Q       +S   +S     e    e    S.  T  E    +E.      S
|--------------------------------------------------------|
|-(15)-----(15)r(15)---15---14---14----------------------|
|------------------------------------14------------------|
|---------------------------------------14---(14)s====12-|
|--------------------------------------------------------|
|--------------------------------------------------------|

   ~~~~~~~~~~~~~~~~~~~
                           |--3--|  |-------3--------|
   H              +E   S   T  T  T  E        +E     +E
|-------------------------------10-14b15====(14)r==(14)---|
|---------------------(0)----10---------------------------|
|-------------------------11------------------------------|
|-12-------------(12)-------------------------------------|
|---------------------------------------------------------|
|---------------------------------------------------------|


            |----3----|    |---3---|    |-----3-----|
   Q       +E    E    E    E  E    E    E    a E    E
|-------------------------------------------------------|
|-15b17===(15)r-15p==14---------------------------------|
|-------------------------14----------------------------|
|----------------------------14s==12---11---11s9--------|
|--------------------------------------------------12---|
|-------------------------------------------------------|


           ~~~~~~~~~~~~           ~~
                    |---3----|
   a  Q   +Q       +E   E    E    E S  T T
|-----------------------------------------|
|-----------------------------------------|
|-9s12--(12)-----(12)-11-------------11s9-|
|--------------------------14---12--------|
|-----------------------------------------|
|-----------------------------------------|


  ~~~~~~~ ~~~~~~~~~~~~
  E +S  S Q       +E    T T T T S  S      S  S
|----------------------------------------------|
|----------------------------------------------|
|-9-(9)s7-7-------(7)---9p7---7-9-11b11.5---11-|
|---------------------------9------------------|
|----------------------------------------------|
|----------------------------------------------|


                                                           ~~             ~~~~~~~~~~
                       |-3--|  |---3---|    |---3---|
   +Q           +E   S T T  T  E  E    E    E  E    E      Q      E   E   Q     +S   T T E
|--------------------------14-15p14---12----------------|------------------------------------||
|------------------------x-----------------15p12--------|------------------------------------||
|-(11)b12======(11)r---x---------------------------12---|------------------------------------||
|--------------------x----------------------------------|-12-----10s==9---9-----(9)-10p9s7---||
|-------------------------------------------------------|------------------------------------||
|-------------------------------------------------------|------------------------------------||


 Chorus
w/Rhy Fig 2
   ~~~                         ~~~
                                                                    |---3----|
  +H          Q     S E.      +Q      +S   E      +T     +T  Q     +E  a E   E
|---------------------------|----------------------------------------------------|
|---------------------------|----------------------------------------------------|
|---------------------9b12==|=(9)-----(9)r-9b11r==(9)b11r(9)p7-----(7)-----------|
|-(7)-----------------------|------------------------------------------7s9s==7---|
|---------------------------|----------------------------------------------------|
|---------------------------|----------------------------------------------------|


  ~~~~~~~~~~~~~~~~~~
  H             +Q.           +E
|--------------------------------------||
|--------------------------------------||
|--------------------------------------||
|-7-------------(7)-----------(7)\-----||
|--------------------------------------||
|--------------------------------------||


 Verse 2
  Gtr III
|-Rhy Fig 3
  Bm                              A
  S E S S S S S S S S S S S S S   E S S S S S S S S S S S S S S
  | | | | | | | | | | | | | | |   | | | | | | | | | | | | | | |
  / / / / / / / / / / / / / / /   / / / / / / / / / / / / / / /
|-------------------------------|-------------------------------|


  G            D/F# Em
  S S S S +S S S +S S S S S +S S S S
  | | | |  | | |  | | | | |  | | | |
  / / / /  / / /  / / / / /  / / / /
|--------------------------------------|


  Bm            end Rhy Fig 3-|
  E S S E S S S S S S +S S S S
  | | | | | | | | | |  | | | |
  / / / / / / / / / /  / / / /
|------------------------------|


                              A
  E E S S S S E S S S S S S   S S S S S S E E S S +S S S S
  | | | | | | | | | | | | |   | | | | | | | | | |  | | | |
  / / / / / / / / / / / / /   / / / / / / / / / /  / / / /
|---------------------------|------------------------------|

  G          F#Em               Bm
  E S S +S S E S S S S +S S E   E S S +S S S S +S S S S +S S e
  | | |  | | | | | | |  | | |   | | |  | | | |  | | | |  | | |
  / / /  / / o / / / /  / / /   / / /  / / / /  / / / /  / / /   D.S. al Coda
|-----------------------------|--------------------------------||


  &
  D
  Gtr III
  E S S S S S S S S S S S S S S    E S S S S S S S S S S  S  S S S
  | | | | | | | | | | | | | | |    | | | | | | | | | | |  |  | | |
  / / / / / / / / / / / / / / /    / / / / / / / / / / /  /  / / /

  Gtr IV
                                                          ~~~
  W                                H             Q        E.     S
|-------------------------------|----------------------------------||
|-------------------------------|----------------------------------||
|-------------------------------|------------------------[7]-----9-||
|-------------------------------|----------------------------------||
|-------------------------------|----------------------------------||
|-------------------------------|----------------------------------||
|
| Gtr V
| W                                W
|-------------------------------|----------------------------------||
|-------------------------------|----------------------------------||
|-------------------------------|----------------------------------||
|-------------------------------|----------------------------------||
|-------------------------------|-12-------------------------------||
|-------------------------------|-10-------------------------------||


 Outro - Guitar Solo
 w/Rhy Fig 3 to fade

                 ~~~~~~~~~~
  Q.            +E    +E.      S     +E    +T  T T T
|-----------------------------------------------------|
|-----------------------------------------------------|
|-9b11==========(9)---(9)r-----9b11==(9)r==(9)p7---7--|
|------------------------------------------------9----|
|-----------------------------------------------------|
|-----------------------------------------------------|
|
| W
|-----------------------------------------------------|
|-----------------------------------------------------|
|-----------------------------------------------------|
|-----------------------------------------------------|
|-9---------------------------------------------------|
|-7---------------------------------------------------|

  Gtr IV
    ~                                            ~~~
                                         |---3---|
  S E   T T +S  S     E   Q         E    S  S    S
|--------------------------------------------------|
|---------------------------------------10------10-|
|-9-9---7-------7b7.5-------------/11------11------|
|---------9-(9)------------------------------------|
|--------------------------------------------------|
|--------------------------------------------------|
|
| Gtr V
| W
|--------------------------------------------------|
|--------------------------------------------------|
|--------------------------------------------------|
|--------------------------------------------------|
|-7------------------------------------------------|
|-5------------------------------------------------|

 ~~~~~~
                     |-----3------|                 |---3---|
   +E     S  S      +Q       +S   S  S  s      E    E   e   e
|--------------------------------------10b10.5--------------------|
|-(10)---12-12b15==(12)r====(12)p10-12----------------------------|
|-------------------------------------------------------7---9-----|
|-----------------------------------------------------------------|
|-----------------------------------------------------------------|
|-----------------------------------------------------------------|
|
|   Q.                    E          H
|-----------------------------------------------------------------|
|-----------------------------------------------------------------|
|-----------------------------------------------------------------|
|-----------------------------------------------------------------|
|---5--------------------------------2----------------------------|
|---3---------------------2----------0----------------------------|

                  ~~~~~~~~
                                       |--3---| |--3--|
  T     +T  +T  T E   +H               S S    S S S   S
|-----------------------------------------------------------|
|-------------------------------------10p7------7-----------|
|-9b11==(9)r(9)p7-----------------------------9---9p==7b7.5-|
|-----------------9---(9)-----------------------------------|
|-----------------------------------------------------------|
|-----------------------------------------------------------|
|
| H.                                   S    S   S   S
|-----------------------------------------------------------|
|-----------------------------------------------------------|
|-----------------------------------------------------------|
|-----------------------------------------------------------|
|-9------------------------------------9---12-------9-------|
|-7------------------------------------7---10-------7-------|


  ~                         ~
  H             +E      S S E   s S
|------------------------------------|
|------------------------------------|
|---------------------------------7--|
|-9-------------(9)\------7-7---9----|
|----------------------/9------------|
|------------------------------------|
|
| W
|------------------------------------|
|------------------------------------|
|------------------------------------|
|------------------------------------|
|-9----------------------------------|
|-7----------------------------------|

                                                                       ~~~~~
                                                                                     |--3--|
  +E  T T S +H           +E    a S S   Q        +E     T  T T  T      +Q.            S S   S
|--------------------------------7-9-|-9b10=====(9)r---7----7--------------------------------|
|------------------------------7-----|-------------------10---10b12==(10)r----------10p7-----|
|-(7)--------------------------------|-----------------------------------------------------9-|
|-----9-7-9-(9)----------(9)---------|-------------------------------------------------------|
|------------------------------------|-------------------------------------------------------|
|------------------------------------|-------------------------------------------------------|
|
|  W                                   Q.              E               H
|------------------------------------|-------------------------------------------------------|
|------------------------------------|-------------------------------------------------------|
|------------------------------------|-------------------------------------------------------|
|------------------------------------|-------------------------------------------------------|
|--7---------------------------------|-5-------------------------------2---------------------|
|--5---------------------------------|-3---------------2---------------0---------------------|

                                                          ~~
  |--3---|  |--3--| |----3-----| |--3--| |--3--| |--3--|
  S    S S  S S   S T    +T  S S S S   S S S   S S S   S  Q
|--------7-----------------------------------------------------------|
|------7---10p7------------------------------------------------------|
|-9b11------------9-9b11r(9)p7---9-7---------------------------------|
|------------------------------9-------9-7---------------------------|
|------------------------------------------9---8-7s5------5----------|
|------------------------------------------------------7-------------|
|
| W
|--------------------------------------------------------------------|
|--------------------------------------------------------------------|
|--------------------------------------------------------------------|
|--------------------------------------------------------------------|
|-9------------------------------------------------------------------|
|-7------------------------------------------------------------------|

       ~~~~~~~~
                              |---3---|
  S  S E   +Q        S S     +S   S   S  T T S T     +T  T T
|-------------------------------------7----------------------|
|---------------------------------7-----10p7-----------------|
|-7--7-7---(7)-------x-9b11==(9)r------------9-9pb11r(9)p7---|
|----------------------------------------------------------9-|
|------------------------------------------------------------|
|------------------------------------------------------------|
|
| H.                                     S   S E
|------------------------------------------------------------|
|------------------------------------------------------------|
|------------------------------------------------------------|
|------------------------------------------------------------|
|-9--------------------------------------9---9-9-------------|
|-7--------------------------------------7---7-7-------------|

                            ~               ~
  s s     T T S a S S T T S E   S S a S S S S
|----------------------------------------------|
|----------------------------------------------|
|-9-7b7.5--------------------------------------|
|---------9p7---------------------------7-7-7--|
|-------------9-9s7-5-7p5---5---7---7s9--------|
|-------------------------7--------------------|
|
| W
|----------------------------------------------|
|----------------------------------------------|
|----------------------------------------------|
|----------------------------------------------|
|-7--------------------------------------------|
|-5--------------------------------------------|

   ~~~                                     ~~
  +E    T T S      S S S    S S  S S    S  E   S S
|-----------------------------7--------------------|
|---------------------------7---10------7----------|
|-----------7b7.5----7-9b11--------9b11----7---9p0-|
|-(7)---9p7--------9-------------------------------|
|--------------------------------------------------|
|--------------------------------------------------|
|
|  Q.                  E      H
|--------------------------------------------------|
|--------------------------------------------------|
|--------------------------------------------------|
|--------------------------------------------------|
|--5--------------------------2--------------------|
|--3-------------------2------0--------------------|

  |--3---|  |--3--| |----3-----| |----3----| |--3--| |--3--|
  S    S S  S S   S T    +T  S S S S       S S S   S S S   S  T S.   E
|--------7---------------------------------------------------------------|
|------7---10p7------------------------------------------------------7---|
|-9b11------------9-9b11r(9)p7---9-7b7.5-----------------------------7---|
|------------------------------9-----------9-7-----------------------7---|
|----------------------------------------------9---8-7-5------5p0--------|
|----------------------------------------------------------7-------------|
|
| E.            S   Q                        H
|------------------------------------------------------------------------|
|------------------------------------------------------------------------|
|------------------------------------------------------------------------|
|------------------------------------------------------------------------|
|-9-------------9---9------------------------9---------------------------|
|-7-------------7---7------------------------7---------------------------|

  ~~~~~~~~~~~~~~~~~~~~~~~~~~~
  H.                     +S  T T S.   +T
|---------------------------------------------|
|--------------------------------7----(7)b7.5-|
|----------------------------7-7-7----(7)b7.5-|
|-9----------------------(9)-9-7-7----(7)b7.5-|
|---------------------------------------------|
|---------------------------------------------|
|
| W
|---------------------------------------------|
|---------------------------------------------|
|---------------------------------------------|
|---------------------------------------------|
|-9-------------------------------------------|
|-7-------------------------------------------|


  Q      +S  T T S.   +T      E   S S E       +T  +T  T T
|---------------------------------------------------------|
|------------x-7-7----(7)b7.5-----7-----------------------|
|------------x-7-7----(7)b7.5-----7---9b11====(9)r(9)p7---|
|-9------(9)-x-7-7----(7)b7.5-9-----x-------------------9-|
|---------------------------------------------------------|
|---------------------------------------------------------|
|
| H.                                  Q
|---------------------------------------------------------|
|---------------------------------------------------------|
|---------------------------------------------------------|
|---------------------------------------------------------|
|-7-----------------------------------7-------------------|
|-5-----------------------------------5-------------------|

                ~~~~
  |--3---|                   |--3---|
  S  S   S     +Q.           S  S   S  E        +E.      +S
|----------------------------7------7-------------------------|
|------------------------------10---7-10b12====(10)r====(10)--|
|-7--9---9b11==(9)r-------------------------------------------|
|-------------------------------------------------------------|
|-------------------------------------------------------------|
|-------------------------------------------------------------|
|
| Q.                       E H
|-------------------------------------------------------------|
|-------------------------------------------------------------|
|-------------------------------------------------------------|
|-------------------------------------------------------------|
|-5--------------------------2--------------------------------|
|-3------------------------2-0--------------------------------|


  |--3---|  |--3--| |----3----| |--3--| |--3--| |--3--|  |--3---| |--3--|
  S    S S  S S   S S     +S  S S S   S S S   S S S   S  S  S   S S S   S
|--------7----------------------------------------------------------------|
|------7---10p7-----------------------------------------------------------|
|-9b11------------9-9pb11r(9)p7-9p7-----7---------------------------------|
|-------------------------------------9---9p==7-9p7------7----------------|
|-----------------------------------------------------9-----9---8-7s5-----|
|-----------------------------------------------------------------------7-|
|
| H.                                                    +E.           S
|-------------------------------------------------------------------------|
|-------------------------------------------------------------------------|
|-------------------------------------------------------------------------|
|-------------------------------------------------------------------------|
|-9-----------------------------------------------------(9)-----------9---|
|-7-----------------------------------------------------(7)-----------7---|

  ~           PM----|
  E   e   E   T T T T Q       S S    +S  +S
|---------------------------------------------|
|-----7---------------7---------7b8==(7)r(7)--|
|-----7---------------7-------x-7b8==(7)r(7)--|
|-9-----------9-9-9-9-7-------x-7b8==(7)r(7)--|
|---------------------------------------------|
|---------------------------------------------|
|
| Q       Q           Q       Q
|---------------------------------------------|
|---------------------------------------------|
|---------------------------------------------|
|---------------------------------------------|
|-9-------9-----------9-------9---------------|
|-7-------7-----------7-------7---------------|
|-Rhy Fig 4

  ~~~~~~~~                                 ~                         ~
  Q  +S  S T T S E  T T S E       T T S   E  T T S  E       T T  S  E   T T S  E      T T T T
|---------------------------------------|-----------------------------------------------------|
|-------------------------7b7.5---------|-----------7b7.5----------------------7b7.5----------|
|----------7h9p0-9--9p7---7b7.5---------|----9-7----7b7.5----------------------7b7.5--9p7-9-x-|
|-7--(7)h9--------------9---------9p7---|-7--9p7h9----------9p7-----7---9p7-------------------|
|-------------------------------------9-|-----------------------(9)---------9-----------------|
|---------------------------------------|-----------------------------------------------------|
|
| Q   Q          E  E     Q               Q         E       E       Q          Q
|---------------------------------------|-----------------------------------------------------|
|---------------------------------------|-----------------------------------------------------|
|---------------------------------------|-----------------------------------------------------|
|---------------------------------------|-----------------------------------------------------|
|-7---7----------7--7-----7-------------|-5---------5---------------2----------2--------------|
|-5---5----------5--5-----5-------------|-3---------3-------2-------0----------0--------------|


  a S S T T S S. T S S +S  S S S  S.   T S  T T
|---------------------------------7----7-7---------|
|-----7---7---7--x---7-(7)-x-7-7--7----7-7-10p0----|
|-----7-7-7-x-7--x---7-(7)-x-7-7--7----7-7---------|
|-----7-x---x------9--------------7----7-7---------|
|-7s9----------------------------------------------|
|--------------------------------------------------|
|
|   Q         Q         Q         Q
|--------------------------------------------------|
|--------------------------------------------------|
|--------------------------------------------------|
|--------------------------------------------------|
|---9---------9---------9---------9----------------|
|---7---------7---------7---------7----------------|
                                     end Rhy Fig 4-|

w/Rhy Fig 4 to fade
   ~~~~~                   ~~~~~
            |----3----|
   Q        E    E    E    Q           E.        S
|---------------19---21---21b22-------21b22-----21-|
|-22b24--------------------------------------------|
|--------------------------------------------------|
|--------------------------------------------------|
|--------------------------------------------------|
|--------------------------------------------------|

                  ~~~~~~~~~~~~~~~                    ~~~~~~~~~~~~~
   |------3------|
   E      +E     E         +E      S     +S   T  T  E.      +S   T  T  S  S
|-21pb22r(21)---21pb22====(21)r---21b22r(21)-19h21p19------(19)\------------|
|----------------------------------------------------------------x-17-17-17-|
|---------------------------------------------------------------------------|
|---------------------------------------------------------------------------|
|---------------------------------------------------------------------------|
|---------------------------------------------------------------------------|


   ~~~~~                                ~~~~~~~~~~~~~
                                                  |-------3-------|
   Q           E        +T   +T   T  T  Q        +E     E         E
|---------------------------------------------------------------------|
|-17b19-------17b19====(17)r(17)p15----17-------(17)---15b15.5---17---|
|-----------------------------------16--------------------------------|
|---------------------------------------------------------------------|
|---------------------------------------------------------------------|
|---------------------------------------------------------------------|

                          ~~~~~~~~~~~~~~~~
   T      +T   +T   T  S  S  +Q       +E    a  S  S  a  E    S       S
|----------------------------------------------------------------------|
|-17b18==(17)r(17)p15--------------------------------------------------|
|---------------------16-16-(16)-----(16)-----14-16--------------------|
|-------------------------------------------x-------16s14---12b12.5----|
|-------------------------------------------------------------------14-|
|----------------------------------------------------------------------|

    ~~~                                             ~~
    Q      T  S.    +T   T  S  S  T      +T   S  S  E   S  S
|-------------------------------------------------------0--------|
|---------15------------15----17-17pb18r(17)-15-17--------12b15==|
|-/16--------16----(16)----16----------------------16------------|
|----------------------------------------------------------------|
|----------------------------------------------------------------|
|----------------------------------------------------------------|

                                             ~
   +S.  +T   S  S  a S S T T T T T T T T S S E   S T T
|------------------------------------------------------|
|-(12)r(12)-12-10----------------------------------7-7-|
|-----------------11s9p0-9p7---7-9p7-------------x-7-7-|
|----------------------------9-------9p7---------x-----|
|----------------------------------------8-7-5---------|
|------------------------------------------------------|


                                         ~
                                   |-3-|
  S S     T T S  S.      T S S +S  T T T E    S s T s.
|-----------------------------------------------7-x-7------|
|---7b7.5-x-x----7b7.5---x---7-(7)---7---7----x-7-x-7------|
|---7b7.5-x-x----7b7.5---x---7-(7)h9-7---7----x------------|
|-9-----------9------------9-----------9-------------------|
|----------------------------------------------------------|
|----------------------------------------------------------|

  S. T S s s T T S S T T S T T S  S  S S    S
|-7--7-x-7-7---7-x-7-x-7-x-7-x-7--7-----------|
|-7--7-x-7-7---7-x-7-x-7-x-7-x-7--7-10--------|
|--------------------------------------9b11-9-|
|---------------------------------------------|
|---------------------------------------------|
|---------------------------------------------|

         ~~~~~~~~
  T S.   E   +Q        H
|---------------------------------------*|
|---------------------------------------*|
|-7-------------------------------------*|
|---9----9---(9)------------------------*|
|---------------------------------------*|
|---------------------------------------*|

------------------------------------------------------------------------------|
----------------------------------PLEASE NOTE---------------------------------|
This file is the author's own work and represents their interpretation of
the song. You may only use this file for private study, scholarship, or
research.
---------------------------------------------------------------------------
Transcription by:  ?

THE SHOW MUST GO ON
Pink Floyd
(Waters)

G  C  G  C  G  C

G      C                          G     C  G
Oooh Ma Oooh Pa, must the show go on ?
D    Bm6
Oooh Pa take me home
D    Bm6
Oooh Ma let me go
Cmaj7
There must be some mistake, I didn't mean to let them
                                          G     C  G
Take away my soul, Am I too old is it too late ?
D      G  C
Oooh Ma   Oooh Pa
G
Where has the feeling gone?
D      G  C
Oooh Ma   Oooh Pa

Will I remember the songs?
D  G C                     Gsus/C  G
Oooh ah - The show must go on.


--
Updated:  April 10/98
------------------------------------------------------------------------------|
----------------------------------PLEASE NOTE---------------------------------|
This file is the author's own work and represents their interpretation of
the song. You may only use this file for private study, scholarship, or
research.
---------------------------------------------------------------------------
TAB by:  Jacob Sudol (sudol@azstarnet.com)


IN THE FLESH ?
Pink Floyd
(Waters)

INTRO:
e-|-------------------|-----------------------------|--------------0-----|
B-|-------------------|-----------------------------|-8----\--3----0-----|
G-|-------------------|-----------------------------|-7----\--2----------|
D-|-------------------|-----------------------------|--------------------|
A-|-------------------|---------0-------2---3vvvvv--|--------------------|
E-|--0--------2vvvvv--|-3vvvvv----------------------|--------------------|

|---------0------------0-----------------------------------------------|
|------------3------------3--------------------------------------------|
|-2>(4)-0------2>(4)-0------2>(4)--2-0---------------------------------|
|--------------------------------------2-0-----------------------------|
|------------------------------------------2-1-0---------2vvvvvvv------|
|------------------------------------------------3>(4)p0---------------|

|-2vvvvv---4vvvvv---5vvvvv---4vvvvv-|-2vvvvv---4vvvvv---5vvvvv---7vvvvv-|
|-3vvvvv---5vvvvv---6vvvvv---5vvvvv-|-3vvvvv---5vvvvv---6vvvvv---8vvvvv-|
|-2vvvvv---4vvvvv---5vvvvv---4vvvvv-|-2vvvvv---4vvvvv---5vvvvv---7vvvvv-|
|-0vvvvv---0vvvvv---0vvvvv---0vvvvv-|-0vvvvv---0vvvvv---0vvvvv---0vvvvv-|
|-----------------------------------|-----------------------------------|
|-----------------------------------|-----------------------------------|

%
|-------------------------|-----------------------------|
|-------------------------|-----------------------------|
|-(2)---------------------|----x------------------------|
|-(2)---------------------|----x-x----------------------|
|--0---2>(4)-2vvvvv--0----|----x-x--4>(5)-4vvvvv-2vvvvv-|
|-----------------------2>|(4)---x----------------------|

|-------------------------|-----------------------------|
|-------------------------|-----------------------------|
|-------------------------|-----------------------------|
|--2----------------------|-----------------------------|
|--0---2>(4)-2vvvvv--0----|----x-x--4>(5)-4vvvvv-2vvvvv-|
|-----------------------2>|(4)-x-x----------------------|

|-------------------------|-----------------------------|
|-------------------------|-----------------------------|
|--2----------------------|----x------------------------|
|--2----------------------|----x------------------------|
|--0---2>(4)-2vvvvv--0--1-|-2v---x--4>(5)-4vvvvv-2---3--|
|-------------------------|-----------------------------|

                               %
|------------------------------|
|------------------------------|
|--------x---------------------|
|--------x---------------------|
|--4vvvv---5>(7)-5vvvvv-4------|
|-------------------------12\--|

VERSE:
|------------------|------------------|----------2-------|----------2-------|
|----------2-------|----------2-------|-------3-----3----|-------3-----3----|
|-------2-----2----|-------2-----2----|----2-----------2-|----2-----------2-|
|----2-----------2-|----2-----------2-|-0----------------|-0----------------|
|-0----------------|-0----------------|------------------|------------------|
|------------------|------------------|------------------|------------------|

|------------------|------------------|----------2-------|----------2-------|
|----------2-------|----------2-------|-------3-----3----|-------3-----3----|
|-------2-----2----|-------2-----2----|----2-----------2-|----2-----------2-|
|----2-----------2-|----2-----------2-|-0----------------|-0----------------|
|-0----------------|-0----------------|------------------|------------------|
|------------------|------------------|------------------|------------------|

|------------------|------------------|------------------|------------------|
|----------2-------|----------2-------|----------3-------|----------3-------|
|-------2-----2----|-------2-----2----|-------4-----4----|-------4-----4----|
|----2-----------2-|----2-----------2-|----4-----------4-|----4-----------4-|
|-0----------------|-0----------------|-2----------------|-2----------------|
|------------------|------------------|------------------|------------------|

|------------------|------------------|----------0-------|----------0-------|
|----------5-------|----------5-------|-------------0----|-------------0----|
|-------6-----6----|-------6-----6----|-------1--------1-|-------1--------1-|
|----6-----------6-|----6-----------6-|----2-------------|----2-------------|
|-4----------------|-4----------------|------------------|------------------|
|------------------|------------------|-0----------------|-0----------------|

Repeat that over the verse two more times, except on the third time,
replace the last three measures with:

|------------------|------------------|------------------|
|----------5-------|------------------|------------------|
|-------6----------|------------------|------------------|
|----6-------------|--2---------------|------------------|
|-4----------------|--2---------------|------------------|
|--------------12\-|--0---------------|------------------|

then repeat the measures between the percent signs in the intro, and end
with:

|------------------|--/--|-----|
|------------------|--/--|-----|
|------------------|--2--|--2--|
|--2---2-2-2-2-2-2-|--2--|--2--|
|--2---2-2-2-2-2-2-|--0--|--0--|
|--0---0-0-0-0-0-0-|-----|-----|


--
Updated:  April 10/98
-----------------------------------------------------------------------------
Send "Run Like Hell" to Cell Phone

Transcribed by www.mikesguitarsite.co.uk

Words & Music by Roger Waters & Dave Gilmour

Em      2 2 2 0 0 0
D       0 0 0 2 3 2
D5      0 0 0 2 3 x

all drop D tuning - D A D G B E
Gtr I, II, IV - 'overdrive w/flange + delay'
Gtr II - 'overdrive w/delay'


Intro
 4/4
  Gtr I
  S S S S Q  S S S S S S S S   S S S S S  E. H
|----------------------------|--------------------|
|----------------------------|--------------------|
|-x-x--------x-x---------x-x-|-----x-x-x----------|
|-x-x--------x-x---------x-x-|-----x-x-x----------|
|-----x-x--------x-x-x-x-----|-x-x----------------|
|-----x-x--------x-x-x-x-----|-x-x-------12\------|

                                  Q=116
  S S S S S S S S S S S S S S S S     Q      Q     H
|---------------------------------||------------------------------|
|---------------------------------||------------------------------|
|---------x-x-----x-x-----x-x-----||------------------------------|
|---------x-x-----x-x-----x-x-----||------------------------------|
|-------------x-x-----x-x-------x-||------------------------------|
|-x---x-x-----x-x-----x-x-----0-x-||-12\--------------------------|
|
|Gtr I, II
|                                     PM---------------------|
| W                                   E  S S e S S e S S e S S
|---------------------------------||------------------------------|
|---------------------------------||------------------------------|
|---------------------------------||------------------------------|
|---------------------------------||--0--0-0-0-0-0-0-0-0-0-0-0----|
|---------------------------------||------------------------------|
|---------------------------------||------------------------------|

  PM-------------------------------------------------
  e S S e S S e S S e S S   E S S e S S e S S e S S
|-------------------------|-------------------------|
|-------------------------|-------------------------|
|-------------------------|-------------------------|
|-0-0-0-0-0-0-0-0-0-0-0-0-|-0-0-0-0-0-0-0-0-0-0-0-0-|
|-------------------------|-------------------------|
|-------------------------|-------------------------|
                          |-Riff A

 --------------------------|
  E S S e S S  s S S S e S S
|-----------------------------|
|-----------------------------|
|-----------------------------|
|-0-0-0-0-0-0--0-0-0-0-0-0-0--|
|-----------------------------|
|-----------------------------|
                   end Riff A-|

  PM---------------------------------------------------
  e S S e S S e S S S S S S   E S S e S S S e S e S S
|---------------------------|-------------------------|
|---------------------------|-------------------------|
|---------------------------|-------------------------|
|-0-0-0-0-0-0-0-0-0-3p0---3p|=0-0-0-0-0-0-0-0-0-0-0-0-|
|-----------------------3---|-------------------------|
|---------------------------|-------------------------|


 -------------------------|
  E S S e S S s S S S e S S
|----------------------------||
|----------------------------||
|----------------------------||
|-0-0-0-0-0-0-0-0-0-0-0-0-0--||
|----------------------------||
|----------------------------||


w/Riff A x4
  Gtr III
   E  S  S  +S   E.      +H               +W
|-10-10-10-(10)--9-------(9)-----------|--(9)-------------------------|
|-10-10-10-(10)-10------(10)-----------|-(10)-------------------------|
|-11-11-11-(11)--9-------(9)-----------|--(9)-------------------------|
|--0--0--0--(0)--0-------(0)-----------|--(0)-------------------------|
|--------------------------------------|------------------------------|
|--------------------------------------|------------------------------|
|
| Gtr IV
|  E  S  S  +S   E.      +H               +W
|--2--2--2--(2)--0-------(0)-----------|--(0)-------------------------|
|--3--3--3--(3)--3-------(3)-----------|--(3)-------------------------|
|--2--2--2--(2)--2-------(2)-----------|--(2)-------------------------|
|--0--0--0--(0)--0-------(0)-----------|--(0)-------------------------|
|--------------------------------------|------------------------------|
|--------------------------------------|------------------------------|

  E S S +S  E.     +H              +W
|-7-7-7-(7)-5------(5)-----------|-(5)----------------------------|
|-8-8-8-(8)-7------(7)-----------|-(7)----------------------------|
|-7-7-7-(7)-7------(7)-----------|-(7)----------------------------|
|-0-0-0-(0)-0------(0)-----------|-(0)----------------------------|
|--------------------------------|--------------------------------|
|--------------------------------|--------------------------------|
|
| E S S +S  E.     +H              +W
|-----------2------(2)-----------|-(2)----------------------------|
|-3-3-3-(3)-3------(3)-----------|-(3)----------------------------|
|-0-0-0-(0)-2------(2)-----------|-(2)----------------------------|
|-0-0-0-(0)-0------(0)-----------|-(0)----------------------------|
|--------------------------------|--------------------------------|
|--------------------------------|--------------------------------|

  E S S +S  E.     +H              +H.                   S S E
|-5-5-5-(5)-3------(3)-----------|-(3)-------------------0-0-0---|
|-5-5-5-(5)-3------(3)-----------|-(3)-------------------2-2-2---|
|-6-6-6-(6)-4------(4)-----------|-(4)-------------------2-2-2---|
|-0-0-0-(0)-0------(0)-----------|-(0)-------------------2-2-2---|
|--------------------------------|-------------------------0-0---|
|--------------------------------|-------------------------------|
|
| E S S +S  E.     +H              +H.                   S S E
|--------------------------------|-------------------------------|
|-2-2-2-(2)-0------(0)-----------|-(0)---------------------------|
|-2-2-2-(2)-0------(0)-----------|-(0)-------------------x-x-2---|
|-0-0-0-(0)-0------(0)-----------|-(0)-------------------x-x-2---|
|--------------------------------|-----------------------x-x-0---|
|--------------------------------|-------------------------------|

  E E   H.                   +W
|-0-2---2------------------|-(2)----------------------------|
|-2-3---3------------------|-(3)----------------------------|
|-2-2---2------------------|-(2)----------------------------|
|-2-0---0------------------|-(0)----------------------------|
|-0------------------------|--------------------------------|
|--------------------------|--------------------------------|
|
| E E   H.                   +W
|--------------------------|--------------------------------|
|---3---3------------------|-(3)----------------------------|
|-2-2---2------------------|-(2)----------------------------|
|-2-0---0------------------|-(0)----------------------------|
|-0------------------------|--------------------------------|
|--------------------------|--------------------------------|


w/Riff A x4
     E  S  S  +S   E.      +H               +W
||--10-10-10-(10)--9-------(9)-----------|--(9)-------------------------|
||o-10-10-10-(10)-10------(10)-----------|-(10)-------------------------|
||--11-11-11-(11)--9-------(9)-----------|--(9)-------------------------|
||---0--0--0--(0)--0-------(0)-----------|--(0)-------------------------|
||o--------------------------------------|------------------------------|
||---------------------------------------|------------------------------|
|
|    E  S  S  +S   E.      +H               +W
||---2--2--2--(2)--0-------(0)-----------|--(0)-------------------------|
||o--3--3--3--(3)--3-------(3)-----------|--(3)-------------------------|
||---2--2--2--(2)--2-------(2)-----------|--(2)-------------------------|
||---0--0--0--(0)--0-------(0)-----------|--(0)-------------------------|
||o--------------------------------------|------------------------------|
||---------------------------------------|------------------------------|

  E S S +S  E.     +H              +W
|-7-7-7-(7)-5------(5)-----------|-(5)----------------------------|
|-8-8-8-(8)-7------(7)-----------|-(7)----------------------------|
|-7-7-7-(7)-7------(7)-----------|-(7)----------------------------|
|-0-0-0-(0)-0------(0)-----------|-(0)----------------------------|
|--------------------------------|--------------------------------|
|--------------------------------|--------------------------------|
|
| E S S +S  E.     +H              +W
|--------------------------------|--------------------------------|
|-3-3-3-(3)-3------(3)-----------|-(3)----------------------------|
|-0-0-0-(0)-2------(2)-----------|-(2)----------------------------|
|-0-0-0-(0)-0------(0)-----------|-(0)----------------------------|
|--------------------------------|--------------------------------|
|--------------------------------|--------------------------------|

  E S S +S  E.     +H              +H.                   +E  S S
|-5-5-5-(5)-3------(3)-----------|-(3)-------------------(3)-0-0-|
|-5-5-5-(5)-3------(3)-----------|-(3)-------------------(3)-2-2-|
|-6-6-6-(6)-4------(4)-----------|-(4)-------------------(4)-2-2-|
|-0-0-0-(0)-0------(0)-----------|-(0)-------------------(0)-2-2-|
|--------------------------------|---------------------------0-0-|
|--------------------------------|-------------------------------|
|
| E S S +S  E.     +H              +H.                   +E  S S
|--------------------------------|-------------------------------|
|-2-2-2-(2)-0------(0)-----------|-(0)-------------------(0)-----|
|-2-2-2-(2)-0------(0)-----------|-(0)-------------------(0)-2-2-|
|-0-0-0-(0)-0------(0)-----------|-(0)-------------------(0)-2-2-|
|--------------------------------|---------------------------0-0-|
|--------------------------------|-------------------------------|

  E E   H.                   +H.                   E S S
|-0-2---2------------------|-(2)---------------------0-0-|
|-2-3---3------------------|-(3)---------------------0-0-|
|-2-2---2------------------|-(2)---------------------5-5-|
|-2-0---0------------------|-(0)---------------------3-3-|
|-0-0---0------------------|-(0)---------------------3-3-|
|--------------------------|-------------------------3-3-|
|
| E E   H.                   +H.                   E S S
|--------------------------|-------------------------0-0-|
|---3---3------------------|-(3)---------------------0-0-|
|-2-2---2------------------|-(2)---------------------5-5-|
|-2-0---0------------------|-(0)---------------------3-3-|
|-0-0---0------------------|-(0)---------------------3-3-|
|---0---0------------------|-(0)---------------------3-3-|


  Gtrs III, IV
  W                      +H.                 E. S   W
|-0--------------------|-(0)-----------------0--0-|-0--------------------|
|-0--------------------|-(0)-----------------5--5-|-0--------------------|
|-5--------------------|-(5)-----------------5--5-|-9--------------------|
|-3--------------------|-(3)-----------------3--3-|-7--------------------|
|-3--------------------|-(3)-----------------3--3-|-7--------------------|
|-3--------------------|-(3)-----------------3--3-|-7--------------------|
|
| Gtrs I, II
| PM----------------------------------------------------------------|
| e e e S S S S S S Q     e  e e S S S S S S Q      e e E S S S S S S Q
|----------------------|--------------------------|----------------------|
|----------------------|--------------------------|----------------------|
|----------------------|--------------------------|----------------------|
|-3-1-3-1h3-3p1-1-3----|--3--1-3-1h3-3p1-1-3------|-7-5-7-5h7-7p5-5-7----|
|----------------------|--------------------------|----------------------|
|----------------------|--------------------------|----------------------|


  +H          +E   E   S S E
|-(0)---------(0)--0---0-0-0-|
|-(0)---------(0)--0---0-0-0-|
|-(9)---------(9)--9---9-9-9-|
|-(7)---------(7)--7---7-7-7-|
|-(7)---------(7)--7---7-7-7-|
|-(7)---------(7)--7---7-7-7-|
|
|  PM----------------|
|  e  e E S S  S S S S Q
|----------------------------|
|----------------------------|
|----------------------------|
|--7--5-7-5h7--7p5-5-7-------|
|----------------------------|
|----------------------------|


  W                       +W
|-----------------------|----------------------------|
|-3---------------------|-(3)------------------------|
|-2---------------------|-(2)------------------------|
|-0---------------------|-(0)------------------------|
|-0---------------------|-(0)------------------------|
|-0---------------------|-(0)------------------------|
|
| PM----------------------------------------------|
| e e e E S S S S E S S    e  e e S S E S S S S S S
|-----------------------|----------------------------|
|-----------------------|----------------------------|
|-----------------------|----------------------------|
|-0---0---0-0---0---0-0-|--0----0-----0---0-3p0---3p=|
|---3---3-----3---------|-----3---3-3-----------3----|
|-----------------------|----------------------------|


  +W
|---------------------------|
|-(3)-----------------------|
|-(2)-----------------------|
|-(0)-----------------------|
|-(0)-----------------------|
|-(0)-----------------------|
|
|  PM------------------------
|  e  e e S S S S S S E S S
|---------------------------|
|---------------------------|
|---------------------------|
|--0----0-----0-0---0---0-0-|
|-----3---3-3-----3---------|
|---------------------------|


                            Verse 1 & 2 & Synth Solo
                          $
  H         Q       E S S    +W
|---------------------0-0-||-(0)--------------------|
|---------------------0-0-||-(0)--------------------|
|---------------------0-0-||-(0)--------------------|
|---------------------2-2-||-(2)--------------------|
|---------------------2-2-||-(2)--------------------|
|---------------------2-2-||-(2)--------------------|
|
|------------------------------------------------|
| e e e S S S S S S E S S     e  e e S S S S S S Q
|-------------------------||------------------------|
|-------------------------||------------------------|
|-------------------------||------------------------|
|-0---0-----0-0---0---0-0-||--2--0-2-0h2-2p0-0-2----|
|---3---3-3-----3---------||------------------------|
|-------------------------||------------------------|


  +H.                 E S S   W                      +H.                 E S S
|-(0)-----------------0-0-0-|-0--------------------|-(0)-----------------0-0-0-|
|-(0)-----------------0-0-0-|-0--------------------|-(0)-----------------0-0-0-|
|-(0)-----------------0-0-0-|-0--------------------|-(0)-----------------0-0-0-|
|-(2)-----------------2-2-2-|-3--------------------|-(3)-----------------3-2-2-|
|-(2)-----------------2-2-2-|-3--------------------|-(3)-----------------3-2-2-|
|-(2)-----------------2-2-2-|-3--------------------|-(3)-----------------3-2-2-|
|
|  PM--------------------------------------------------------------------|
|  e  e e S S S S S S Q       E E E S S s S S s Q     E  E E S S s S S s Q
|---------------------------|----------------------|---------------------------|
|---------------------------|----------------------|---------------------------|
|---------------------------|----------------------|---------------------------|
|--2--0-2-0h2-2p0-0-2-------|-3-1-3-1-2-3p1-1-3----|--3--1-3-1-2-3p1-1-3-------|
|---------------------------|----------------------|---------------------------|
|---------------------------|----------------------|---------------------------|


  W                      +H.                 E S S   +W
|-0--------------------|-(0)-----------------0-0-0-|-(0)---------------------|
|-0--------------------|-(0)-----------------0-0-0-|-(0)---------------------|
|-0--------------------|-(0)-----------------0-0-0-|-(0)---------------------|
|-2--------------------|-(2)-----------------2-2-2-|-(2)---------------------|
|-2--------------------|-(2)-----------------2-3-3-|-(3)---------------------|
|-2--------------------|-(2)-----------------2-----|-------------------------|
|
| PM---------------------------------------------------------------------|
| e e e S S S S S S Q     e  e e S S S S S S Q        E  e e S S S S S S Q
|----------------------|---------------------------|-------------------------|
|----------------------|---------------------------|-------------------------|
|----------------------|---------------------------|-------------------------|
|-2-0-2-0-2-2p0-0-2----|--2--0-2-0-2-2p0-0-2-------|-------------------------|
|----------------------|---------------------------|--3--1-3-1-2-3p1-1-3-----|
|----------------------|---------------------------|-------------------------|


  +H.                 +E  S S
|-(0)-----------------(0)-0-0-|
|-(0)-----------------(0)-0-0-|
|-(0)-----------------(0)-0-0-|
|-(2)-----------------(2)-4-4-|
|-(3)-----------------(3)-2-2-|
|-----------------------------|
|
|  PM--------------------------
|  E  e e S S S S S S  Q
|-----------------------------|
|-----------------------------|
|-----------------------------|
|-----------------------------|
|--3--1-3-1-2-3p1-1-3---------|
|-----------------------------|


  W                      +H.                 S S S S
|-0--------------------|-(0)-----------------0-0-0-0--|
|-0--------------------|-(0)-----------------0-0-0-0--|
|-0--------------------|-(0)-----------------0-0-0-0--|
|-4--------------------|-(4)-----------------4-4-4-4--|
|-2--------------------|-(2)-----------------2-2-2-2--|
|----------------------|------------------------------|
|
|--------------------------------------------|
| e e e S S S S S S Q     e  e e S S S S S S Q
|----------------------|------------------------------|
|----------------------|------------------------------|
|----------------------|------------------------------|
|----------------------|------------------------------|
|-2-0-2-0-2-2p0-0-2----|--2--0-2-0-2-2p0-0-2----------|
|----------------------|------------------------------|


                                              To Coda
  Em                                             D
  Gtrs III, IV
    W                      +H.                 E S S
    |                       |                  | | |
    /                       /                  / / /

                                                     Gt
  a e e e S S S S S S Q     e  e e S S S S S S Q
|------------------------|---------------------------||
|------------------------|---------------------------||
|------------------------|---------------------------||
|-0h2-0-2-0-2-2p0-0-2----|--2--0-2-0-2-2p0-0-2-------||
|------------------------|---------------------------||
|------------------------|---------------------------||


Synth Solo enters 2nd time see below main score
  W
  |
  /
  PM----------------------|
  E S S e S S e   S S e S S
|---------------------------|
|---------------------------|
|---------------------------|
|-0-0-0-0-0-0-0---0-0-0-0-0-|
|---------------------------|
|---------------------------|
|
|r II
| e e   e S S S S S S Q
|---------------------------|
|---------------------------|
|---------------------------|
|-0-----0---0-0-0---0-------|
|---3-----3-------3---------|
|---------------------------|


  +W                                   +W
   |                                    |
   /                                    /

   PM-----------------------------------------------------------|
   E S S e   S S s S S S e       S S    E S S e S S e   S S e S S
|------------------------------------|----------------------------|
|------------------------------------|----------------------------|
|------------------------------------|----------------------------|
|--0-0-0-0---0-0-0-0-0-0-0-------0-0-|--0-0-0-0-0-0-0---0-0-0-0-0-|
|------------------------------------|----------------------------|
|------------------------------------|----------------------------|
|
|  e e   S S S S e   S S S     S S S    e e   e S S S S S S Q
|------------------------------------|----------------------------|
|------------------------------------|----------------------------|
|------------------------------------|----------------------------|
|--0-----0-----0-0-----0-3b3.5p0---3-|--0-----0---0-0-----0-------|
|----3-----3p0-------------------3---|----3-----3-----3p0---------|
|------------------------------------|----------------------------|


  1.                            2.
                                                        D.S. al Coda
                                Gtrs I, II
  PM------------------------------------------------|
  E S S e S S s S S S e S S     e S S e S S S S S S Q
|----------------------------||---------------------------||
|---------------------------o||---------------------------||
|----------------------------||---------------------------||
|-0-0-0-0-0-0-0-0-0-0-0-0-0--||-0-----0-----0-----0-------||
|---------------------------o||---3-4---3-4---3p0---------||
|----------------------------||---------------------------||
|
|                               Gtr III
| PM------------------|
| e e   e S S S S S S Q         H           Q       E  E
|----------------------------||------------------------0--||
|---------------------------o||------------------------0--||
|----------------------------||------------------------0--||
|-0-----0---0-0-----0--------||------------------------2--||
|---3-----3-----3p0---------o||------------------------2--||
|----------------------------||------------------------2--||


 Breakdown
  &
  D5
  Gtrs III, IV
  W                         +W
  |                          |
  /                          /

  Gtrs I, II
  PM-----------------------------------------|
  e S S e S S e S S e S S    e S S e S S e S S S S S S
|-------------------------|-----------------------------|
|-------------------------|-----------------------------|
|-------------------------|-----------------------------|
|-0-0-0-0-0-0-0-0-0-0-0-0-|--0-0-0-0-0-0-0-0-0-3p0---3p=|
|-------------------------|------------------------3----|
|-------------------------|-----------------------------|


  +W                           W
   |
   /

   PM------------------------------------------------|
   e S S e S S S S S S e S S   E S S E S S E S S S S E
|----------------------------|-------------------------|
|----------------------------|-------------------------|
|----------------------------|-------------------2p0---|
|--0-0-0-0-0-0-0-0-0-0-0-0-0-|-0-0-0-0-0-0-0-0-0-----3-|
|----------------------------|-------------------------|
|----------------------------|-------------------------|


  PM  PM-----------------------
  s S S S e S S S S S S e S S
|-----------------------------|
|-----------------------------|
|-----------------------------|
|-----0-0-0-0-0-0-0-0-0-0-0-0-|
|-3s5-------------------------|
|-----------------------------|


 -------------------|           PM----------------------|
  e S S e S S S S S S S S S S   e S S e S S S S S S e S S
|-----------------------------|----------------------------|
|-----------------------------|----------------------------|
|-----------------------------|----------------------------|
|-0-0-0-0-0-0-0-0-0-0-3p0---3p|=0-0-0-0-0-0-0-0-0-0-0-0-0--|
|-------------------------3---|----------------------------|
|-----------------------------|----------------------------|


  PM--------------|
  E S S E S S E S S S S S S
|---------------------------|
|---------------------------|
|-------------------2p0---2-|
|-0-0-0-0-0-0-0-0-0-----3---|
|---------------------------|
|---------------------------|


   E       +E    Q     H             e S S e S S e S S S S S S
|-13b14---(13)---------------------|---------------------------|
|----------------------------------|---------------------------|
|----------------------------------|-------------------2p0-----|
|--------------0-0-0-0-0-0-0-0-0-0-|-0-0-0-0-0-0-0-0-0-----3p0-|
|--3s===5--------------------------|---------------------------|
|----------------------------------|---------------------------|
   s    E      S e S S S E S e S S


  PM--------------------------------------------|
  e S S e S S S S S S e S S   e S S e S S S S S S S S S S
|---------------------------|-----------------------------|
|---------------------------|-----------------------------|
|---------------------------|-----------------------------|
|-0-0-0-0-0-0-0-0-0-0-0-0-0-|-0-0-0-0-0-0-0-0-0-0-3p0---3p|
|---------------------------|-------------------------3---|
|---------------------------|-----------------------------|


  PM----------------------|
  e S S e S S S S S S e S S
|-----------------------------|
|-----------------------------|
|-----------------------------|
|-0-0-0-0-0-0-0-0-0-0-0-0-0---|
|-----------------------------|
|-----------------------------|


  PM---------------------------------------------------
  e S S e S S e S S e S S   e S S e S S S S S S e S S
|-------------------------|---------------------------|
|-------------------------|---------------------------|
|-------------------------|---------------------------|
|-0-0-0-0-0-0-0-0-0-0-0-0-|-0-0-0-0-0-0-0-0-0-0-0-0-0-|
|-------------------------|---------------------------|
|-------------------------|---------------------------|


 -----------------|
  e S S e S S e S S S S S S
|-----------------------------|
|-----------------------------|
|-----------------------------|
|-0---0-0-0-0-0-0-0-3p0-3-3p==|
|---3-------------------------|
|-----------------------------|


  PM----------------------------------------------|
  e S S e S S S e S e S S   e S S e S S e S S e S S
|-------------------------|-------------------------|
|-------------------------|-------------------------|
|-------------------------|-------------------------|
|-0---0-0-0-0-0-0-0-0-0-0-|-0-0-0-0-0-0-0-0-0-0-0-0-|
|---3---------------------|-------------------------|
|-------------------------|-------------------------|


                  PM--------|
  S S S S S S S S e S S e S S
|------------------------------|
|------------------------------|
|------------------------------|
|-----0-----0-----0-0-0-0-0-0--|
|-3s5---3s5---3s5--------------|
|------------------------------|


  PM--------------|
  e S S e S S e S S S S S S
|---------------------------|
|---------------------------|
|-------------------2p0---2p|
|-0-0-0-0-0-0-0-0-0-----3---|
|---------------------------|
|---------------------------|


    PM--------------------------------------------|
  e S S e S S S e S e S S   e S S e S S S e S e S S
|-------------------------|-------------------------||
|-------------------------|-------------------------||
|-0-----------------------|-------------------------||
|---0-0-0---0-0-0-0-0-0-0-|-0---0-0---0-0-0-0-0-0-0-||
|---------3---------------|---3-----3---------------||
|-------------------------|-------------------------||


 Outro
w/Riff A
  Gtr III
   E  S  S  +S   E.      +H               +W
|-10-10-10-(10)--9-------(9)-----------|--(9)-------------------------|
|-10-10-10-(10)-10------(10)-----------|-(10)-------------------------|
|-11-11-11-(11)--9-------(9)-----------|--(9)-------------------------|
|--0--0--0--(0)--0-------(0)-----------|--(0)-------------------------|
|--------------------------------------|------------------------------|
|--------------------------------------|------------------------------|
|
| Gtr IV
|  E  S  S  +S   E.      +H               +W
|--2--2--2--(2)--0-------(0)-----------|--(0)-------------------------|
|--3--3--3--(3)--3-------(3)-----------|--(3)-------------------------|
|--2--2--2--(2)--2-------(2)-----------|--(2)-------------------------|
|--0--0--0--(0)--0-------(0)-----------|--(0)-------------------------|
|--------------------------------------|------------------------------|
|--------------------------------------|------------------------------|

  E S S +S  E.     +H              +W
|-7-7-7-(7)-5------(5)-----------|-(5)----------------------------|
|-8-8-8-(8)-7------(7)-----------|-(7)----------------------------|
|-7-7-7-(7)-7------(7)-----------|-(7)----------------------------|
|-0-0-0-(0)-0------(0)-----------|-(0)----------------------------|
|--------------------------------|--------------------------------|
|--------------------------------|--------------------------------|
|
| E S S +S  E.     +H              +W
|-----------2------(2)-----------|-(2)----------------------------|
|-3-3-3-(3)-3------(3)-----------|-(3)----------------------------|
|-0-0-0-(0)-2------(2)-----------|-(2)----------------------------|
|-0-0-0-(0)-0------(0)-----------|-(0)----------------------------|
|--------------------------------|--------------------------------|
|--------------------------------|--------------------------------|
|
|------------------------------------------------------------|
| E S S  e     S S  e  S S e S S    E  S S e S S s S S S e S S
|--------------------------------|--------------------------------|
|--------------------------------|--------------------------------|
|--------------------------------|--------------------------------|
|-0-0-0--0-----0-0--0--0-0-0-0-0-|--0--0-0-0-0-0-0-0-0-0-0-0-0----|
|--------------------------------|--------------------------------|
|--------------------------------|--------------------------------|


  E S S +S  E.     +Q.       E     E E E E E E E E   E E E E +H
|-5-5-5-(5)-3------(3)-------3---|-3-3-3-3-3-3-3-3-|-3-3-2-2-(2)----*|
|-5-5-5-(5)-3------(3)-------3---|-3-3-3-3-3-3-3-3-|-3-3-3-3-(3)----*|
|-6-6-6-(6)-4------(4)-------4---|-4-4-4-4-4-4-4-4-|-4-4-2-2-(2)----*|
|-0-0-0-(0)-0------(0)-------0---|-0-0-0-0-0-0-0-0-|-0-0-0-0-(0)----*|
|--------------------------------|-----------------|-----0-0-(0)----*|
|--------------------------------|-----------------|-----0-0-(0)----*|
|
| E S S +S  E.     +Q.       E     E E E E E E E E   E E E E +H
|--------------------------------|-----------------|----------------*|
|-2-2-2-(2)-0------(0)-------0---|-0-0-0-0-0-0-0-0-|-0-0-3-3-(3)----*|
|-2-2-2-(2)-0------(0)-------0---|-0-0-0-0-0-0-0-0-|-0-0-2-2-(2)----*|
|-0-0-0-(0)-0------(0)-------0---|-0-0-0-0-0-0-0-0-|-0-0-0-0-(0)----*|
|--------------------------------|-----------------|-----0-0-(0)----*|
|--------------------------------|-----------------|-----0-0-(0)----*|
|
| PM---------------------------------------------------------|
| E S S  e     S S  e  S S e S S   E E E E E E E E   E E E E +H
|--------------------------------|-----------------|----------------*|
|--------------------------------|-----------------|----------------*|
|--------------------------------|-----------------|----------------*|
|-0-0-0--0-----0-0--0--0-0-0-0-0-|-0-0-0-0-0-0-0-0-|-0-0-0-0-(0)----*|
|--------------------------------|-----------------|----------------*|
|--------------------------------|-----------------|----------------*|


 Synth Solo arr. for guitar
  Gtrs I, II
                       ~~~~~~~~~~~~~~~~~~
  W          +H.      +Q     +W
|----------|---------------|------------|
|----------|---------------|------------|
|-7--------|-(7)------(7)--|-(7)--------|
|----------|---------------|------------|
|----------|---------------|------------|
|----------|---------------|------------|


                                 \1/
 ~~~~~               ~~~~~~~~~~~~~~~~
  +H.       S  E.    W           W
|-------------10--||----------|---------|
|----------10-----||----------|-12------|
|-(7)-------------||-9--------|---------|
|-----------------||----------|---------|
|-----------------||----------|---------|
|-----------------||----------|---------|


                              \1/
   ~~~               ~~~              ~~~~~~~~
   H.       E.  S    H.       Q       H     H
|----------13-----|-13-------13----|-12----------|
|-13-----------13-|----------------|-------12----|
|-----------------|----------------|-------------|
|-----------------|----------------|-------------|
|-----------------|----------------|-------------|
|-----------------|----------------|-------------|


             ~~~~~~~~~~~~~            ~             ~~
   S  S  E  +H.         W           a W          a  W
|-12----12-(12)------|-15--------|-15s8--------|-8s14----|
|----12--------------|-----------|-------------|---------|
|--------------------|-----------|-------------|---------|
|--------------------|-----------|-------------|---------|
|--------------------|-----------|-------------|---------|
|--------------------|-----------|-------------|---------|


      ~~~~~~~~~~~              ~~~~~~~~~~~
   a  H.       Q     H.       +Q      +H.      Q     W
|-14s19-------17--|-19-------(19)--|-(19)---------|-15b17=========|
|-----------------|----------------|--------------|---------------|
|-----------------|----------------|--------------|---------------|
|-----------------|----------------|--------------|---------------|
|-----------------|----------------|--------------|---------------|
|-----------------|----------------|--------------|---------------|


    ~~~~~~~~~~~~~~~~~
   +W            +W            +Q    +Q    +Q    +Q
|-(15)--------|-(15)--------|-(15)r=(15)--(15)--(15)b17----*|
|-------------|-------------|------------------------------*|
|-------------|-------------|------------------------------*|
|-------------|-------------|------------------------------*|
|-------------|-------------|------------------------------*|
|-------------|-------------|------------------------------*|

------------------------------------------------------------------------------|
----------------------------------PLEASE NOTE---------------------------------|
This file is the author's own work and represents their interpretation of
the song. You may only use this file for private study, scholarship, or
research.
---------------------------------------------------------------------------
Transcription by: Daniele Rongione


WAITING FOR THE WORMS
Pink Floyd
(Roger Waters)

 G   C   G                       C
Ooh Ooh Ooh You cannot reach me now
 G                      C
Ooh No matter how you try

(with distortion)
e-|-------------------------------------------------------|
B-|-------------------------------------------------------|
G-|-------------------------------------------------------|
D-|--x--x--7-----------------------5----------------------|
A-|--x--x--5-----------------------3-------------5--------|
E-|----------------------------------------------3--------|
          Goodbye cruel world it's over walk on by


 G                          G    D  C    C B Am
Sitting in a bunker here behind my wall
 Am              G        C
Waiting for the worms to come
    G                        G    D  C    C B Am
In perfect isolation here behind my wall
  Am              G        C
Waiting for the worms to come

(powerchords with distortion)
A                               G A
Waiting to cut up the deadwood
                              G A
Waiting to clean up the city
            G          A
Waiting to follow the worms
                                G A
Waiting to put on a black shirt
                                  G A
Waiting to weed out the weaklings
                                                          G A
Waiting to smash in their windows and kick in their doors
                                                         G A
Waiting for the final solution to strengthen the strain
            G          A
Waiting to follow the worms
                                                   G A
Waiting to turn on the showers and fire the ovens
                                                               G A
Waiting for the queers and the coons and the reds and the jews
            G          A
Waiting to follow the worms

G                                    D C             C B Am
Would you like to see Britannia rule again my friend
Am                     G          C      Riff1 x 2
All you have to do is follow the worms
G                                                D C             C B Am
Would you like to send our coloured cousins home again my friend
Am                     G          C      Riff1 x 20
All you need to do is follow the worms

[Segue to "Stop"]

Riff1
-----
(with distortion)
e-|------------------------------|
B-|------------------------------|
G-|------------------------------|
D-|---2--------------------------|
A-|---2--------------------------|
E-|---0---2vv---3vv---2vvvvvvv---|


--
Updated Oct. 15/97
------------------------------------------------------------------------------|
----------------------------------PLEASE NOTE---------------------------------|
This file is the author's own work and represents their interpretation of
the song. You may only use this file for private study, scholarship, or
research.
---------------------------------------------------------------------------
Transcription by: Daniele Rongione

STOP
Pink Floyd
(Waters)

Em  Bm

   A        C
I wanna go home
Em               Bm
   take off this uniform
     A          C
and leave the show
         Em              Bm
and I'm waiting in this cell
           A            C
because I have to know
Em              Bm              A      C
   have I been guilty all this time?
Em  G  A  C


__
Updated:  March 3/98
--------------------------------------------------------------------------------|
#----------------------------------PLEASE NOTE----------------------------------|
#This file is the author's own work and represents their interpretation of the#
#song. You may only use this file for private study, scholarship, or research.#
#-----------------------------------------------------------------------------#
Transcription by: Syl Voice 

THE TRIAL
Pink Floyd
(Waters/Ezrin)


NOTES:
   1) It's stupid to try to play this tune without an orchestra! but
      I guess I'm not the only stupid guy on heart, so Ok, play it
      for example on a synth (strings are good, power strings are better).
      I sometimes play it on organs, but I play it mainly on piano,
      and that works pretty well! Some can try to play it with guitar/Bass
      /Drums, It sure can do the job. I recently started to learn accordion,
      you couldn't believe how nice it sounds on that thing!

    2) What's that thing? Well, we all saw .CRD files with just chords
       & lyrics, Ok, fine, but that's not enough here, 'cause strings are
       playing a melody wich is different from the vocal one, I believe
       that this part definitly IS the song, so I tried to indicate it here.
       How does it works? It's quite simple: there's 3 lines
        | Chords...
        | strings melody                  & '|' is the bar line
        | Lyrics
       In melody:
       n means nOPE, nO note, at least with the right hand, play 1st or 5th
               with left hand instead.
       - means Let ring.
       + means play this note an octave higher (all is played between F & E)
       L.H. means that this prt of melody is played by left hand

    3) How do I play it? It's pretty simple again:
         the left hand is for the bass line:
           alternate 1st & 5th of each chord + chromatics
         the right hand is for the melody:
           indicated notes + thumb playing any note of the actual chord,
           1st mainly but it can be any.
       Let's take a closer look at the beginning:

                B  Bb B     B  Bb B |    B  Bb B  C  B  A  G  |
Right hand:  -  E  E     -  E  E    | -  E  E     E     E     |
-------------1-----2-----3-----4----|-1-----2-----3-----4-----|
Left  hand:  E     B     E     B    | E     B     E     B     |

       Well, that's a simplification but you can see what I mean.

     4) I've seen .CRDs with the tune in Fm, I've written it as Em, as it's
        the way I'm playing it and it's much more floydian (think of WYWH,
        Welcome.., Atom Heart Mother, ..Turning away,Pigs , among others).
        If that bothers you, translate, retune your synth or put a capo on
        your piano!

        [intro is the first two lines repeated]
-----------------------------------------------------------------------
|Em                              | Em                                 |
|n B    Bb B    n    B    Bb B   | n  B   Bb    B    C    B  A    G   |
|  Good morning worm your honour,|    The crown will plainly show the |
-----------------------------------------------------------------------
|F                                  |F                                |
|n    C   B   C   n      C B    B   |n  C   B      C   D  C   D  C    |
|prisoner who now stands before you |   was caught red handed showing |
-----------------------------------------------------------------------
|Em                            | Em   (melody octave up this bar)     |
|n  B  Bb  B    n  B  Bb  B    | E  B+    B    D  E   -   E D         |
|feelings...          Sho-wing | feelings of an almost    human       |
-----------------------------------------------------------------------
|C                              | B7           ...  N.C.       L.H.   |
|C-   G  F  G  n  G    F    C   | B - A - F# - ...   [Quick: B A G F#]|
|nature...        This will not | do!       (Call the schoolmaster!)  |
-----------------------------------------------------------------------
|Em                            | Em                                   |
|n B Bb B    n    B    Bb   B  | n  B   Bb    B C   B    A G   (  If  |
|  I al-ways said he'd come to | no good In the end your honour(they'd|
-----------------------------------------------------------------------
|F#                               |Em7                         L.H.   |
|n   C# C    C# D   C# C     C#   | D    -    C#  - B   -   [n E F F#]|
|let me have my way I  could Have | flayed him into shape             |
-----------------------------------------------------------------------
|G                               |G#-                                 |
|n   C# B     C#   D    C# B C#  |n   C#   B      C#  D    C# B   C#  |
|But my hands were tied      The |bleeding hearts and artists Let him |
-----------------------------------------------------------------------
| D/A                            | D          L.H.                    |
| F#  F# F#  F#   G  F#   E   F# | [ D D#   E   F F# G G# A ]         |
| get a- way with murder, Let me |   hammer him today                 |
-----------------------------------------------------------------------

-----------------------------------------------------------------------
|Em                                | B                                |
|Bb - B  - Bb   B  C   B A   G  A  | Bb - B  - Bb B  C   B A G F#     |
|Cra- zy   toys in the attic I  am | cra- zy,  truly gone  fi- shing  |
-----------------------------------------------------------------------
| F#m         D                         | D#-              |   half
| C# C# C# C# D      D         D     D  | D#      D# D# D# |<- size
|               They must have taken my | marbles away     |   bar!
-----------------------------------------------------------------------
|Em                                | B                  L.H.          |
|Bb - B  - Bb   B  C   B A   G  A  | Bb - B  -      [ F#  D# B - ]    |
|Cra- zy   toys in the attic He is | cra- zy...                       |
-----------------------------------------------------------------------

        (call the defendant's wife)

  (Second verse, Only bars wich are differents from 1st verse are
   indicated. Caution: Baa-aabe lines are notated one bar per line,
   while everything else is two bars/line, that's because the
   chromatics are twice as fast as any other part of the melody)

  You little shit, you're in it now, I hope they thrown away the
  key! You should have talked to me more often Than you did, but no: you
  had to go your own way. Have you broken any homes up lately?
  "Just five minutes Worm your honour, him and me alone..."
-----------------------------------------------------------------------
| Em                                                                  |
| B   Bb  A   Ab  G   Gb  F   E   Eb  D   Db  C   B   Bb  A   Ab      |
| Baaaaaaaaaaaaaaaaaaaaaaaaaaaaaaaaaaaaaaaaaaaaaaaaaaaaaaaaaaaaaaa--  |
-----------------------------------------------------------------------
| Em                                                                  |
| G   Gb  F   E   Eb  D   Db  C   B   Bb  A   Ab  G   Gb  F   E       |
| --aaaaaaaaaaaaaaaaaaaaaaaaaaaaaaaaaaaaaaaaaaaaaaaaaaaaaaaaaaaaaabe! |
-----------------------------------------------------------------------
|F#m            F#           | Bm       F#    Bm            L.H.      |
|n    C# A C#   n C# A#  C#  | B    B   A# A# B-    [ F#   D    F#  ] |
|Come to mother baby let me  | hold you In my arms                    |
-----------------------------------------------------------------------
  M'lud I never wanted him to get in any trouble
  Why'd he ever have to leave me, Worm your honour let me take him home

  Crazy over the rainbow I am crazy, Bars in the window
  There must have been a door there in the wall When I came in!
  Crazy over the rainbow he is cra---zy


 (3rd verse: just 4 bars repeated ad infinitum, I give you my own
  coda, nothing interesting, it's just that you need to end at a
  time, and sometimes, you just don't have time to wait the crumbling
  of the nearest wall)

  The...
-----------------------------------------------------------------------
| Em                              | Em                                |
| E B* F#    G E    F#  -     G   | E B* F# G  E  F#     G            |
| e-vi-dence before the court is  |   incon-travertable, there's      |
-----------------------------------------------------------------------
| Am                              | Am                                |
| A  E*   B   C   A  B   - C      | A  E*   B   C   A  B   - C        |
| no need for the ju-ry to retire |                                in |
-----------------------------------------------------------------------

  all my years of judging I have never heard before  of
  Someone more deserving the full penalty of law! The
  way you made them suffer your exquisite wife and mother
  Fills me with the urge to defecate
  Since, my friend, you have revealed your Deepest fear, I
  sentence you to be exposed before your peers!

          Tear down the wall!

-the mine coda of me that i've made myself ----------------------------
| Em                              | Em                                |
| E B* F#    G E    F#  -     G   | E B* F# G  E  F#     G            |
| Tear down the wall!             |                                   |
-----------------------------------------------------------------------
| Am                              | Am                                |
| A  E*   B   C   A  B   - C      | A   E*   B   C   A   B   C   D    |
| Tear down the wall!             |                                   |
-----------------------------------------------------------------------
| Em                              |
| E                               |
| (boom)                          |
-----------------------------------

  *: thumb played note, to hehance the melody. I do not play chords on
     this part, I just play octaved (thumb and little finger) melody
     (except those *-marked notes) with left hand, while the right one
     plays it entirely. It goes like that:

             E     F# G  E  F# - G  | E     F# G  E  F# - G  |
Right hand:     B  B  B  B  B  - -  |    B  B  B  B  B  - -  |
-------------1-----2-----3-----4----|-1-----2-----3-----4----|
Left  hand:  E     F# G  E  F# - G  | E     F# G  E  F# - G  |
             E     F# G  E  F# - G  | E     F# G  E  F# - G  |
-------------1-----2-----3-----4----|-1-----2-----3-----4----|
A.Left hand: E     B     E     B    | E     B     E     B    |

Alternate left hand is what I play when I've no room (ie: Synth keyboard)

A note for mad keyboardists:
  Be as mad as you want on melody, but let your left hand be that heavy,
  that maketh the trip!

  It's a pretty simple adaptation (I arranged it after one or two years
  of self-learned piano), but it can be very powerful (I still play it
  years later).

--
Updated December 8/97
------------------------------------------------------------------------------|
----------------------------------PLEASE NOTE---------------------------------|
This file is the author's own work and represents their interpretation of
the song. You may only use this file for private study, scholarship, or
research.
---------------------------------------------------------------------------
Transcription by:  ?

OUTSIDE THE WALL
Pink Floyd
(Waters)


C             F  C
All alone, or in twos
C                   F    C
The ones who really love you
G                  G7        C     F  C
Walk up and down outside the wall
C         F  C
Some hand in hand
                 F        C
Some gathered together in bands
    G
The bleeding hearts and artists
           C     F  C
Make their stand
                           F     C
And when they've given you their all
                 Am          F            C
Some stagger and fall, after all it's not easy
G7
Banging your heart against some mad buggers
C
Wall


--
Updated:  April 10/98
comments
We did not receive enough feedback on this tab! Please rate:
print report bad tab
1 2 3 4 5
1 comment total.
0 reply
VHfan98 wrote on June 22 2010, 02:20 pm

great tab, but...

shouldnt the part in in the flesh? go like this:

|------------------------------------------------------|
|------------------------------------------------------|
|------------------------------------------------------|
|------------------------------------------------------|
|------------------------------------------------------|
|-------5---7^-7--5~4-2-----9^-9--7~~5-----------------|

instead of:

|-------------------------|----------------------------|
|-------------------------|----------------------------|
|-(2)---------------------|----x-----------------------|
|-(2)---------------------|----x-x---------------------|
|--0---2

I want to post or [tab]
guest
You may want to rate the tab now too:
select rating
Please do not post tabs as comments. Select "correction" instead!