Oops, an error
Loading. Please wait.

Time Tab

ver2
ver2
More versions @911Tabs.com
30,823 views 33 this week
3 commentsread comments
1 2 3 4 5
accurate
x 9
Autoscroll
+/-
esc
set tempo
stop
Contributor
Hey! There's an official Ultimate Guitar app which is ideal
for learning songs when you're away from computer. Get the app
WARNING: You are trying to view
                                    content from Ultimate-Guitar.com
                                    in an unauthorized application,
                                    which is prohibited.

                                    Please use an official Ultimate
                                    Guitar Tabs application for iPhone,
                                    iPad or Android to access legitimate
                                    chords, guitar, bass, and drum tabs
                                    from Ultimate-Guitar.com database.

                                    Type "ultimate guitar tabs" in Apple
                                    App Store's or Android Market's
                                    search to find the application.
                             TIME - BREATHE REPRISE
                            As recorded by Pink Floyd
                   (From the 1973 Album DARK SIDE OF THE MOON)

Transcribed by www.mikesguitarsite.co.uk

Gtr I (E A D G B E) - 'Dave Gilmour - rhythm dirty electric'
Gtr II (E A D G B E) - 'Dave Gilmour clean electric'
Gtr III (E A D G B E) - 'Dave Gilmour - lead dist electric'

 Intro
  Q=124
 4/4
  Gtrs I, II
|---------|----------|------------|------------|--------|
|---------|----------|------------|------------|--------|
|---------|----------|------------|------------|--------|
|---------|----------|------------|------------|--------|
|---------|----------|------------|------------|--------|
|---------|-0--------|-(0)--------|-(0)--------|-(0)----|


|----------|------------|------------|--------|
|----------|------------|------------|--------|
|----------|------------|------------|--------|
|----------|------------|------------|--------|
|----------|------------|------------|--------|
|-2--------|-(2)--------|-(2)--------|-(2)----|


|----------|------------|------------|--------|
|----------|------------|------------|--------|
|----------|------------|------------|--------|
|----------|------------|------------|--------|
|----------|------------|------------|--------|
|-0--------|-(0)--------|-(0)--------|-(0)----|


|----------|------------|------------|------------|
|----------|------------|------------|------------|
|----------|------------|------------|------------|
|----------|------------|------------|------------|
|----------|------------|------------|------------|
|-2--------|-(2)--------|-(2)--------|-(2)--------|


|----------|------------|------------|-----------------|
|----------|------------|------------|-----------------|
|----------|------------|------------|-----------------|
|----------|------------|------------|-----------------|
|----------|------------|------------|-----------------|
|-0--------|-(0)--------|-(0)--------|-(0)----0-1-(1)--|


|----------|--------------|----------|--------|
|----------|--------------|----------|--------|
|----------|--------------|----------|--------|
|----------|-----------2--|----------|--------|
|----------|--------2-----|----------|--------|
|-2--------|-(2)----------|-2--------|-(2)----|


|----------|------------|------------|--------|
|----------|------------|------------|--------|
|----------|------------|------------|--------|
|----------|------------|------------|--------|
|----------|------------|------------|--------|
|-2--------|-(2)--------|-(2)--------|-(2)----|


|----------|------------|-<12>--------|-(<12>)------------|
|----------|------------|-------------|-------------------|
|----------|------------|-------------|-------------------|
|----------|------------|-------------|-------------------|
|-0--------|-(0)--------|-------------|-------------------|
|----------|------------|-------------|-------------2b4-2-|


|----------|-<12>--------|-(<12>)--------|-(<12>)-------------|
|----------|-------------|---------------|--------------------|
|----------|-------------|---------------|--------------------|
|----------|-------------|---------------|--------------------|
|----------|-------------|---------------|--------------------|
|-0--------|-------------|---------------|-----------0-1-(1)--|


|----------|------------|------------|--------||
|----------|------------|------------|--------||
|----------|------------|------------|--------||
|----------|------------|------------|--------||
|----------|------------|------------|--------||
|-2--------|-(2)--------|-(2)--------|-(2)----||


 Verse
|----------------|--------------|--------------|--------------|
|---------2------|-------2-2----|------------3-|--2------2----|
|---------2------|-------2-2----|-2----x-x-x-2-|--2----2-2----|
|---------4------|-------4-2----|-2----x-x-x-2-|--2--2---2--x-|
|----------------|--------------|-0------------|------------x-|
|-2-2-(2)-----0--|-2-2--------4-|--------------|--------------|


|------------|------------|------------------|------------------------|
|------------|------------|-----------x-2----|-(2)--2-------2---------|
|------1-1---|-----1-1----|-----------x-4b6==|=(4)--6r4-2---2---------|
|------2-2---|-----2-2----|--------4--x------|------------4---2-(2)-2-|
|------2-2---|-----2-2----|--------4---------|------------------------|
|-0----------|----------0-|-0-2--2-----------|------------------------|


|--------------|---------------|-5----5-(5)--7---|-7s9-9-9s7-7-(7)\--|
|-------2------|--------2-2----|-5----5-(5)------|-------------------|
|-------2------|--------2-2----|-2s=6--------7---|-7s9-9-9s7-7-(7)\--|
|-------4------|---4----2h4----|-2---------------|-------------------|
|-2-4----------|---------------|---------------5-|-------------------|
|-0-2------0-0-|-2----2------0-|-----------------|-------------------|


|-----------0---|--------------|------------------|
|---------0-0---|-------2-0----|---------2--------|
|-------0h1-----|-------2-1----|---------2-x-x----|
|---------2-----|-------2-2----|---------4-x-x-x--|
|---------------|--------------|---------4-x-x-x--|
|-0---0---------|--0--0------0-|-0h2-x-2----------|


                    Chorus
|-----------------||----------|------------|-0----|
|---------2-2-x---||-2--------|-(2)--------|-2----|
|---------2-2-x---||-2--------|-(2)--------|-1----|
|-----x---4-2-x---||-0--------|-(0)--------|-2----|
|-----x-----------||----------|------------|-0----|
|-x-2-x-0-------2-||----------|------------|------|


|-(0)---------|----------|----------------|-0----|
|-(2)---------|-2--------|-(2)----(2)-3---|-2----|
|-(1)---------|-2--------|-(2)----(2)-2---|-1----|
|-(2)------2--|-0--------|-(0)----(0)-0---|-2----|
|-(0)---------|----------|----------------|-0----|
|-------------|----------|----------------|------|


|-(0)----0------|----------|------------|------|
|-(2)------2-x--|-2--------|-(2)--------|-5----|
|-(1)--------x--|-2--------|-(2)--------|-4----|
|-(2)-----------|-0--------|-(0)--------|-6----|
|-(0)-----------|----------|------------|-4----|
|---------------|----------|------------|------|


|------------|----------|--------------------|------|
|-(5)--------|-3--------|-(3)----------------|------|
|-(4)--------|-2--------|-(2)----------------|------|
|-(6)--------|-4--------|-(4)----------------|------|
|-(4)--------|-2--------|-(2)----------------|------|
|------------|----------|----------2b4r(2)-2-|-0----|


                Guitar Solo
|-x----x------||-----------2------------------|
|-x----x------||-----------2------------------|
|-------------||-----------2------------------|
|-------------||-----------4------------------|
|-------------||-4----------------------------|
|--------0-1--||-2----------------0-----0-----|
|
| Gtr III
|-------------||------------------------------|
|-------------||------------------------------|
|-------------||------------------------------|
|-------------||-2-4-(4)-----(4)----(4)---(4)-|
|-------------||------------------------------|
|-------------||------------------------------|


|------------------------|----------------------------|
|----------2--2----------|----------------------------|
|-----2----2--2----------|-------------2--------------|
|-----4----4--4-----4----|-2-------(2)-2--------2-----|
|-----4------------------|-0-------(0)-0--------------|
|--2---------------------|----------------------------|
|
|------------------------|----------------------------|
|------------------------|----------------------------|
|-------------4pb6--5pb6-|-4pb6--------4pb5r(4)-4pb6==|
|-(4)-----(4)------------|----------------------------|
|------------------------|----------------------------|
|------------------------|----------------------------|


|------------------------------------------|
|------2----------2---2--------------------|
|-4b6-(4)---4b6--(4)--4b6r(4)p=2-----2-----|
|----------------------------------4-------|
|------------------------------------------|
|------------------------------------------|
|
|------------------------------------------|
|------------------------------------------|
|-----(4)r--4b6==(4)----------(4)r-----4p2-|
|------------------------------------------|
|------------------------------------------|
|------------------------------------------|


                                                               ~~~
|--------------------------|------------------------|----------------|
|--------------------0-0---|------------------0-0---|-------2--2-----|
|-----------------1h=2-1---|---------------1h=2-1---|-------2--4b6---|
|--------------------2-2---|------------------2-2---|-------4--------|
|--------------------2-2---|-----2--2---------2-2---|----------------|
|------0--0-(0)------------|-----0--0---------------|-0-2------------|
|
|                                                     ~
|--------------------------|------------------------|----------------|
|--------------------------|------------------------|----------2---5-|
|-4b6-(4)----4---(4)-------|-(4)--------------------|----------------|
|--------------------------|----------4b6-(4)-------|-4--------------|
|--------------------------|------------------------|----------------|
|--------------------------|------------------------|----------------|


                                        ~
|------------------------------------------|
|-(2)---2----------------------------------|
|-(4)---4b6r(4)p==2-------2----------------|
|-------------------4---------2---------2--|
|------------------------------------------|
|------------------------------------------|
|
|  ~~~
|-----------------------------5b5.5-(5)----|
|--5---(5)h=====7p==5h7p5h==7-----------7--|
|------------------------------------------|
|------------------------------------------|
|------------------------------------------|
|------------------------------------------|


|----------------|-------------------------|
|----------------|-------------------------|
|----------------|-------------------------|
|------4---------|-----4-----4--4----------|
|-4--------------|-----------4--4----------|
|-2------2---0---|--2-----2----------------|
|
| ~
|----------------|-------------------------|
|-7--------x-----|-------------------------|
|-x--------x-4b6-|-(4)------(4)---(4)-4p2--|
|-4--------x-----|-------------------------|
|----------------|-------------------------|
|----------------|-------------------------|


|------------------------------|-5-5-----5\--------5-(5)--|
|------------------------------|-5-5s=7--5\--------5-(5)--|
|-----------------2--0---------|-6-6s=7--6\--------6-(6)--|
|-2---------------2--------x---|-------------------7-(7)--|
|-0----------------------------|--------------------------|
|------------------------------|--------------------------|
|
|----------------------------9-|-9-9-(9)------9b10r==(9)--|
|------------------------------|--------------------------|
|-4b6r(4)-4b6-(4)------6-9-----|-9-9-(9)----9-------------|
|------------------------------|--------------------------|
|------------------------------|--------------------------|
|------------------------------|--------------------------|


|------------------------|------------------------------------|
|------------------------|------------------------------------|
|---------------1-1------|------------------------------------|
|---------------2-2------|------------------------------------|
|---------------2-2------|------------------------------------|
|--0---------------------|------3b3.5-(3)-4---------2-----0---|
|
|                      ~
|------------------------|------------------------------------|
|-10b12r=(10)--10---10-9-|-(9)------------9b11r(9)-(9)--------|
|------------------------|-----------------------------9-(9)--|
|------------------------|------------------------------------|
|------------------------|------------------------------------|
|------------------------|------------------------------------|


|-------------------|---------------------|
|--------x---2--2---|----------2--2-------|
|--------x---2--2---|----------2--2-------|
|------------4--2---|----------4--2-------|
|-------------------|---------------------|
|-2-----------------|--0--2---------------|
|
|-------------------|---------------------|
|-9pb11r====(9)-----|-(9)-----(9)-9-(9)---|
|-------------------|-------------------x-|
|-------------------|---------------------|
|-------------------|---------------------|
|-------------------|---------------------|


|--------2---------2--5----|--------------------------------------|
|--------2---------2--5-7--|-------------------------2--2-x-------|
|--------2--------------6--|-------------------------2--2-x-------|
|-----4--------------------|--------------------------------------|
|-----4--------------------|--------------------------------------|
|--0--2--------------------|---------0h=2--x--x--------------4----|
|
|--------------------------|--------------17----------------------|
|-------14-17b19-(17)------|-17b19-(17)------17b19r(17)-----17-19-|
|----14--------------------|--------------------------------------|
|-16-----------------------|--------------------------------------|
|--------------------------|--------------------------------------|
|--------------------------|--------------------------------------|


|--------------------------|----------------------------------------------|
|--------------------------|--------------------3-------2-----------------|
|--2---x-----------2--x-x--|----------2---------2-------2----------2----2-|
|--2---x-----------2--x-x--|------2-------------2-------2----------2----2-|
|--0---x--0----------------|---------------------------------------0----0-|
|--------------------------|----------------------------------------------|
|
|                                                       ~~~~~~~~~~
|--------------------------|----------------------------------------------|
|-17--17-------------------|----------------------------------------------|
|--------16pb18==(16)------|-(16)---(16)r-16b19r==(16)-16b18-(16)-16b18r==|
|--------------------------|----------------------------------------------|
|--------------------------|----------------------------------------------|
|--------------------------|----------------------------------------------|


|------------------0-(0)---|----------------0-----------------|
|----------------0-0-(0)---|----------------3s=====5--5-------|
|----------------1---------|--------------------------9-------|
|----------------2-------2-|----------------------------------|
|---2--2-(2)--2----------2-|----------------------------------|
|---0--0-(0)--0------------|--0--0-------0-----------------0--|
|
|--------------------------|----------------------------------|
|--------------------------|----15-(15)-15-14b15r(14)---------|
|-(16)-------16-16---------|-16-------------------------14----|
|--------------------------|----------------------------------|
|--------------------------|----------------------------------|
|--------------------------|----------------------------------|


|---------------------|-----------------------------|
|--------2-2----------|-----------------------------|
|--------2-2----------|-----------2-----2--------2--|
|---------------------|-----------4-----4--------4--|
|---------------------|-----------------------------|
|--2-0-----------0h===|===2--2----------------------|
|
|  ~~
|---------------------|----------17pb19r==(17)-(17)-|
|------------14-17b19-|-(17)------------------------|
|---------------------|-----------------------------|
|-16------------------|-----------------------------|
|---------------------|-----------------------------|
|---------------------|-----------------------------|


|----------------------------|-----------------------------------|
|---------------------2------|---------------2--------2-----x----|
|---------------------2------|---------------2--------2-----x----|
|----------------------------|---------------4-------------------|
|---------4--4-4-(4)---------|-----------------------------------|
|---------2--2-2-(2)-----0-0-|--2-2----------------------------4-|
|
|         ~~~~
|----------------------------|-----------------------------------|
|-17b19-(17)-----------------|-19---(19)s17----------------------|
|----------------------------|--------------17s14pb16r==14-16-14-|
|----------------------------|-----------------------------------|
|----------------------------|-----------------------------------|
|----------------------------|-----------------------------------|


|-----------------------|----------------------------------|
|---------------------3-|---x--2-----------2h=3---2--------|
|---------2-------0---0-|------2----2------2------2--------|
|---------2-------2s4-4-|------2----2------2---------------|
|---------0-------------|-----------0----------------------|
|-----------------------|----------------------------------|
|
|-----------------------|--------0-19b21r(19)---(19)-19b21-|
|-----------------------|----------------------------------|
|-16b18-(16)------------|-(16)-----------------------------|
|-----------------------|----------------------------------|
|-----------------------|----------------------------------|
|-----------------------|----------------------------------|


|--------------0---|-------------------------------|
|--------------0---|-------------------------------|
|------------1-----|-------------------------------|
|------------2-----|-------------------------------|
|------------2-----|-------------------------------|
|---0--------------|-----------0---2----0-------0--|
|
|            ~~
|-(19)---19-19-----|-(19)-16-(16)------------------|
|------------------|--------------17------17s19----|
|------------------|-----------------16------------|
|------------------|-------------------------------|
|------------------|-------------------------------|
|------------------|-------------------------------|


|---------------------|-----------------------|
|--------2-2----------|--------------2-2------|
|--------2-2----------|--------------2-2------|
|--------4-4----------|--------------4-4------|
|---------------------|------------4----------|
|--0-2--------------2-|--0h=2------2----------|
|
|  ~~
|---------------------|-----------------------|
|-19---------17h19p17-|-17s14-(14)-------14\--|
|---------------------|-----------------------|
|---------------------|-----------------------|
|---------------------|-----------------------|
|---------------------|-----------------------|


  ~~~~~~~~~~~~~~~~~~~~~~
|-----------------|-----------------------|
|-2---------------|-(2)-------------------|
|-2---------------|-(2)-------------------|
|-0---------------|-(0)-------------------|
|-----------------|-----------------------|
|-----------------|-----------------------|
|
|-----------------|-----------------------|
|-------7-10-12---|-10-----(10)-9-(9)-10--|
|-----7-----------|-----------------------|
|---7-------------|-----------------------|
|-9---------------|-----------------------|
|-----------------|-----------------------|


  ~~~~~~~~~~~~~~~~~~~~~~~~~~~~~~~~~~~~~~~~~~~~~~~~~~~~~~~~~
|-0------------------|-(0)-------------|-------------|---------------|
|-2------------------|-(2)-------------|-2-----------|-(2)-----------|
|-1------------------|-(1)-------------|-2-----------|-(2)-----------|
|-2------------------|-(2)-------------|-0-----------|-(0)-----------|
|-0------------------|-(0)-------------|-------------|---------------|
|--------------------|-----------------|-------------|---------------|
|
|          ~~~~~~~
|--------------------|-----------------|-------------|---------------|
|-9h10p9p7s5--(5)----|-(5)----(5)-7-9--|-9------7S5\-|--7-----5-2-5--|
|--------------------|-----------------|-------------|---------------|
|--------------------|-----------------|-------------|---------------|
|--------------------|-----------------|-------------|---------------|
|--------------------|-----------------|-------------|---------------|


  ~~~~~~~~~~~~~~~~~~~~~~~~~~~~~~~~~~~~~~~~~~~~~~~~~~~
|-0--------------|-(0)--------|----------------|----------------------|
|-2--------------|-(2)--------|------2---------|-(2)------------------|
|-1--------------|-(1)--------|------2---------|-(2)------------------|
|-2--------------|-(2)--------|------0---------|-(0)------------------|
|-0--------------|-(0)--------|----------------|----------------------|
|----------------|------------|----------------|----------------------|
|
|                                                                  ~
|----------------|------------|----------------|----------------------|
|-2------2---(2)-|-(2)--------|----------------|----------------------|
|--------4b6r(4)-|-(4)--------|-4b6-(4)--------|--6-----4pb6r(4)-2-2--|
|----------------|------------|----------------|----------------------|
|----------------|------------|----------------|----------------------|
|----------------|------------|----------------|----------------------|


  ~~~~~~~~~~~~~~~~~~~~~~~~~~~~~~~~~~~~~~~~~~~~~~
|---------------|--------------|----------|-------------------|
|-5-------------|-(5)----------|-3--------|-(3)---------------|
|-4-------------|-(4)----------|-2--------|-(2)---------------|
|-6-------------|-(6)----------|-4--------|-(4)---------------|
|-4-------------|-(4)----------|-2--------|-(2)---------------|
|---------------|--------------|----------|-------------------|
|
|                                ~~~~~~~~~~~~~~~
|---------------|--------------|----------|-------------------|
|---------------|--------------|----------|-------------------|
|-4b6r===(4)----|-(4)----4p=2--|-4--------|--2---------4------|
|---------------|--------------|----------|--------4s6---6s4--|
|---------------|--------------|----------|-------------------|
|---------------|--------------|----------|-------------------|


                             Verse
  ~                      ~
|-0--------|-(0)-----0-0-2-||------2----|-----2-2---|
|-0--------|-(0)-----0-0-2-||------2----|-----2-2---|
|-1--------|-(1)---------2-||------2----|-----2-2---|
|-2--------|-(2)---------4-||-----------|-----------|
|-2--------|-(2)---------4-||-----------|-----------|
|-0--------|-(0)---------2-||-2---------|-----------|
|
| ~
|----------|---------------||-----------|-----------|
|----------|---------------||-----------|-----------|
|----------|---------------||-----------|-----------|
|-2--------|---------------||-----------|-----------|
|----------|---------------||-----------|-----------|
|----------|--0------------||-----------|-----------|


  Gtrs I, II
|---------------|-----------------|--------------|---------------|
|-------------7-|-x-5-x-3-x-2-x---|--------------|---------------|
|------2------0-|-----------------|-1----(1)-1---|---------------|
|-2----2--2s7-7-|-x-5-x-4-x-2-x---|-2----(2)-2---|----2-(2)---2--|
|-0----0--------|-----------------|-2----(2)-2---|----2-(2)---2--|
|---------------|---------------0-|--------------|---------------|


|------------------|-----------------------|----------2-----|--------------|
|--------------2---|-(2)--2---------2------|----------2-----|-------2------|
|---------2--x-4b6-|-(4)--4b6r4p2-----2-2--|----------2-----|-------2-2----|
|---------4--x-----|--------------4--------|----------------|---------4----|
|------------------|-----------------------|----------------|--------------|
|-0-2-x-2----------|-----------------------|-2-2-(2)------0-|-2-2--------2-|


|----------------|---------------------|---------------|--------------|
|-------2--------|----12-12--10-(10)\--|--------0------|--------------|
|-------2-----10-|-----0--0---0--(0)---|--------1------|--------1-----|
|-2---2-2------0-|--x-12-12--11-(11)\--|--------2------|-----2--2--2--|
|-0--------11-11-|---------------------|--------2------|-----2--2--2--|
|----------------|---------------------|-0-0-0----0-0--|-0-0-0-----0--|


                                  Out-Chorus
                                   ~~~~~~~~~~~~~~~
|---------------|---------------||----------|--------|
|---------------|---------2-2---||-2--------|-(2)----|
|-------2-------|---------2-2---||-2--------|-(2)----|
|-------4-4-4---|---------4-4---||-0--------|-(0)----|
|-------4-----4-|-2-4-----------||----------|--------|
|-2---2---------|-0-2-x-x-------||----------|--------|


  ~~~~~~~~~~~~~~~~~~~~~~~~~~~~~~~~~~~~~~~
|-0--------|-(0)--------|----------|--------|
|-2--------|-(2)--------|-2--------|-(2)----|
|-1--------|-(1)--------|-2--------|-(2)----|
|-2--------|-(2)--------|-0--------|-(0)----|
|-0--------|-(0)--------|----------|--------|
|----------|------------|----------|--------|


  ~                           ~
|-0--------|-(0)----0-------|----------|----------2----|
|-2--------|-(2)------2-----|-2--------|-(2)----2-2----|
|-1--------|-(1)--------1---|-2--------|-(2)----2-2-2--|
|-2--------|-(2)----------2-|-0--------|-(0)----0---0--|
|-0--------|-(0)------------|----------|---------------|
|----------|----------------|----------|---------------|


  ~~~~~~~~~~~~~~~~~~~~~~~~~~~~~~~~~~~~~~~
|----------|------------|----------|--------|
|-5--------|-(5)--------|-3--------|-(3)----|
|-6--------|-(6)--------|-4--------|-(4)----|
|-6--------|-(6)--------|-4--------|-(4)----|
|-4--------|-(4)--------|-2--------|-(2)----|
|----------|------------|----------|--------|


                        ~
|----------|-1--------|-0----*|
|-3--------|-1--------|-0----*|
|-2--------|-2--------|-0----*|
|-4--------|-3--------|-4----*|
|-2--------|----------|-2----*|
|----------|----------|-0----*|


Tablature Legend
----------------
 h   - hammer-on
 p   - pull-off
 b   - bend
 pb  - pre-bend
 r   - bend release (if no number after the r, then release immediately)
 /\  - slide into or out of (from/to "nowhere")
 s   - legato slide
 S   - shift slide
  - natural harmonic
[n]  - artificial harmonic
n(n) - tapped harmonic
 ~   - vibrato
 tr  - trill
 T   - tap
 TP  - trem. picking
 PM  - palm muting
\n/  - tremolo bar dip; n = amount to dip
 \n  - tremolo bar down
 n/  - tremolo bar up
/n\  - tremolo bar inverted dip
 =   - hold bend; also acts as connecting device for hammers/pulls
 <>  - volume swell (louder/softer)
 x   - on rhythm slash represents muted slash
 o   - on rhythm slash represents single note slash

Misc Legend
-----------
 |  - bar
||  - double bar
||o - repeat start
o|| - repeat end
*|  - double bar (ending)
 :  - bar (freetime)
 $  - Segno
 &  - Coda
Tempo markers -  = BPM(8/16=s8/s16), where s8 = swing 8ths, s16 = swing 16ths


***************************************************************************************
* Generated using Power Tab Editor by Brad Larsen - http://powertab.guitarnetwork.org *
***************************************************************************************
comments
print report bad tab
3 comments total.
0 reply
aprescott_27 wrote on December 21 2005, 09:28 pm

Pretty good. I'm not sure Gilmour plays all those chords in the verses, though.

0 reply
Fluffyruffy17 wrote on July 26 2006, 09:42 pm

this is a great tab, only u tryed to write the piano part in

0 reply
cRACk mONKEyTTU wrote on November 8 2010, 08:22 pm

Perfect, best tab for this song I've seen. Sort of hard to read at times though, but only because it has the backing guitar/keyboard at some parts. But it is all correct.

I want to post or [tab]
guest
You may want to rate the tab now too:
select rating
Please do not post tabs as comments. Select "correction" instead!