Oops, an error
Loading. Please wait.

Us And Them Tab

ver4
ver4

Whole song

More versions @911Tabs.com
12,714 views 12 this week
10 commentsread comments
1 2 3 4 5
accurate
x 8
Autoscroll
+/-
esc
set tempo
stop
Contributor
Difficulty
intermediate
WARNING: You are trying to view
                                    content from Ultimate-Guitar.com
                                    in an unauthorized application,
                                    which is prohibited.

                                    Please use an official Ultimate
                                    Guitar Tabs application for iPhone,
                                    iPad or Android to access legitimate
                                    chords, guitar, bass, and drum tabs
                                    from Ultimate-Guitar.com database.

                                    Type "ultimate guitar tabs" in Apple
                                    App Store's or Android Market's
                                    search to find the application.
-----------------------------------------------------------------------------
                             US AND THEM - PINK FLOYD
-----------------------------------------------------------------------------
Song: Us and Them
Artist: Pink Floyd
Album: Dark Side of the Moon

Tab by: Zain Syed (EggsaladBob)


Tuning: Standard

CHORDS

   Dsus9   Bm    C#aug   Dsus2  Dsus9
e|---5------7------9-------7------5------------------------------------------|
B|---5------7------10------8------5------------------------------------------|
G|---7------7------10------9------7------------------------------------------|
D|---7------9------11------x------7------------------------------------------|
A|---5---------------------5------5------------------------------------------|
E|---------------------------------------------------------------------------|

VERSE

(0:25)  Dsus9
e|-----------5-------------------5-------------------------------------------|
B|-------5-----5---5---------5-----5---5-------------------------------------|
G|-----7---7-----7---------7---7-----7---------------------------------------|
D|---------------------------------------------------------------------------|
A|---5-------------------5---------------------------------------------------|
E|---------------------------------------------------------------------------|

(0:32)   Bm
e|-----------7---------------------7-----------------------------------------|
B|-------7-----7---7-----------7-----7---7-----------------------------------|
G|-----7---------9---9-------7---------9-------------------------------------|
D|---9---------------------9-------------------------------------------------|
A|---------------------------------------------------------------------------|
E|---------------------------------------------------------------------------|

(0:39)   C#aug
e|-----------9-------------------9--9----------------------------------------|
B|------10-----10----10----------10-10---10----10----------------------------|
G|----------------10----------10------------10-------------------------------|
D|---11--------------------11------------------------------------------------|
A|---------------------------------------------------------------------------|
E|---------------------------------------------------------------------------|

(0:46)   Dsus2
e|-----------7-----7---------------7-------7---------------------------------|
B|-------8-----8-----8---------8-----8---8-----------------------------------|
G|-----9---------9-----------9---------9-------------------------------------|
D|---------------------------------------------------------------------------|
A|---5---------------------5-------------------------------------------------|
E|---------------------------------------------------------------------------|

(0:53)   Dsus9
e|-----------5-------------------5-------------------------------------------|
B|-------5-----5---5---------5-----5---5-------------------------------------|
G|-----7---7-----7---------7---7-----7---------------------------------------|
D|---------------------------------------------------------------------------|
A|---5-------------------5---------------------------------------------------|
E|---------------------------------------------------------------------------|

VERSE

(0:59)   Dsus9
e|-----------5-------------------5-------------------------------------------|
B|-------5-----5---5---------5-----5---5-------------------------------------|
G|-----7---7-----7---------7---7-----7---------------------------------------|
D|---------------------------------------------------------------------------|
A|---5-------------------5---------------------------------------------------|
E|---------------------------------------------------------------------------|

(1:06)   Bm
e|-----------7---------------------7-----------------------------------------|
B|-------7-----7---7-----------7-----7---7-----------------------------------|
G|-----7---------9---9-------7---------9-------------------------------------|
D|---9---------------------9-------------------------------------------------|
A|---------------------------------------------------------------------------|
E|---------------------------------------------------------------------------|

(1:13)   C#aug
e|-----------9-------------------9--9----------------------------------------|
B|------10-----10----10----------10-10---10----10----------------------------|
G|----------------10----------10------------10-------------------------------|
D|---11--------------------11------------------------------------------------|
A|---------------------------------------------------------------------------|
E|---------------------------------------------------------------------------|

(1:19)   Dsus2
e|-----------7-----7---------------7-------7---------------------------------|
B|-------8-----8-----8---------8-----8---8-----------------------------------|
G|-----9---------9-----------9---------9-------------------------------------|
D|---------------------------------------------------------------------------|
A|---5---------------------5-------------------------------------------------|
E|---------------------------------------------------------------------------|

(1:26)   Dsus9
e|-----------5-------------------5-------------------------------------------|
B|-------5-----5---5---------5-----5---5-------------------------------------|
G|-----7---7-----7---------7---7-----7---------------------------------------|
D|---------------------------------------------------------------------------|
A|---5-------------------5---------------------------------------------------|
E|---------------------------------------------------------------------------|

VERSE

(1:33)   Dsus9
e|-----------5-------------------5-------------------------------------------|
B|-------5-----5---5---------5-----5---5-------------------------------------|
G|-----7---7-----7---------7---7-----7---------------------------------------|
D|---------------------------------------------------------------------------|
A|---5-------------------5---------------------------------------------------|
E|---------------------------------------------------------------------------|

(1:40)   Bm
e|-----------7---------------------7-----------------------------------------|
B|-------7-----7---7-----------7-----7---7-----------------------------------|
G|-----7---------9---9-------7---------9-------------------------------------|
D|---9---------------------9-------------------------------------------------|
A|---------------------------------------------------------------------------|
E|---------------------------------------------------------------------------|

(1:46)   C#aug
e|-----------9-------------------9--9----------------------------------------|
B|------10-----10----10----------10-10---10----10----------------------------|
G|----------------10----------10------------10-------------------------------|
D|---11--------------------11------------------------------------------------|
A|---------------------------------------------------------------------------|
E|---------------------------------------------------------------------------|

(1:53)   Dsus2
e|-----------7-----7---------------7-------7---------------------------------|
B|-------8-----8-----8---------8-----8---8-----------------------------------|
G|-----9---------9-----------9---------9-------------------------------------|
D|---------------------------------------------------------------------------|
A|---5---------------------5-------------------------------------------------|
E|---------------------------------------------------------------------------|

(2:00)   Dsus9
e|-----------5-------------------5-------------------------------------------|
B|-------5-----5---5---------5-----5---5-------------------------------------|
G|-----7---7-----7---------7---7-----7---------------------------------------|
D|---------------------------------------------------------------------------|
A|---5-------------------5---------------------------------------------------|
E|---------------------------------------------------------------------------|

VERSE

(2:07)   Dsus9
e|-----------5-------------------5-------------------------------------------|
B|-------5-----5---5---------5-----5---5-------------------------------------|
G|-----7---7-----7---------7---7-----7---------------------------------------|
D|---------------------------------------------------------------------------|
A|---5-------------------5---------------------------------------------------|
E|---------------------------------------------------------------------------|

(2:13)   Bm
e|-----------7---------------------7-----------------------------------------|
B|-------7-----7---7-----------7-----7---7-----------------------------------|
G|-----7---------9---9-------7---------9-------------------------------------|
D|---9---------------------9-------------------------------------------------|
A|---------------------------------------------------------------------------|
E|---------------------------------------------------------------------------|

(2:20)   C#aug
e|-----------9-------------------9--9----------------------------------------|
B|------10-----10----10----------10-10---10----10----------------------------|
G|----------------10----------10------------10-------------------------------|
D|---11--------------------11------------------------------------------------|
A|---------------------------------------------------------------------------|
E|---------------------------------------------------------------------------|

(2:27)   Dsus2
e|-----------7-----7---------------7-------7---------------------------------|
B|-------8-----8-----8---------8-----8---8-----------------------------------|
G|-----9---------9-----------9---------9-------------------------------------|
D|---------------------------------------------------------------------------|
A|---5---------------------5-------------------------------------------------|
E|---------------------------------------------------------------------------|


PRE-CHORUS

(2:34)
   Dsus9   Dsus9  Dsus9 C#m
e|---5-------5------5----4-------------------------------------------------------|
B|---5-------5------5----5-------------------------------------------------------|
G|---7-------7------7----6-------------------------------------------------------|
D|---7-------7------7----6-------------------------------------------------------|
A|---5-------5------5----4---------------------------------------------------E|--|

CHORUS

(2:40)
    Bm  Bm  Bm  Bm  Bm  Bm  Bm   A   G   G   G   G   C   C
e|---2---2---2---2---2---2---2---5---3---3---3---3---x---x-------------------|
B|---3---3---3---3---3---3---3---5---3---3---3---3---5---5-------------------|
G|---4---4---4---4---4---4---4---6---4---4---4---4---5---5-------------------|
D|---4---4---4---4---4---4---4---7---5---5---5---5---5---5-------------------|
A|---2---2---2---2---2---2---2---7---5---5---5---5---3---3-------------------|
E|-------------------------------5---3---3---3---3---------------------------|

(2:53)
    Bm  Bm  Bm  Bm  Bm  Bm  Bm   A   G   G   G   G   C   C
e|---2---2---2---2---2---2---2---5---3---3---3---3---x---x-------------------|
B|---3---3---3---3---3---3---3---5---3---3---3---3---5---5-------------------|
G|---4---4---4---4---4---4---4---6---4---4---4---4---5---5-------------------|
D|---4---4---4---4---4---4---4---7---5---5---5---5---5---5-------------------|
A|---2---2---2---2---2---2---2---7---5---5---5---5---3---3-------------------|
E|-------------------------------5---3---3---3---3---------------------------|

VERSE
(3:06)   Dsus9
e|-----------5-------------------5-------------------------------------------|
B|-------5-----5---5---------5-----5---5-------------------------------------|
G|-----7---7-----7---------7---7-----7---------------------------------------|
D|---------------------------------------------------------------------------|
A|---5-------------------5---------------------------------------------------|
E|---------------------------------------------------------------------------|

(3:13)   Bm
e|-----------7---------------------7-----------------------------------------|
B|-------7-----7---7-----------7-----7---7-----------------------------------|
G|-----7---------9---9-------7---------9-------------------------------------|
D|---9---------------------9-------------------------------------------------|
A|---------------------------------------------------------------------------|
E|---------------------------------------------------------------------------|

(3:20)   C#aug
e|-----------9-------------------9--9----------------------------------------|
B|------10-----10----10----------10-10---10----10----------------------------|
G|----------------10----------10------------10-------------------------------|
D|---11--------------------11------------------------------------------------|
A|---------------------------------------------------------------------------|
E|---------------------------------------------------------------------------|

(3:26)   Dsus2
e|-----------7-----7---------------7-------7---------------------------------|
B|-------8-----8-----8---------8-----8---8-----------------------------------|
G|-----9---------9-----------9---------9-------------------------------------|
D|---------------------------------------------------------------------------|
A|---5---------------------5-------------------------------------------------|
E|---------------------------------------------------------------------------|

VERSE
(3:40)   Dsus9
e|-----------5-------------------5-------------------------------------------|
B|-------5-----5---5---------5-----5---5-------------------------------------|
G|-----7---7-----7---------7---7-----7---------------------------------------|
D|---------------------------------------------------------------------------|
A|---5-------------------5---------------------------------------------------|
E|---------------------------------------------------------------------------|

(3:46)   Bm
e|-----------7---------------------7-----------------------------------------|
B|-------7-----7---7-----------7-----7---7-----------------------------------|
G|-----7---------9---9-------7---------9-------------------------------------|
D|---9---------------------9-------------------------------------------------|
A|---------------------------------------------------------------------------|
E|---------------------------------------------------------------------------|

(3:53)   C#aug
e|-----------9-------------------9--9----------------------------------------|
B|------10-----10----10----------10-10---10----10----------------------------|
G|----------------10----------10------------10-------------------------------|
D|---11--------------------11------------------------------------------------|
A|---------------------------------------------------------------------------|
E|---------------------------------------------------------------------------|

(4:00)   Dsus2
e|-----------7-----7---------------7-------7---------------------------------|
B|-------8-----8-----8---------8-----8---8-----------------------------------|
G|-----9---------9-----------9---------9-------------------------------------|
D|---------------------------------------------------------------------------|
A|---5---------------------5-------------------------------------------------|
E|---------------------------------------------------------------------------|

PRE-CHORUS

(4:06)
  Dsus9   Dsus9  Dsus9 C#m
e|---5-------5------5----4-------------------------------------------------------|
B|---5-------5------5----5-------------------------------------------------------|
G|---7-------7------7----6-------------------------------------------------------|
D|---7-------7------7----6-------------------------------------------------------|
A|---5-------5------5----4---------------------------------------------------E|--|

CHORUS

(4:13)
   Bm  Bm  Bm  Bm  Bm  Bm  Bm   A   G   G   G   G   C   C
e|---2---2---2---2---2---2---2---5---3---3---3---3---x---x-------------------|
B|---3---3---3---3---3---3---3---5---3---3---3---3---5---5-------------------|
G|---4---4---4---4---4---4---4---6---4---4---4---4---5---5-------------------|
D|---4---4---4---4---4---4---4---7---5---5---5---5---5---5-------------------|
A|---2---2---2---2---2---2---2---7---5---5---5---5---3---3-------------------|
E|-------------------------------5---3---3---3---3---------------------------|

   Bm  Bm  Bm  Bm  Bm  Bm  Bm   A   G   G   G   G   C   C
e|---2---2---2---2---2---2---2---5---3---3---3---3---x---x-------------------|
B|---3---3---3---3---3---3---3---5---3---3---3---3---5---5-------------------|
G|---4---4---4---4---4---4---4---6---4---4---4---4---5---5-------------------|
D|---4---4---4---4---4---4---4---7---5---5---5---5---5---5-------------------|
A|---2---2---2---2---2---2---2---7---5---5---5---5---3---3-------------------|
E|-------------------------------5---3---3---3---3---------------------------|

PRE-CHORUS

(5:37)
  Dsus9   Dsus9  Dsus9 C#m
e|---5-------5------5----4-------------------------------------------------------|
B|---5-------5------5----5-------------------------------------------------------|
G|---7-------7------7----6-------------------------------------------------------|
D|---7-------7------7----6-------------------------------------------------------|
A|---5-------5------5----4---------------------------------------------------E|--|

CHORUS

(5:44)
   Bm  Bm  Bm  Bm  Bm  Bm  Bm   A   G   G   G   G   C   C
e|---2---2---2---2---2---2---2---5---3---3---3---3---x---x-------------------|
B|---3---3---3---3---3---3---3---5---3---3---3---3---5---5-------------------|
G|---4---4---4---4---4---4---4---6---4---4---4---4---5---5-------------------|
D|---4---4---4---4---4---4---4---7---5---5---5---5---5---5-------------------|
A|---2---2---2---2---2---2---2---7---5---5---5---5---3---3-------------------|
E|-------------------------------5---3---3---3---3---------------------------|

   Bm  Bm  Bm  Bm  Bm  Bm  Bm   A   G   G   G   G   C   C
e|---2---2---2---2---2---2---2---5---3---3---3---3---x---x-------------------|
B|---3---3---3---3---3---3---3---5---3---3---3---3---5---5-------------------|
G|---4---4---4---4---4---4---4---6---4---4---4---4---5---5-------------------|
D|---4---4---4---4---4---4---4---7---5---5---5---5---5---5-------------------|
A|---2---2---2---2---2---2---2---7---5---5---5---5---3---3-------------------|
E|-------------------------------5---3---3---3---3---------------------------|

VERSE
(6:09)   Dsus9
e|-----------5-------------------5-------------------------------------------|
B|-------5-----5---5---------5-----5---5-------------------------------------|
G|-----7---7-----7---------7---7-----7---------------------------------------|
D|---------------------------------------------------------------------------|
A|---5-------------------5---------------------------------------------------|
E|---------------------------------------------------------------------------|

(6:16)   Bm
e|-----------7---------------------7-----------------------------------------|
B|-------7-----7---7-----------7-----7---7-----------------------------------|
G|-----7---------9---9-------7---------9-------------------------------------|
D|---9---------------------9-------------------------------------------------|
A|---------------------------------------------------------------------------|
E|---------------------------------------------------------------------------|

(6:23)   C#aug
e|-----------9-------------------9--9----------------------------------------|
B|------10-----10----10----------10-10---10----10----------------------------|
G|----------------10----------10------------10-------------------------------|
D|---11--------------------11------------------------------------------------|
A|---------------------------------------------------------------------------|
E|---------------------------------------------------------------------------|

(6:29)   Dsus2
e|-----------7-----7---------------7-------7---------------------------------|
B|-------8-----8-----8---------8-----8---8-----------------------------------|
G|-----9---------9-----------9---------9-------------------------------------|
D|---------------------------------------------------------------------------|
A|---5---------------------5-------------------------------------------------|
E|---------------------------------------------------------------------------|

VERSE
(6:43)   Dsus9
e|-----------5-------------------5-------------------------------------------|
B|-------5-----5---5---------5-----5---5-------------------------------------|
G|-----7---7-----7---------7---7-----7---------------------------------------|
D|---------------------------------------------------------------------------|
A|---5-------------------5---------------------------------------------------|
E|---------------------------------------------------------------------------|

(6:49)   Bm
e|-----------7---------------------7-----------------------------------------|
B|-------7-----7---7-----------7-----7---7-----------------------------------|
G|-----7---------9---9-------7---------9-------------------------------------|
D|---9---------------------9-------------------------------------------------|
A|---------------------------------------------------------------------------|
E|---------------------------------------------------------------------------|

(6:56)   C#aug
e|-----------9-------------------9--9----------------------------------------|
B|------10-----10----10----------10-10---10----10----------------------------|
G|----------------10----------10------------10-------------------------------|
D|---11--------------------11------------------------------------------------|
A|---------------------------------------------------------------------------|
E|---------------------------------------------------------------------------|

(7:02)   Dsus2
e|-----------7-----7---------------7-------7---------------------------------|
B|-------8-----8-----8---------8-----8---8-----------------------------------|
G|-----9---------9-----------9---------9-------------------------------------|
D|---------------------------------------------------------------------------|
A|---5---------------------5-------------------------------------------------|
E|---------------------------------------------------------------------------|

PRE-CHORUS

(7:09)
  Dsus9   Dsus9  Dsus9 C#m
e|---5-------5------5----4-------------------------------------------------------|
B|---5-------5------5----5-------------------------------------------------------|
G|---7-------7------7----6-------------------------------------------------------|
D|---7-------7------7----6-------------------------------------------------------|
A|---5-------5------5----4---------------------------------------------------E|--|

CHORUS

(7:15)
   Bm  Bm  Bm  Bm  Bm  Bm  Bm   A   G   G   G   G   C   C
e|---2---2---2---2---2---2---2---5---3---3---3---3---x---x-------------------|
B|---3---3---3---3---3---3---3---5---3---3---3---3---5---5-------------------|
G|---4---4---4---4---4---4---4---6---4---4---4---4---5---5-------------------|
D|---4---4---4---4---4---4---4---7---5---5---5---5---5---5-------------------|
A|---2---2---2---2---2---2---2---7---5---5---5---5---3---3-------------------|
E|-------------------------------5---3---3---3---3---------------------------|

   Bm  Bm  Bm  Bm  Bm  Bm  Bm   A   G   G   G   G   C   C
e|---2---2---2---2---2---2---2---5---3---3---3---3---x---x-------------------|
B|---3---3---3---3---3---3---3---5---3---3---3---3---5---5-------------------|
G|---4---4---4---4---4---4---4---6---4---4---4---4---5---5-------------------|
D|---4---4---4---4---4---4---4---7---5---5---5---5---5---5-------------------|
A|---2---2---2---2---2---2---2---7---5---5---5---5---3---3-------------------|
E|-------------------------------5---3---3---3---3---------------------------|
comments
print report bad tab
10 comments total. Showing first comments.
-1 reply
mister sir wrote on November 12 2006, 11:14 am

pretty good.

+1 reply
McLovin- wrote on September 21 2007, 02:40 pm

ummmmm no way man
e----------5---------------------------.... and so forth
b-----5------5---5---------------------
g---7---7------7-----------------------
d-0------------------------------------
a--------------------------------------
e--------------------------------------

+2 reply
McLovin- wrote on September 21 2007, 02:41 pm

e----------7--------------------------------
b------7-----7---7--------------------------
g----9---9-----9----------------------------
d--0----------------------------------------
a-------------------------------------------
e-------------------------------------------

I want to post or [tab]
guest
You may want to rate the tab now too:
select rating
Please do not post tabs as comments. Select "correction" instead!