Oops, an error
Loading. Please wait.

Cross The Line Tab

ver1
ver1

Whole song

Interactive

More versions @911Tabs.com
657 views 1 this week
no commentswrite comment
1 2 3 4 5
please rate
Autoscroll
+/-
esc
set tempo
stop
Contributor
Difficulty
advanced
Hey! There's an official Ultimate Guitar app which is ideal
for learning songs when you're away from computer. Get the app
WARNING: You are trying to view
                                    content from Ultimate-Guitar.com
                                    in an unauthorized application,
                                    which is prohibited.

                                    Please use an official Ultimate
                                    Guitar Tabs application for iPhone,
                                    iPad or Android to access legitimate
                                    chords, guitar, bass, and drum tabs
                                    from Ultimate-Guitar.com database.

                                    Type "ultimate guitar tabs" in Apple
                                    App Store's or Android Market's
                                    search to find the application.
-----------------------------------------------------------------------------
                   Cross The Line - Place Vendome (GUITAR)
                       
-----------------------------------------------------------------------------
Tabbed by: Scotto10

Tuning: Standard

=============================================================================

Guitar

                                

Guitar - rhythm



     <                   PM PM PM PM           PM PM PM PM  
     W                   S  S  S  S  Q.     E  S  S  S  S   
E||-------------------|------------------------------------|
B||-------------------|--------------3------2--------------|
G||-------------------|--------------2------2--------------|
D||-------------------|------------------------------------|
A||--2----------------|--2--2--2--2------------2--2--2--2--|
E||-------------------|------------------------------------|


     PM PM PM PM    PM PM    PM PM       PM PM PM PM           PM PM      
  E  S  S  S  S  E  S  S  E  S  S  E     S  S  S  S  Q.     E  S  S  S S  
--------------------------------------|----------------------------------|
--3--------------3--------2--------3--|--------------3------2--------3-2-|
--2--------------2--------2--------2--|--------------2------2--------2-2-|
--------------------------------------|----------------------------------|
-----0--0--2--2-----2--2-----2--2-----|--2--2--2--2------------2--2------|
--------------------------------------|----------------------------------|


            PH            PH             PM PM PM PM           PM PM PM PM  
  S S S S   S S S S S S   S S S S S S    S  S  S  S  Q.     E  S  S  S  S   
--------------------------------------|------------------------------------|
--------------------------------------|--------------3------2--------------|
--4-2-----<>4-2-4-2-----<>4-2-4-2-----|--------------2------2--------------|
------4-2-----------4-2-----------4-2-|------------------------------------|
--------------------------------------|--2--2--2--2------------2--2--2--2--|
--------------------------------------|------------------------------------|


     PM PM PM PM    PM PM    PM PM               PM PM               
  E  S  S  S  S  E  S  S  E  S  S  E     Q    E  S  S  Q    S E   S  
--------------------------------------|-----------------------------|
--3--------------3--------2--------3--|--L----2--------5------------|
--2--------------2--------2--------2--|--L----2--------2------------|
--------------------------------------|-----------------------------|
-----2--2--2--2-----2--2-----2--2-----|----------0--0-------0-5s--9-|
--------------------------------------|-----------------------------|


     PM PM PM PM    PM PM    PM PM       PM PM PM PM          PM PM PM PM  
  E  S  S  S  S  E  S  S  E  S  S  E     S  S  S  S  H        S  S  S  S   
--------------------------------------|-----------------------------------|
--------------------------------------|-----------------------------------|
--9--------------7--------7--------7--|--------------2--------------------|
--7--------------5--------4--------5--|--------------2--------------------|
-----0--0--0--0-----0--0-----0--0-----|-----------------------------------|
--------------------------------------|--2--2--2--2-----------2--2--2--2--|


     PM PM PM PM    PM PM    PM PM                            
  E  S  S  S  S  E  S  S  E  S  S  E     Q    E  H        E   
--------------------------------------|----------------------|
-----------------------------------3--|--L----0--0--------L--|
--4--------------2--------4--------2--|--L----0--0--------L--|
--4--------------2--------4-----------|-------0--0--------L--|
--------------------------------------|----------------------|
-----2--2--2--2-----2--2-----2--2-----|-------3--3--------L--|


     PM PM PM PM PM PM PM PM PM PM PM PM PM PM  
  E  S  S  S  S  S  S  S  S  S  S  S  S  S  S   
-----------------------------------------------|
-----------------------------------------------|
-----------------------------------------------|
-----------------------------------------------|
-----------------2--2--5--5--4--4--2--2--0--0--|
-----2--2--3--3--------------------------------|


  PM PM PM PM           PM PM PM PM       PM PM PM PM    PM PM    PM PM     
  S  S  S  S  Q.     E  S  S  S  S     E  S  S  S  S  E  S  S  E  S  S  E   
------------------------------------|--------------------------------------|
--------------3------2--------------|--3--------------3--------2--------3--|
--------------2------2--------------|--2--------------2--------2--------2--|
------------------------------------|--------------------------------------|
--2--2--2--2------------2--2--2--2--|-----2--2--2--2-----2--2-----2--2-----|
------------------------------------|--------------------------------------|


          PM PM    PM PM PM PM PM PM       PM PM PM PM    PM PM    PM PM     
  Q    E  S  S  E  S  S  S  S  S  S     E  S  S  S  S  E  S  S  E  S  S  E   
-------------------------------------|--------------------------------------|
--L----2--------5--------------------|--5--------------3--------3--------3--|
--L----2--------2--------------------|--2--------------0-----------------0--|
-------------------------------------|--------------------------4-----------|
----------0--0-----0--0--0--0--0--0--|-----0--0--0--0-----0--0-----0--0-----|
-------------------------------------|--------------------------------------|


  PM PM PM PM          PM PM PM PM       PM PM PM PM    PM PM    PM PM     
  S  S  S  S  H        S  S  S  S     E  S  S  S  S  E  S  S  E  S  S  E   
-----------------------------------|--------------------------------------|
-----------------------------------|-----------------------------------3--|
--------------2--------------------|--4--------------2--------4--------2--|
--------------2--------------------|--4--------------2--------4-----------|
-----------------------------------|--------------------------------------|
--2--2--2--2-----------2--2--2--2--|-----2--2--2--2-----2--2-----2--2-----|


                           PM PM PM PM PM PM PM PM PM PM PM PM PM PM  
  Q    Q    H           E  S  S  S  S  S  S  S  S  S  S  S  S  S  S   
---------------------|-----------------------------------------------|
--L----0----0--------|--L--------------------------------------------|
--L----0----0--------|--L--------------------------------------------|
-------0----0--------|--L--------------------------------------------|
---------------------|-----------------2--2--5--5--4--4--2--2--0--0--|
-------3----3--------|--L--2--2--3--3--------------------------------|


  W                   H.           Q       W                 
-------------------|--------------------|-------------------|
-------------------|--------------------|-------------------|
-------------------|--------------------|-------------------|
-------------------|--------------------|-------------------|
--2----------------|--L-----------------|-------------------|
-------------------|--------------------|-------------------|


  W                   W                   W                 
-------------------|-------------------|-------------------|
-------------------|-------------------|-------------------|
-------------------|-------------------|-------------------|
-------------------|-------------------|-------------------|
-------------------|-------------------|-------------------|
-------------------|-------------------|-------------------|


  H        Q     Q        E  E  E  E  E  E  E  E     W                 
-----------------------|--------------------------|-------------------|
-----------------------|--------------------------|-------------------|
-----------------------|--------------------------|-------------------|
-----------------------|-----2--2-----2--2-----4--|--L----------------|
-----------------------|-----0--0-----0--0-----2--|--L----------------|
----------------14\----|--------------------------|-------------------|


  W                   W                   W                   W                 
-------------------|-------------------|-------------------|-------------------|
-------------------|-------------------|-------------------|-------------------|
-------------------|-------------------|-------------------|-------------------|
--L----------------|-------------------|-------------------|-------------------|
--L----------------|-------------------|-------------------|-------------------|
-------------------|-------------------|-------------------|-------------------|


  W                   W                   E  S S E  E  E  E  E  E   
-------------------|-------------------|---------------------------|
-------------------|-------------------|---------------------------|
-------------------|-------------------|---------------------------|
-------------------|-------------------|---------------------------|
-------------------|-------------------|---------------5--4--2--0--|
-------------------|-------------------|-----2-2-5--2--------------|


  E  E   Q    E  Q    E     E  E   Q    Q    Q       E  E   Q    E  Q    E   
-------------------------|------------------------|-------------------------|
-------------------------|------------------------|-------------------------|
-----------------2-------|--------------2----2----|-----------------2-------|
--5--L\----------2----5--|--5--L\-------2----2----|--4--L\----------2----5--|
--5--L\----------0----5--|--5--L\-------0----0----|--4--L\----------0----5--|
--3--L\---------------3--|--3--L\-----------------|--2--L\---------------3--|


            PM PM PM                                                          
  E  E   E  S  S  E  E  E  E      E  E   Q    E  Q    E     W                 
-------------------------------|-------------------------|-------------------|
-------------------------------|-------------------------|-------------------|
------------------------2--L\--|-----------------4----2--|--L----------------|
--5--L\------------------------|--5--L\----------4----2--|--L----------------|
--5--L\--------------2---------|--5--L\----------2----0--|--L----------------|
--3--L\-----2--2--3------------|--3--L\------------------|-------------------|


  PM PM PM PM           PM PM PM PM       PM PM PM PM    PM PM    PM PM     
  S  S  S  S  Q.     E  S  S  S  S     E  S  S  S  S  E  S  S  E  S  S  E   
------------------------------------|--------------------------------------|
--------------3------2--------------|--3--------------3--------2--------3--|
--------------2------2--------------|--2--------------2--------2--------2--|
------------------------------------|--------------------------------------|
--2--2--2--2------------2--2--2--2--|-----2--2--2--2-----2--2-----2--2-----|
------------------------------------|--------------------------------------|


          PM PM    PM PM PM PM PM PM       PM PM PM PM    PM PM    PM PM     
  Q    E  S  S  E  S  S  S  S  S  S     E  S  S  S  S  E  S  S  E  S  S  E   
-------------------------------------|--------------------------------------|
--L----2--------5--------------------|--5--------------3--------3--------3--|
--L----2--------2--------------------|--2--------------0-----------------0--|
-------------------------------------|--------------------------4-----------|
----------0--0-----0--0--0--0--0--0--|-----0--0--0--0-----0--0-----0--0-----|
-------------------------------------|--------------------------------------|


  PM PM PM PM          PM PM PM PM       PM PM PM PM    PM PM    PM PM     
  S  S  S  S  H        S  S  S  S     E  S  S  S  S  E  S  S  E  S  S  E   
-----------------------------------|--------------------------------------|
-----------------------------------|-----------------------------------3--|
--------------2--------------------|--4--------------2--------4--------2--|
--------------2--------------------|--4--------------2--------4-----------|
-----------------------------------|--------------------------------------|
--2--2--2--2-----------2--2--2--2--|-----2--2--2--2-----2--2-----2--2-----|


                           PM PM PM PM PM PM PM PM PM PM PM PM PM PM  
  Q    Q    H           E  S  S  S  S  S  S  S  S  S  S  S  S  S  S   
---------------------|-----------------------------------------------|
--L----0----0--------|--L--------------------------------------------|
--L----0----0--------|--L--------------------------------------------|
-------0----0--------|--L--------------------------------------------|
---------------------|-----------------2--2--5--5--4--4--2--2--0--0--|
-------3----3--------|--L--2--2--3--3--------------------------------|


  PM PM PM PM           PM PM PM PM       PM PM PM PM    PM PM    PM PM     
  S  S  S  S  Q.     E  S  S  S  S     E  S  S  S  S  E  S  S  E  S  S  E   
------------------------------------|--------------------------------------|
--------------3------2--------------|--3--------------3--------2--------3--|
--------------2------2--------------|--2--------------2--------2--------2--|
------------------------------------|--------------------------------------|
--2--2--2--2------------2--2--2--2--|-----2--2--2--2-----2--2-----2--2-----|
------------------------------------|--------------------------------------|


          PM PM    PM PM PM PM PM PM       PM PM PM PM    PM PM    PM PM     
  Q    E  S  S  E  S  S  S  S  S  S     E  S  S  S  S  E  S  S  E  S  S  E   
-------------------------------------|--------------------------------------|
--L----2--------5--------------------|--5--------------3--------3--------3--|
--L----2--------2--------------------|--2--------------0-----------------0--|
-------------------------------------|--------------------------4-----------|
----------0--0-----0--0--0--0--0--0--|-----0--0--0--0-----0--0-----0--0-----|
-------------------------------------|--------------------------------------|


  PM PM PM PM          PM PM PM PM       PM PM PM PM    PM PM    PM PM     
  S  S  S  S  H        S  S  S  S     E  S  S  S  S  E  S  S  E  S  S  E   
-----------------------------------|--------------------------------------|
-----------------------------------|-----------------------------------3--|
--------------2--------------------|--4--------------2--------4--------2--|
--------------2--------------------|--4--------------2--------4-----------|
-----------------------------------|--------------------------------------|
--2--2--2--2-----------2--2--2--2--|-----2--2--2--2-----2--2-----2--2-----|


                           PM PM PM PM PM PM PM PM PM PM PM PM PM PM  
  Q    Q    H           E  S  S  S  S  S  S  S  S  S  S  S  S  S  S   
---------------------|-----------------------------------------------|
--L----0----0--------|--L--------------------------------------------|
--L----0----0--------|--L--------------------------------------------|
-------0----0--------|--L--------------------------------------------|
---------------------|-----------------2--2--5--5--4--4--2--2--0--0--|
-------3----3--------|--L--2--2--3--3--------------------------------|


  PM PM PM PM           PM PM PM PM          PM PM PM    PM PM    PM PM     
  S  S  S  S  Q.     E  S  S  S  S     E   S S  S  S  E  S  S  E  S  S  E   
------------------------------------|--------------------------------------|
--------------3------2--------------|--3s--5----------3--------2--------3--|
--------------2------2--------------|--2s--4----------2--------2--------2--|
------------------------------------|--------------------------------------|
--2--2--2--2------------2--2--2--2--|--------0--2--2-----2--2-----2--2-----|
------------------------------------|--------------------------------------|


  PM PM PM PM           PM PM                 PH            PH           
  S  S  S  S  Q.     E  S  S  E     S S S S   S S S S S S   S S S S S S  
---------------------------------|--------------------------------------|
--------------3------2--------3--|--------------------------------------|
--------------2------2--------2--|--4-2-----<>4-2-4-2-----<>4-2-4-2-----|
---------------------------------|------4-2-----------4-2-----------4-2-|
--2--2--2--2------------2--2-----|--------------------------------------|
---------------------------------|--------------------------------------|


  W                   W                   W                   W                 
-------------------|-------------------|-------------------|-------------------|
-------------------|-------------------|-------------------|-------------------|
-------------------|-------------------|-------------------|-------------------|
--4----------------|--L----------------|-------------------|--2----------------|
--2----------------|--L----------------|-------------------|--0----------------|
-------------------|-------------------|-------------------|-------------------|


  W                   W                   H.            Q      
-------------------|-------------------|----------------------|
-------------------|-------------------|----------------------|
--0----------------|-------------------|----------------------|
--0----------------|-------------------|----------------------|
-------------------|-------------------|--2-------------------|
--3----------------|--0----------------|---------------14\----|


  E  E  E  E  E  E  E  E     W                   W                 
--------------------------|-------------------|-------------------|
--------------------------|-------------------|-------------------|
--------------------------|-------------------|-------------------|
-----2--2-----2--2-----4--|--L----------------|--L----------------|
-----0--0-----0--0-----2--|--L----------------|--L----------------|
--------------------------|-------------------|-------------------|


  W                   W                   W                   W                 
-------------------|-------------------|-------------------|-------------------|
-------------------|-------------------|-------------------|-------------------|
-------------------|-------------------|--0----------------|-------------------|
-------------------|-------------------|--0----------------|-------------------|
-------------------|--0----------------|-------------------|-------------------|
-------------------|-------------------|--3----------------|--0----------------|


  W                   E  S S E  E  E  E  E  E     E  E   Q    E  Q    E   
-------------------|---------------------------|-------------------------|
-------------------|---------------------------|-------------------------|
-------------------|---------------------------|-----------------2-------|
-------------------|---------------------------|--5--L\----------2----5--|
--2----------------|---------------5--4--2--0--|--5--L\----------0----5--|
-------------------|-----2-2-5--2--------------|--3--L\---------------3--|


  E  E   Q    Q    Q       E  E   Q    E  Q    E   
------------------------|-------------------------|
------------------------|-------------------------|
--------------2----2----|-----------------2-------|
--5--L\-------2----2----|--4--L\----------2----5--|
--5--L\-------0----0----|--4--L\----------0----5--|
--3--L\-----------------|--2--L\---------------3--|


            PM PM PM                                                          
  E  E   E  S  S  E  E  E  E      E  E   Q    E  Q    E     W                 
-------------------------------|-------------------------|-------------------|
-------------------------------|-------------------------|-------------------|
------------------------2--L\--|-----------------4----2--|--L----------------|
--5--L\------------------------|--5--L\----------4----2--|--L----------------|
--5--L\--------------2---------|--5--L\----------2----0--|--L----------------|
--3--L\-----2--2--3------------|--3--L\------------------|-------------------|


  PM PM PM PM           PM PM PM PM       PM PM PM PM    PM PM    PM PM     
  S  S  S  S  Q.     E  S  S  S  S     E  S  S  S  S  E  S  S  E  S  S  E   
------------------------------------|--------------------------------------|
--------------3------2--------------|--3--------------3--------2--------3--|
--------------2------2--------------|--2--------------2--------2--------2--|
------------------------------------|--------------------------------------|
--2--2--2--2------------2--2--2--2--|-----2--2--2--2-----2--2-----2--2-----|
------------------------------------|--------------------------------------|


          PM PM    PM PM PM PM PM PM       PM PM PM PM    PM PM    PM PM     
  Q    E  S  S  E  S  S  S  S  S  S     E  S  S  S  S  E  S  S  E  S  S  E   
-------------------------------------|--------------------------------------|
--L----2--------5--------------------|--5--------------3--------3--------3--|
--L----2--------2--------------------|--2--------------0-----------------0--|
-------------------------------------|--------------------------4-----------|
----------0--0-----0--0--0--0--0--0--|-----0--0--0--0-----0--0-----0--0-----|
-------------------------------------|--------------------------------------|


  PM PM PM PM          PM PM PM PM       PM PM PM PM    PM PM    PM PM     
  S  S  S  S  H        S  S  S  S     E  S  S  S  S  E  S  S  E  S  S  E   
-----------------------------------|--------------------------------------|
-----------------------------------|-----------------------------------3--|
--------------2--------------------|--4--------------2--------4--------2--|
--------------2--------------------|--4--------------2--------4-----------|
-----------------------------------|--------------------------------------|
--2--2--2--2-----------2--2--2--2--|-----2--2--2--2-----2--2-----2--2-----|


                           PM PM PM PM PM PM PM PM PM PM PM PM PM PM  
  Q    Q    H           E  S  S  S  S  S  S  S  S  S  S  S  S  S  S   
---------------------|-----------------------------------------------|
--L----0----0--------|--L--------------------------------------------|
--L----0----0--------|--L--------------------------------------------|
-------0----0--------|--L--------------------------------------------|
---------------------|-----------------2--2--5--5--4--4--2--2--0--0--|
-------3----3--------|--L--2--2--3--3--------------------------------|


  PM PM PM PM           PM PM PM PM       PM PM PM PM    PM PM    PM PM     
  S  S  S  S  Q.     E  S  S  S  S     E  S  S  S  S  E  S  S  E  S  S  E   
------------------------------------|--------------------------------------|
--------------3------2--------------|--3--------------3--------2--------3--|
--------------2------2--------------|--2--------------2--------2--------2--|
------------------------------------|--------------------------------------|
--2--2--2--2------------2--2--2--2--|-----2--2--2--2-----2--2-----2--2-----|
------------------------------------|--------------------------------------|


          PM PM    PM PM PM PM PM PM       PM PM PM PM    PM PM    PM PM     
  Q    E  S  S  E  S  S  S  S  S  S     E  S  S  S  S  E  S  S  E  S  S  E   
-------------------------------------|--------------------------------------|
--L----2--------5--------------------|--------------------------------------|
--L----2--------2--------------------|--9--------------7--------7--------7--|
-------------------------------------|--7--------------5--------4--------5--|
----------0--0-----0--0--0--0--0--0--|-----0--0--0--0-----0--0-----0--0-----|
-------------------------------------|--------------------------------------|


  PM PM PM PM          PM PM PM PM       PM PM PM PM    PM PM    PM PM     
  S  S  S  S  H        S  S  S  S     E  S  S  S  S  E  S  S  E  S  S  E   
-----------------------------------|--------------------------------------|
-----------------------------------|-----------------------------------3--|
--------------2--------------------|--4--------------2--------4--------2--|
--------------2--------------------|--4--------------2--------4-----------|
-----------------------------------|--------------------------------------|
--2--2--2--2-----------2--2--2--2--|-----2--2--2--2-----2--2-----2--2-----|


                           PM PM PM PM PM PM PM PM PM PM PM PM PM PM  
  Q    Q    H           E  S  S  S  S  S  S  S  S  S  S  S  S  S  S   
---------------------|-----------------------------------------------|
--L----0----0--------|--L--------------------------------------------|
--L----0----0--------|--L--------------------------------------------|
-------0----0--------|--L--------------------------------------------|
---------------------|-----------------2--2--5--5--4--4--2--2--0--0--|
-------3----3--------|--L--2--2--3--3--------------------------------|


                           PM PM    PM PM    PM PM    PM PM  
  H        Q    Q       E  S  S  E  S  S  E  S  S  E  S  S   
---------------------|--------------------------------------|
---------------------|--------------------------------------|
---------------------|--9--------7--------9--------7--------|
--2--------2----2----|--9--------7--------9--------7--------|
--2--------2----2----|--7--------7--------7--------7--------|
--0--------0----0----|--0--0--0-----0--0-----0--0-----0--0--|


  W                   W                   W                   W                 
-------------------|-------------------|-------------------|-------------------|
-------------------|-------------------|-------------------|-------------------|
-------------------|-------------------|-------------------|-------------------|
--4----------------|--4----------------|--4----------------|--2----------------|
--4----------------|--4----------------|--2----------------|--0----------------|
--2----------------|--2----------------|-------------------|-------------------|


                         PM PM                                        
  W                   E  S  S  E  Q    Q     E      W                 
-------------------|-----------------------------|-------------------|
-------------------|-----------------------------|-------------------|
--0----------------|-----------------------------|-------------------|
--0----------------|--7-----------7--------------|--4----------------|
-------------------|--5--5--5--4--4----5~----4~--|--2----------------|
--3----------------|-----------------------------|-------------------|


  W                   W                   W                   W                 
-------------------|-------------------|-------------------|-------------------|
-------------------|-------------------|-------------------|-------------------|
-------------------|-------------------|-------------------|-------------------|
--2----------------|-------------------|-------------------|--4----------------|
--0----------------|--2----------------|--2----------------|--2----------------|
-------------------|--0----------------|--0----------------|-------------------|


                                             PM PM                    
  W                   W                   E  S  S  E  Q    Q     E    
-------------------|-------------------|-----------------------------|
-------------------|-------------------|-----------------------------|
-------------------|--0----------------|-----------------------------|
--2----------------|--0----------------|--7-----------7--------------|
--0----------------|-------------------|--5--5--5--4--4----5~----4~--|
-------------------|--3----------------|-----------------------------|


  W                   W                   W                   W                 
-------------------|-------------------|-------------------|-------------------|
-------------------|-------------------|-------------------|-------------------|
-------------------|-------------------|-------------------|-------------------|
--4----------------|--2----------------|-------------------|-------------------|
--2----------------|--0----------------|--2----------------|--2----------------|
-------------------|-------------------|--0----------------|--0----------------|


  W                   W                   W                   W                 
-------------------|-------------------|-------------------|-------------------|
-------------------|-------------------|-------------------|-------------------|
-------------------|-------------------|--0----------------|-------------------|
-------------------|-------------------|--0----------------|--7----------------|
--4----------------|--4----------------|-------------------|--5----------------|
--2----------------|--2----------------|--3----------------|-------------------|


  W                   W                   W                   W                 
-------------------|-------------------|-------------------|-------------------|
-------------------|-------------------|-------------------|-------------------|
-------------------|-------------------|--0----------------|-------------------|
--2----------------|--L----------------|--0----------------|--7----------------|
--0----------------|--L----------------|-------------------|--5----------------|
-------------------|-------------------|--3----------------|-------------------|


  W                   W                   W                   W                 
-------------------|-------------------|-------------------|-------------------|
-------------------|-------------------|-------------------|-------------------|
-------------------|-------------------|-------------------|--0----------------|
--2----------------|--L----------------|-------------------|--0----------------|
--0----------------|--L----------------|--4----------------|-------------------|
-------------------|-------------------|--2----------------|--3----------------|


  W                   W                   W                   W                 
-------------------|-------------------|-------------------|-------------------|
-------------------|-------------------|-------------------|-------------------|
-------------------|-------------------|--0----------------|-------------------|
--4----------------|--2----------------|--0----------------|--7----------------|
--2----------------|--0----------------|-------------------|--5----------------|
-------------------|-------------------|--3----------------|-------------------|


                               <           PM PM PM PM           PM PM PM PM  
  W                   H        H           S  S  S  S  Q.     E  S  S  S  S   
-------------------|--------------------|------------------------------------|
-------------------|--------------------|--------------3------2--------------|
-------------------|--------------------|--------------2------2--------------|
--2----------------|--------------------|------------------------------------|
--0----------------|-----------0--------|--2--2--2--2------------2--2--2--2--|
-------------------|--------------------|------------------------------------|


     PM PM PM PM    PM PM    PM PM               PM PM    PM PM PM PM PM PM  
  E  S  S  S  S  E  S  S  E  S  S  E     Q    E  S  S  E  S  S  S  S  S  S   
--------------------------------------|-------------------------------------|
--3--------------3--------2--------3--|--L----2--------5--------------------|
--2--------------2--------2--------2--|--L----2--------2--------------------|
--------------------------------------|-------------------------------------|
-----2--2--2--2-----2--2-----2--2-----|----------0--0-----0--0--0--0--0--0--|
--------------------------------------|-------------------------------------|


     PM PM PM PM    PM PM    PM PM       PM PM PM PM          PM PM PM PM  
  E  S  S  S  S  E  S  S  E  S  S  E     S  S  S  S  H        S  S  S  S   
--------------------------------------|-----------------------------------|
--5--------------3--------3--------3--|-----------------------------------|
--2--------------0-----------------0--|--------------2--------------------|
--------------------------4-----------|--------------2--------------------|
-----0--0--0--0-----0--0-----0--0-----|-----------------------------------|
--------------------------------------|--2--2--2--2-----------2--2--2--2--|


     PM PM PM PM    PM PM    PM PM                           
  E  S  S  S  S  E  S  S  E  S  S  E     Q    Q    H         
--------------------------------------|---------------------|
-----------------------------------3--|--L----0----0--------|
--4--------------2--------4--------2--|--L----0----0--------|
--4--------------2--------4-----------|-------0----0--------|
--------------------------------------|---------------------|
-----2--2--2--2-----2--2-----2--2-----|-------3----3--------|


     PM PM PM PM PM PM PM PM PM PM PM PM PM PM  
  E  S  S  S  S  S  S  S  S  S  S  S  S  S  S   
-----------------------------------------------|
--L--------------------------------------------|
--L--------------------------------------------|
--L--------------------------------------------|
-----------------2--2--5--5--4--4--2--2--0--0--|
--L--2--2--3--3--------------------------------|


  PM PM PM PM           PM PM PM PM       PM PM PM PM    PM PM    PM PM     
  S  S  S  S  Q.     E  S  S  S  S     E  S  S  S  S  E  S  S  E  S  S  E   
------------------------------------|--------------------------------------|
--------------3------2--------------|--3--------------3--------2--------3--|
--------------2------2--------------|--2--------------2--------2--------2--|
------------------------------------|--------------------------------------|
--2--2--2--2------------2--2--2--2--|-----2--2--2--2-----2--2-----2--2-----|
------------------------------------|--------------------------------------|


          PM PM    PM PM PM PM PM PM       PM PM PM PM    PM PM    PM PM     
  Q    E  S  S  E  S  S  S  S  S  S     E  S  S  S  S  E  S  S  E  S  S  E   
-------------------------------------|--------------------------------------|
--L----2--------5--------------------|--------------------------------------|
--L----2--------2--------------------|--9--------------7--------7--------7--|
-------------------------------------|--7--------------5--------4--------5--|
----------0--0-----0--0--0--0--0--0--|-----0--0--0--0-----0--0-----0--0-----|
-------------------------------------|--------------------------------------|


  PM PM PM PM          PM PM PM PM       PM PM PM PM    PM PM    PM PM     
  S  S  S  S  H        S  S  S  S     E  S  S  S  S  E  S  S  E  S  S  E   
-----------------------------------|--------------------------------------|
-----------------------------------|-----------------------------------3--|
--------------2--------------------|--4--------------2--------4--------2--|
--------------2--------------------|--4--------------2--------4-----------|
-----------------------------------|--------------------------------------|
--2--2--2--2-----------2--2--2--2--|-----2--2--2--2-----2--2-----2--2-----|


                           PM PM PM PM PM PM PM PM PM PM PM PM PM PM  
  Q    Q    H           E  S  S  S  S  S  S  S  S  S  S  S  S  S  S   
---------------------|-----------------------------------------------|
--L----0----0--------|--L--------------------------------------------|
--L----0----0--------|--L--------------------------------------------|
-------0----0--------|--L--------------------------------------------|
---------------------|-----------------2--2--5--5--4--4--2--2--0--0--|
-------3----3--------|--L--2--2--3--3--------------------------------|


  PM PM PM PM           PM PM PM PM       PM PM PM PM    PM PM    PM PM     
  S  S  S  S  Q.     E  S  S  S  S     E  S  S  S  S  E  S  S  E  S  S  E   
------------------------------------|--------------------------------------|
--------------3------2--------------|--3--------------3--------2--------3--|
--------------2------2--------------|--2--------------2--------2--------2--|
------------------------------------|--------------------------------------|
--2--2--2--2------------2--2--2--2--|-----2--2--2--2-----2--2-----2--2-----|
------------------------------------|--------------------------------------|


          PM PM    PM PM PM PM PM PM       PM PM PM PM    PM PM    PM PM     
  Q    E  S  S  E  S  S  S  S  S  S     E  S  S  S  S  E  S  S  E  S  S  E   
-------------------------------------|--------------------------------------|
--L----2--------5--------------------|--5--------------3--------3--------3--|
--L----2--------2--------------------|--2--------------0-----------------0--|
-------------------------------------|--------------------------4-----------|
----------0--0-----0--0--0--0--0--0--|-----0--0--0--0-----0--0-----0--0-----|
-------------------------------------|--------------------------------------|


  PM PM PM PM          PM PM PM PM       PM PM PM PM    PM PM    PM PM     
  S  S  S  S  H        S  S  S  S     E  S  S  S  S  E  S  S  E  S  S  E   
-----------------------------------|--------------------------------------|
-----------------------------------|-----------------------------------3--|
--------------2--------------------|--4--------------2--------4--------2--|
--------------2--------------------|--4--------------2--------4-----------|
-----------------------------------|--------------------------------------|
--2--2--2--2-----------2--2--2--2--|-----2--2--2--2-----2--2-----2--2-----|


                           PM PM PM PM PM PM PM PM PM PM PM PM PM PM  
  Q    Q    H           E  S  S  S  S  S  S  S  S  S  S  S  S  S  S   
---------------------|-----------------------------------------------|
--L----0----0--------|--L--------------------------------------------|
--L----0----0--------|--L--------------------------------------------|
-------0----0--------|--L--------------------------------------------|
---------------------|-----------------2--2--5--5--4--4--2--2--0--0--|
-------3----3--------|--L--2--2--3--3--------------------------------|


  PM PM PM PM           PM PM PM PM       PM PM PM PM    PM PM    PM PM     
  S  S  S  S  Q.     E  S  S  S  S     E  S  S  S  S  E  S  S  E  S  S  E   
------------------------------------|--------------------------------------|
--------------3------2--------------|--3--------------3--------2--------3--|
--------------2------2--------------|--2--------------2--------2--------2--|
------------------------------------|--------------------------------------|
--2--2--2--2------------2--2--2--2--|-----2--2--2--2-----2--2-----2--2-----|
------------------------------------|--------------------------------------|


          PM PM    PM PM PM PM PM PM       PM PM PM PM    PM PM    PM PM PM  
  Q    E  S  S  E  S  S  S  S  S  S     E  S  S  S  S  E  S  S  E  S  S  E   
-------------------------------------|--------------------------------------|
--L----2--------5--------------------|--------------------------------------|
--L----2--------2--------------------|--9--------------7--------7--------7--|
-------------------------------------|--7--------------5--------4--------5--|
----------0--0-----0--0--0--0--0--0--|-----0--0--0--0-----0--0-----0--0-----|
-------------------------------------|--------------------------------------|


  PM PM PM PM          PM PM PM PM       PM PM PM PM    PM PM    PM PM     
  S  S  S  S  H        S  S  S  S     E  S  S  S  S  E  S  S  E  S  S  E   
-----------------------------------|--------------------------------------|
-----------------------------------|-----------------------------------3--|
--------------2--------------------|--4--------------2--------4--------2--|
--------------2--------------------|--4--------------2--------4-----------|
-----------------------------------|--------------------------------------|
--2--2--2--2-----------2--2--2--2--|-----2--2--2--2-----2--2-----2--2-----|


                           PM PM PM PM PM PM PM PM PM PM PM PM PM PM  
  Q    Q    H           E  S  S  S  S  S  S  S  S  S  S  S  S  S  S   
---------------------|-----------------------------------------------|
--L----0----0--------|--L--------------------------------------------|
--L----0----0--------|--L--------------------------------------------|
-------0----0--------|--L--------------------------------------------|
---------------------|-----------------2--2--5--5--4--4--2--2--0--0--|
-------3----3--------|--L--2--2--3--3--------------------------------|


      PM PM PM PM PM PM PM PM PM PM PM PM PM PM                         
  S S S  S  S  S  S  S  S  S  S  S  S  S  S  S     Q    Q    Q    Q     
------------------------------------------------|----------------------|
------------------------------------------------|--3----3---------3----|
------------------------------------------------|--2----2---------2----|
------------------------4--4--2--2--------------|----------------------|
------2--2--4--4--5--5--------------5--5--4--4--|--2----2---------2----|
------------------------------------------------|----------------------|


  Q    Q    Q    Q       W                   W                  
----------------------|-------------------|-------------------||
--3---------3----3----|--L----------------|--L----------------||
--2---------2----2----|--L----------------|--L----------------||
----------------------|-------------------|-------------------||
--2---------2----2----|--L----------------|--L----------------||
----------------------|-------------------|-------------------||





-----------------------------------------------------------------
-----------------------------------------------------------------
-----------------------------------------------------------------

Guitar clean part at verse two

                                                  ^                 
  E  E  E  E  Q.     E     E  S S H.              W                 
------------------------|----------------------|-------------------|
--------3-----2---------|---------0------------|-------------------|
--------4--4------------|-------2--------------|--0----------------|
-----4------------------|-----2----------------|--0----------------|
--2---------------------|--0-------------------|-------------------|
------------------------|----------------------|--3----------------|


  Q    E  E  H           E  E  E  E  H                                 
----------------------|-----------------------|-------|-------|-------|
-------------3--------|-----------3--2--------|-------|-------|-------|
----------0-----------|--------4--------------|-------|-------|-------|
-------0--------------|-----4-----------------|-------|-------|-------|
----------------------|--2--------------------|-------|-------|-------|
--0-------------------|-----------------------|-------|-------|-------|


-----------------------------------------------------------------
-----------------------------------------------------------------
-----------------------------------------------------------------

Guitar solo


   W                     Q.       E     E     E     Q       
---------------------|-------------------------------------|
---------------------|-------------------------------------|
--15b----------------|--15b------15pb--15pb--15pb--15pb----|
---------------------|-------------------------------------|
---------------------|-------------------------------------|
---------------------|-------------------------------------|


   H.            E   E      H.            Q        E   H          E   E  E   
------------------------|----------------------|--10-----------------10--9--|
------------------------|----------------------|----------------------------|
--15------------11--12--|--11~-----------------|------11~---------L---------|
------------------------|----------------------|----------------------------|
------------------------|----------------------|----------------------------|
------------------------|----------------------|----------------------------|


   E   H          Q.         E   S  E    S  H          E   
--10---------------------|--------------------------------|
-------------------------|--------------------------------|
------11~---------L------|--12---L-14p--12-14b--------12--|
-------------------------|--------------------------------|
-------------------------|--------------------------------|
-------------------------|--------------------------------|


   E   H         Q    E      H          Q.       S  S  
-------------------------|----------------------------|
-------------------------|-------------14b------12-14-|
--14---------------------|----------------------------|
------12~--------L-------|----------------------------|
-------------------------|--14~-----------------------|
-------------------------|----------------------------|


   H            Q     E.   S     H.               E   E   
---------------------12---14-|--14brb--------------------|
--14brb--------15------------|-------------------12--14--|
-----------------------------|---------------------------|
-----------------------------|---------------------------|
-----------------------------|---------------------------|
-----------------------------|---------------------------|


   |---3---|   |---3---|   |--3--|   |---3--|  |---3---|  |---3--|   |---3--|  |
   S   S   S   S   S   S   S  S  S   S   S  S  S   S   S  S  S   S   S  S   S  S
--------------------------------------------------------------------------------
--15h-17h-19h-20p-19p-17p-15----14h-15p-14--------------------------------------
-----------------------------16------------16------------14---------------------
----------------------------------------------17p-16h-17----17p-16p-14--------14
-----------------------------------------------------------------------16h-17---
--------------------------------------------------------------------------------


   Q.         E    Q.       S  S     Q.         Q     S  S  Q     
---------------------------------|-------------------------------|
------------------14b------12-14-|--14brb------12----14-12-------|
---------------------------------|-------------------------14----|
---------------------------------|-------------------------------|
--14brb--------------------------|-------------------------------|
-------------17\-----------------|-------------------------------|


   E   E   E   E   E   E   E   E      E   E   E   E   E   Q      E    
----------------------------------|----------------------------------|
--15------15------15------15------|--15------15------15--------------|
------14------12------11----------|----------------------------------|
------------------------------14--|------12------11------12~-----L\--|
----------------------------------|----------------------------------|
----------------------------------|----------------------------------|


  Q.      Q.      E  E     S  S S S E    E  Q     E  E   
------------------7-----|-------------------------------|
---------------------7--|----10-7-----------------------|
----------9b------------|--9------7-9br--7--9b----7-----|
--9~--------------------|----------------------------9--|
------------------------|-------------------------------|
------------------------|-------------------------------|


  E.    S E  E  E  E  E  E     E  E  Q      Q.      E   
----------------------------|--------------------------|
----------------------------|--------------------------|
----------------------------|--------------------------|
--2br---0-------------7-----|--7--9--9br----9b---------|
----------2--5--7--9-----9--|--------------------------|
----------------------------|--------------------------|


   |---3---|   |---3---|   |---3---|   |---3---|                         
   E   E   E   E   E   E   E   E   E   E   E   E      W                  
------------------------------12------14--12--14--|--16b----------------|
----------------------12--14------15--------------|---------------------|
----------11--12--14------------------------------|---------------------|
--12--14------------------------------------------|---------------------|
--------------------------------------------------|---------------------|
--------------------------------------------------|---------------------|


   W                    W                   H        Q.     E   
--16b----------------|-------------------|---------------------|
---------------------|-------------------|------------------3--|
---------------------|-------------------|---------------------|
---------------------|-------------------|---------------------|
---------------------|-------------------|---------------------|
---------------------|-------------------|---------------------|


  E  E  E  Q    E  E  E     W                   W                 
-------------------------|-------------------|-------------------|
--L--2-----3----2--------|-------------------|-------------------|
--------2----------2-----|-------------------|-------------------|
-------------------------|-------------------|-------------------|
-------------------------|-------------------|-------------------|
-------------------------|-------------------|-------------------|


  H        Q.     E     E  E  E  E  E  E  E  E     W                 
---------------------|--------------------------|-------------------|
------------------3--|--L--2-----5--3--2--------|-------------------|
---------------------|--------2-----------2-----|-------------------|
---------------------|--------------------------|-------------------|
---------------------|--------------------------|-------------------|
---------------------|--------------------------|-------------------|



Duration Legend
---------------
W - whole
H - half
Q - quarter
E - 8th
S - 16th
T - 32nd
X - 64th
. - note dotted
|-n-|  - n-tuplets


Tablature Legend
----------------
L - tied note
x - dead note
g - grace note
(n) - ghost note
> - accentuded note
NH - natural harmonic
AH - artificial harmonic
TH - tapped harmonic
SH - semi harmonic
PH - pitch harmonic
h - hammer on
p - pull off
b - bend
br - bendRelease
pb - preBend
pbr - preBendRelease
brb - bendReleaseBend
\n/ - tremolo bar dip
\n - tremolo bar dive
-/n - tremolo bar Release up
/n\ - tremolo bar inverted dip
/n - tremolo bar return
-\n - tremolo bar Release down
S - shift slide
s - legato slide
/ -  slide into from below or out of upwards
\ -  slide into from above or out of downwards
~ - vibrato
W - wide vibrato
tr - trill
TP - tremolo picking
T - tapping
S - slap
P - pop
< - fade in
^ - brush up
v - brush down
comments
We did not receive enough feedback on this tab! Please rate:
print report bad tab
1 2 3 4 5
I want to post or [tab]
guest
You may want to rate the tab now too:
select rating
Please do not post tabs as comments. Select "correction" instead!