Oops, an error
Loading. Please wait.

B3 Tab

ver2
ver2

Whole song

Interactive

More versions @911Tabs.com
2,339 views 18 this week
no commentswrite comment
1 2 3 4 5
accurate
x 1
Autoscroll
+/-
esc
set tempo
stop
Contributor
Difficulty
intermediate
NEW! There's an official Ultimate Guitar app which is ideal
for learning songs when you're away from computer. Get the app
WARNING: You are trying to view
                                    content from Ultimate-Guitar.com
                                    in an unauthorized application,
                                    which is prohibited.

                                    Please use an official Ultimate
                                    Guitar Tabs application for iPhone,
                                    iPad or Android to access legitimate
                                    chords, guitar, bass, and drum tabs
                                    from Ultimate-Guitar.com database.

                                    Type "ultimate guitar tabs" in Apple
                                    App Store's or Android Market's
                                    search to find the application.
-------------------------------------------------------------------------------
                             B3 - Placebo
-------------------------------------------------------------------------------

Tuning:         Brian   ( D G C F A d )
                Stefan  ( E A D G B e )

Intro - Brian

d|-----------------------------|----------------------------|      |--------------|
A|-----------------------------|----------------------------|      |--------------|
F|-----------------------------|----------------------------|  x4  |--------------|
C|--6--X-X-6--X--6-6-6-6--X-X--|--6--X-X-6--X--6-6-4-4-4-4--|      |-6------------|
G|--6--X-X-6--X--6-6-6-6--X-X--|--6--X-X-6--X--6-6-4-4-4-4--|      |-6--let ring--|
D|--4--X-X-4--X--4-4-4-4--X-X--|--4--X-X-4--X--4-4-2-2-2-2--|      |-4------------|

Stefan

e|------------------------------|----------------------------------------------------|      |
B|------------------------------|----------------------------------------------------|      |
G|--15-15--15-15--15-15--15-15--|-/18-18-18-18\-15--15-15--15-15--14-14-14\13-13-13--|  x4  |
D|------------------------------|----------------------------------------------------|      |
A|--13-13--13-13--13-13--13-13--|-/16-16-16-16\-13--13-13--13-13--12-12-12\11-11-11--|      |
E|------------------------------|----------------------------------------------------|      |

|--------------|
|--------------|
|-11-----------|
|----let ring--|
|-9------------|
|--------------|



Verse - Brian

No guitars, but you can do the synth part

d|--------------------|--------------------|
A|--------------------|--------------------|
F|----5-5--5--5-5--5--|--------------------|  x4
C|--------------------|----6-6--6--6-6-----|
G|--------------------|--------------------|
D|--444444444444444444|444444444444444444--|


Bridge - Brian

d|-----------------------------|----------------------------|      |--------------|
A|-----------------------------|----------------------------|      |--------------|
F|-----------------------------|----------------------------|  x2  |--------------|
C|--6--X-X-6--X--6-6-6-6--X-X--|--6--X-X-6--X--6-6-4-4-4-4--|      |-6------------|
G|--6--X-X-6--X--6-6-6-6--X-X--|--6--X-X-6--X--6-6-4-4-4-4--|      |-6--let ring--|
D|--4--X-X-4--X--4-4-4-4--X-X--|--4--X-X-4--X--4-4-2-2-2-2--|      |-4------------|

Stefan

e|------------------------------|----------------------------------------------------|      |
B|------------------------------|----------------------------------------------------|      |
G|--15-15--15-15--15-15--15-15--|-/18-18-18-18\-15--15-15--15-15--14-14-14\13-13-13--|  x2  |
D|------------------------------|----------------------------------------------------|      |
A|--13-13--13-13--13-13--13-13--|-/16-16-16-16\-13--13-13--13-13--12-12-12\11-11-11--|      |
E|------------------------------|----------------------------------------------------|      |

|--------------|
|--------------|
|-11-----------|
|----let ring--|
|-9------------|
|--------------|



Verse


Chorus - Brian

d|---------------------------------|---------------------------------|
A|---------------------------------|---------------------------------|
F|---------------------------------|---------------------------------|
C|--11-X-X-11-X--11-11-11-11--X-X--|--11-X-X-11-X--11-11-11-11--X-X--|
G|--11-X-X-11-X--11-11-11-11--X-X--|--11-X-X-11-X--11-11-11-11--X-X--|
D|--9--X-X-9--X--9--9--9--9---X-X--|--9--X-X-9--X--9--9--9--9---X-X--|

d|---------------------------------|---------------------------------|
A|---------------------------------|---------------------------------|
F|---------------------------------|---------------------------------|
C|--2--X-X-2--X--2--2--2--2---X-X--|--2--X-X-2--X--2--2--2--2---X-X--|
G|--2--X-X-2--X--2--2--2--2---X-X--|--2--X-X-2--X--2--2--2--2---X-X--|
D|--0--X-X-0--X--0--0--0--0---X-X--|--0--X-X-0--X--0--0--0--0---X-X--|

d|---------------------------------|---------------------------------|
A|---------------------------------|---------------------------------|
F|---------------------------------|---------------------------------|
C|--11-X-X-11-X--11-11-11-11--X-X--|--11-X-X-11-X--11-11-11-11--X-X--|
G|--11-X-X-11-X--11-11-11-11--X-X--|--11-X-X-11-X--11-11-11-11--X-X--|
D|--9--X-X-9--X--9--9--9--9---X-X--|--9--X-X-9--X--9--9--9--9---X-X--|

d|---------------------------------|---------------------------------|
A|---------------------------------|---------------------------------|
F|---------------------------------|---------------------------------|
C|--7--X-X-7--X--7--7--7--7---X-X--|--7--X-X-7--X--7--7--7--7---X-X--|
G|--7--X-X-7--X--7--7--7--7---X-X--|--7--X-X-7--X--7--7--7--7---X-X--|
D|--5--X-X-5--X--5--5--5--5---X-X--|--5--X-X-5--X--5--5--5--5---X-X--|

Stefan

e|---------------------------------|------------------------------------|
B|---------------------------------|------------------------------------|
G|--4--X-X-4--X--4--4--4--4---X-X--|--/8-8-8-8-8-8-8-8/9-9-9-9-9-9-9-9--|
D|---------------------------------|------------------------------------|
A|--2--X-X-2--X--2--2--2--2---X-X--|--/6-6-6-6-6-6-6-6/7-7-7-7-7-7-7-7--|
E|---------------------------------|------------------------------------|

e|---------------------------------|---------------------------------|
B|---------------------------------|---------------------------------|
G|--11-X-X-11-X--11-11-11-11--X-X--|--11-X-X-11-X--11-11-11-11--X-X--|
D|---------------------------------|---------------------------------|
A|--9--X-X-9--X--9--9--9--9---X-X--|--9--X-X-9--X--9--9--9--9---X-X--|
E|---------------------------------|---------------------------------|

e|---------------------------------|---------------------------------|
B|---------------------------------|---------------------------------|
G|--8--X-X-8--X--8--8--8--8---X-X--|--8--X-X-8--X--8--8--8--8---X-X--|
D|---------------------------------|---------------------------------|
A|--6--X-X-6--X--6--6--6--6---X-X--|--6--X-X-6--X--6--6--6--6---X-X--|
E|---------------------------------|---------------------------------|

e|---------------------------------|---------------------------------|
B|---------------------------------|---------------------------------|
G|--16-X-X-16-X--16-16-16-16--X-X--|--16-X-X-16-X--16-16-16-16--X-X--|
D|---------------------------------|---------------------------------|
A|--14-X-X-14-X--14-14-14-14--X-X--|--14-X-X-14-X--14-14-14-14--X-X--|
E|---------------------------------|---------------------------------|


Bridge - Brian

d|-----------------------------|----------------------------|      |--------------|
A|-----------------------------|----------------------------|      |--------------|
F|-----------------------------|----------------------------|  x2  |--------------|
C|--6--X-X-6--X--6-6-6-6--X-X--|--6--X-X-6--X--6-6-4-4-4-4--|      |-6------------|
G|--6--X-X-6--X--6-6-6-6--X-X--|--6--X-X-6--X--6-6-4-4-4-4--|      |-6--let ring--|
D|--4--X-X-4--X--4-4-4-4--X-X--|--4--X-X-4--X--4-4-2-2-2-2--|      |-4------------|

Stefan

e|------------------------------|----------------------------------------------------|      |
B|------------------------------|----------------------------------------------------|      |
G|--15-15--15-15--15-15--15-15--|-/18-18-18-18\-15--15-15--15-15--14-14-14\13-13-13--|  x2  |
D|------------------------------|----------------------------------------------------|      |
A|--13-13--13-13--13-13--13-13--|-/16-16-16-16\-13--13-13--13-13--12-12-12\11-11-11--|      |
E|------------------------------|----------------------------------------------------|      |

|--------------|
|--------------|
|-11-----------|
|----let ring--|
|-9------------|
|--------------|



Verse

Stefan

e|---------|
B|-----17--|
G|--15-----|
D|---------|
A|---------|
E|---------|


2nd Chorus

Chorus - Brian

d|---------------------------------|---------------------------------|
A|---------------------------------|---------------------------------|
F|---------------------------------|---------------------------------|
C|--11-X-X-11-X--11-11-11-11--X-X--|--11-X-X-11-X--11-11-11-11--X-X--|
G|--11-X-X-11-X--11-11-11-11--X-X--|--11-X-X-11-X--11-11-11-11--X-X--|
D|--9--X-X-9--X--9--9--9--9---X-X--|--9--X-X-9--X--9--9--9--9---X-X--|

d|---------------------------------|---------------------------------|
A|---------------------------------|---------------------------------|
F|---------------------------------|---------------------------------|
C|--2--X-X-2--X--2--2--2--2---X-X--|--2--X-X-2--X--2--2--2--2---X-X--|
G|--2--X-X-2--X--2--2--2--2---X-X--|--2--X-X-2--X--2--2--2--2---X-X--|
D|--0--X-X-0--X--0--0--0--0---X-X--|--0--X-X-0--X--0--0--0--0---X-X--|

d|---------------------------------|---------------------------------|
A|---------------------------------|---------------------------------|
F|---------------------------------|---------------------------------|
C|--11-X-X-11-X--11-11-11-11--X-X--|--11-X-X-11-X--11-11-11-11--X-X--|
G|--11-X-X-11-X--11-11-11-11--X-X--|--11-X-X-11-X--11-11-11-11--X-X--|
D|--9--X-X-9--X--9--9--9--9---X-X--|--9--X-X-9--X--9--9--9--9---X-X--|

d|---------------------------------|---------------------------------|
A|---------------------------------|---------------------------------|
F|---------------------------------|---------------------------------|
C|--7--X-X-7--X--7--7--7--7---X-X--|--7--X-X-7--X--7--7--7--7---X-X--|
G|--7--X-X-7--X--7--7--7--7---X-X--|--7--X-X-7--X--7--7--7--7---X-X--|
D|--5--X-X-5--X--5--5--5--5---X-X--|--5--X-X-5--X--5--5--5--5---X-X--|

d|---------------------------------|---------------------------------|
A|---------------------------------|---------------------------------|
F|---------------------------------|---------------------------------|
C|--2--X-X-2--X--2--2--2--2---X-X--|--2--X-X-2--X--2--2--2--2---X-X--|
G|--2--X-X-2--X--2--2--2--2---X-X--|--2--X-X-2--X--2--2--2--2---X-X--|
D|--0--X-X-0--X--0--0--0--0---X-X--|--0--X-X-0--X--0--0--0--0---X-X--|

d|---------------------------------|---------------------------------|
A|---------------------------------|---------------------------------|
F|---------------------------------|---------------------------------|
C|--6--X-X-6--X--6--6--6--6---X-X--|--6--X-X-6--X--6--6--6--6---X-X--|
G|--6--X-X-6--X--6--6--6--6---X-X--|--6--X-X-6--X--6--6--6--6---X-X--|
D|--4--X-X-4--X--4--4--4--4---X-X--|--4--X-X-4--X--4--4--4--4---X-X--|

d|---------------------------------|---------------------------------|
A|---------------------------------|---------------------------------|
F|---------------------------------|---------------------------------|
C|--11-X-X-11-X--11-11-11-11--X-X--|--11-X-X-11-X--11-11-11-11--X-X--|
G|--11-X-X-11-X--11-11-11-11--X-X--|--11-X-X-11-X--11-11-11-11--X-X--|
D|--9--X-X-9--X--9--9--9--9---X-X--|--9--X-X-9--X--9--9--9--9---X-X--|

d|---------------------------------|---------------------------------|
A|---------------------------------|---------------------------------|
F|---------------------------------|---------------------------------|
C|--7--X-X-7--X--7--7--7--7---X-X--|--7--X-X-7--X--7--7--7--7---X-X--|
G|--7--X-X-7--X--7--7--7--7---X-X--|--7--X-X-7--X--7--7--7--7---X-X--|
D|--5--X-X-5--X--5--5--5--5---X-X--|--5--X-X-5--X--5--5--5--5---X-X--|

Stefan

e|---------------------------------|------------------------------------|
B|---------------------------------|------------------------------------|
G|--4--X-X-4--X--4--4--4--4---X-X--|--/8-8-8-8-8-8-8-8/9-9-9-9-9-9-9-9--|
D|---------------------------------|------------------------------------|
A|--2--X-X-2--X--2--2--2--2---X-X--|--/6-6-6-6-6-6-6-6/7-7-7-7-7-7-7-7--|
E|---------------------------------|------------------------------------|

e|---------------------------------|---------------------------------|
B|---------------------------------|---------------------------------|
G|--11-X-X-11-X--11-11-11-11--X-X--|--11-X-X-11-X--11-11-11-11--X-X--|
D|---------------------------------|---------------------------------|
A|--9--X-X-9--X--9--9--9--9---X-X--|--9--X-X-9--X--9--9--9--9---X-X--|
E|---------------------------------|---------------------------------|

e|---------------------------------|---------------------------------|
B|---------------------------------|---------------------------------|
G|--8--X-X-8--X--8--8--8--8---X-X--|--8--X-X-8--X--8--8--8--8---X-X--|
D|---------------------------------|---------------------------------|
A|--6--X-X-6--X--6--6--6--6---X-X--|--6--X-X-6--X--6--6--6--6---X-X--|
E|---------------------------------|---------------------------------|

e|---------------------------------|---------------------------------|
B|---------------------------------|---------------------------------|
G|--16-X-X-16-X--16-16-16-16--X-X--|--16-X-X-16-X--16-16-16-16--X-X--|
D|---------------------------------|---------------------------------|
A|--14-X-X-14-X--14-14-14-14--X-X--|--14-X-X-14-X--14-14-14-14--X-X--|
E|---------------------------------|---------------------------------|

e|---------------------------------|---------------------------------|
B|---------------------------------|---------------------------------|
G|--14-X-X-14-X--14-14-14-14--X-X--|--14-X-X-14-X--14-14-14-14--X-X--|
D|---------------------------------|---------------------------------|
A|--12-X-X-12-X--12-12-12-12--X-X--|--12-X-X-12-X--12-12-12-12--X-X--|
E|---------------------------------|---------------------------------|

e|---------------------------------|---------------------------------|
B|---------------------------------|---------------------------------|
G|--15-X-X-15-X--15-15-15-15--X-X--|--15-X-X-15-X--15-15-15-15--X-X--|
D|---------------------------------|---------------------------------|
A|--13-X-X-13-X--13-13-13-13--X-X--|--13-X-X-13-X--13-13-13-13--X-X--|
E|---------------------------------|---------------------------------|

e|---------------------------------|---------------------------------|
B|---------------------------------|---------------------------------|
G|--8--X-X-8--X--8--8--8--8---X-X--|--8--X-X-8--X--8--8--8--8---X-X--|
D|---------------------------------|---------------------------------|
A|--6--X-X-6--X--6--6--6--6---X-X--|--6--X-X-6--X--6--6--6--6---X-X--|
E|---------------------------------|---------------------------------|

e|---------------------------------|---------------------------------|
B|---------------------------------|---------------------------------|
G|--7--X-X-7--X--7--7--7--7---X-X--|--7--X-X-7--X--7--7--7--7---X-X--|
D|---------------------------------|---------------------------------|
A|--5--X-X-5--X--5--5--5--5---X-X--|--5--X-X-5--X--5--5--5--5---X-X--|
E|---------------------------------|---------------------------------|


Bridge - Brian

d|-----------------------------|----------------------------|      |--------------|
A|-----------------------------|----------------------------|      |--------------|
F|-----------------------------|----------------------------|  x2  |--------------|
C|--6--X-X-6--X--6-6-6-6--X-X--|--6--X-X-6--X--6-6-4-4-4-4--|      |-6------------|
G|--6--X-X-6--X--6-6-6-6--X-X--|--6--X-X-6--X--6-6-4-4-4-4--|      |-6--let ring--|
D|--4--X-X-4--X--4-4-4-4--X-X--|--4--X-X-4--X--4-4-2-2-2-2--|      |-4------------|

Stefan

e|----------------------------------|---------------------------------------|      |--------------|
B|----------------------------------|---------------------------------------|      |--------------|
G|--15-15-15-15-15-15--\11-11-11-11-|-/18-18-18-18\-21-21-21-21-21-21-21-21-|  x2  |-21-----------|
D|----------------------------------|---------------------------------------|      |----let ring--|
A|--13-13-13-13-13-13--\9--9--9--9--|-/16-16-16-16\-19-19-19-19-19-19-19-19-|      |-19-----------|
E|----------------------------------|---------------------------------------|      |--------------|


Verse


3rd Chorus

Chorus - Brian

d|---------------------------------|---------------------------------|
A|---------------------------------|---------------------------------|
F|---------------------------------|---------------------------------|
C|--11-X-X-11-X--11-11-11-11--X-X--|--11-X-X-11-X--11-11-11-11--X-X--|
G|--11-X-X-11-X--11-11-11-11--X-X--|--11-X-X-11-X--11-11-11-11--X-X--|
D|--9--X-X-9--X--9--9--9--9---X-X--|--9--X-X-9--X--9--9--9--9---X-X--|

d|---------------------------------|---------------------------------|
A|---------------------------------|---------------------------------|
F|---------------------------------|---------------------------------|
C|--2--X-X-2--X--2--2--2--2---X-X--|--2--X-X-2--X--2--2--2--2---X-X--|
G|--2--X-X-2--X--2--2--2--2---X-X--|--2--X-X-2--X--2--2--2--2---X-X--|
D|--0--X-X-0--X--0--0--0--0---X-X--|--0--X-X-0--X--0--0--0--0---X-X--|

d|---------------------------------|---------------------------------|
A|---------------------------------|---------------------------------|
F|---------------------------------|---------------------------------|
C|--11-X-X-11-X--11-11-11-11--X-X--|--11-X-X-11-X--11-11-11-11--X-X--|
G|--11-X-X-11-X--11-11-11-11--X-X--|--11-X-X-11-X--11-11-11-11--X-X--|
D|--9--X-X-9--X--9--9--9--9---X-X--|--9--X-X-9--X--9--9--9--9---X-X--|

d|---------------------------------|---------------------------------|
A|---------------------------------|---------------------------------|
F|---------------------------------|---------------------------------|
C|--7--X-X-7--X--7--7--7--7---X-X--|--7--X-X-7--X--7--7--7--7---X-X--|
G|--7--X-X-7--X--7--7--7--7---X-X--|--7--X-X-7--X--7--7--7--7---X-X--|
D|--5--X-X-5--X--5--5--5--5---X-X--|--5--X-X-5--X--5--5--5--5---X-X--|

Stefan

e|---------------------------------|------------------------------------|
B|---------------------------------|------------------------------------|
G|--4--X-X-4--X--4--4--4--4---X-X--|--/8-8-8-8-8-8-8-8/9-9-9-9-9-9-9-9--|
D|---------------------------------|------------------------------------|
A|--2--X-X-2--X--2--2--2--2---X-X--|--/6-6-6-6-6-6-6-6/7-7-7-7-7-7-7-7--|
E|---------------------------------|------------------------------------|

e|---------------------------------|---------------------------------|
B|---------------------------------|---------------------------------|
G|--11-X-X-11-X--11-11-11-11--X-X--|--11-X-X-11-X--11-11-11-11--X-X--|
D|---------------------------------|---------------------------------|
A|--9--X-X-9--X--9--9--9--9---X-X--|--9--X-X-9--X--9--9--9--9---X-X--|
E|---------------------------------|---------------------------------|

e|---------------------------------|---------------------------------|
B|---------------------------------|---------------------------------|
G|--8--X-X-8--X--8--8--8--8---X-X--|--8--X-X-8--X--8--8--8--8---X-X--|
D|---------------------------------|---------------------------------|
A|--6--X-X-6--X--6--6--6--6---X-X--|--6--X-X-6--X--6--6--6--6---X-X--|
E|---------------------------------|---------------------------------|

e|---------------------------------|---------------------------------|
B|---------------------------------|---------------------------------|
G|--16-X-X-16-X--16-16-16-16--X-X--|--16-X-X-16-X--16-16-16-16--X-X--|
D|---------------------------------|---------------------------------|
A|--14-X-X-14-X--14-14-14-14--X-X--|--14-X-X-14-X--14-14-14-14--X-X--|
E|---------------------------------|---------------------------------|


Bridge - Brian

d|-----------------------------|----------------------------|      |--------------|
A|-----------------------------|----------------------------|      |--------------|
F|-----------------------------|----------------------------|  x4  |--------------|
C|--6--X-X-6--X--6-6-6-6--X-X--|--6--X-X-6--X--6-6-4-4-4-4--|      |-6------------|
G|--6--X-X-6--X--6-6-6-6--X-X--|--6--X-X-6--X--6-6-4-4-4-4--|      |-6--let ring--|
D|--4--X-X-4--X--4-4-4-4--X-X--|--4--X-X-4--X--4-4-2-2-2-2--|      |-4------------|

Stefan

e|----------------------------------|---------------------------------------|      |--------------|
B|----------------------------------|---------------------------------------|      |--------------|
G|--15-15-15-15-15-15--\11-11-11-11-|-/18-18-18-18\-21-21-21-21-21-21-21-21-|  x4  |-21-----------|
D|----------------------------------|---------------------------------------|      |----let ring--|
A|--13-13-13-13-13-13--\9--9--9--9--|-/16-16-16-16\-19-19-19-19-19-19-19-19-|      |-19-----------|
E|----------------------------------|---------------------------------------|      |--------------|


************************************

| /   slide up
| \   slide down
| h   hammer-on
| p   pull-off
| ~   vibrato
| +   harmonic
| x   Mute note
| b   Bend
| pb  Pre-bend
| br  Bend release
| pbr Pre-bend release
| brb Bend release bend

************************************
comments
We did not receive enough feedback on this tab! Please rate:
print report bad tab
1 2 3 4 5
I want to post or [tab]
guest
You may want to rate the tab now too:
select rating
Please do not post tabs as comments. Select "correction" instead!