Oops, an error
Loading. Please wait.

Battle For The Sun Bass Tab

ver2
ver2

Whole song

More versions @911Tabs.com
3,093 views 3 this week
no commentswrite comment
1 2 3 4 5
worth learning
x 2
Autoscroll
+/-
esc
set tempo
stop
Contributor
Difficulty
Tuning
intermediate
D G C F A D
WARNING: You are trying to view
                                    content from Ultimate-Guitar.com
                                    in an unauthorized application,
                                    which is prohibited.

                                    Please use an official Ultimate
                                    Guitar Tabs application for iPhone,
                                    iPad or Android to access legitimate
                                    chords, guitar, bass, and drum tabs
                                    from Ultimate-Guitar.com database.

                                    Type "ultimate guitar tabs" in Apple
                                    App Store's or Android Market's
                                    search to find the application.
Placebo
-Battle For the Sun-
Battle For the Sun

Hello everyone!
Here is the BTS Bass Tab, I know that this is perfect cuz I have the entire album samples so 
I can hear what was really recorded.

Tuning: D G C F (low to high)

Intro

     W                   W                   W                 
F||-------------------|-------------------|-------------------|
C||-------------------|-------------------|-------------------|
G||-------------------|-------------------|-------------------|
D||-------------------|-------------------|-------------------|


  W                   W                   W                   W                 
-------------------|-------------------|-------------------|-------------------|
-------------------|-------------------|-------------------|-------------------|
-------------------|-------------------|-------------------|-------------------|
-------------------|-------------------|-------------------|-------------------|


  W                   W                   W                   W                 
-------------------|-------------------|-------------------|-------------------|
-------------------|-------------------|-------------------|-------------------|
-------------------|-------------------|-------------------|-------------------|
-------------------|-------------------|-------------------|-------------------|


  W                   W                   W                   W                 
-------------------|-------------------|-------------------|-------------------|
-------------------|-------------------|-------------------|-------------------|
-------------------|-------------------|-------------------|-------------------|
-------------------|-------------------|-------------------|-------------------|


                    Verse I

  W                   W                   W                   W                 
-------------------|-------------------|-------------------|-------------------|
-------------------|-------------------|-------------------|-------------------|
-------------------|-------------------|-------------------|-------------------|
-------------------|-------------------|-------------------|-------------------|


  W                   W                   W                   W                 
-------------------|-------------------|-------------------|-------------------|
-------------------|-------------------|-------------------|-------------------|
-------------------|-------------------|-------------------|-------------------|
-------------------|-------------------|-------------------|-------------------|


  W                   W                   W                   W                 
-------------------|-------------------|-------------------|-------------------|
-------------------|-------------------|-------------------|-------------------|
-------------------|-------------------|-------------------|-------------------|
-------------------|-------------------|-------------------|-------------------|


  W                   W                   W                   W                 
-------------------|-------------------|-------------------|-------------------|
-------------------|-------------------|-------------------|-------------------|
-------------------|-------------------|-------------------|-------------------|
-------------------|-------------------|-------------------|-------------------|


  W                   Q    Q    Q    Q       Q    Q    H         
-------------------|----------------------|---------------------|
-------------------|----------------------|---------------------|
-------------------|----------------------|---------------------|
-------------------|--0---------0---------|--0------------------|


  H        Q    Q       Q    Q    H           Q    Q    Q    Q     
---------------------|---------------------|----------------------|
---------------------|---------------------|----------------------|
---------------------|---------------------|----------------------|
-----------0---------|--0---------0--------|--8---------8---------|


  Q    Q    H           H        Q    Q       Q    Q    H         
---------------------|---------------------|---------------------|
---------------------|---------------------|---------------------|
---------------------|---------------------|---------------------|
--8------------------|-----------8---------|--8---------8--------|


  Q    Q    Q    Q       Q    Q    H           H        Q    Q     
----------------------|---------------------|---------------------|
----------------------|---------------------|---------------------|
----------------------|---------------------|---------------------|
--0---------0---------|--0------------------|-----------0---------|


  Q    Q    Q    Q       Q    Q    Q    Q       Q    Q    H         
----------------------|----------------------|---------------------|
----------------------|----------------------|---------------------|
----------------------|----------------------|---------------------|
--0---------0---------|--8---------8---------|--8------------------|


                                             Fill

  H        Q    Q       Q    Q    H            Q    Q    Q    Q     
---------------------|----------------------|----------------------|
---------------------|----------------------|----------------------|
---------------------|----------------------|----------------------|
-----------8---------|--8---------8S--------|--0----0----2----2----|


  Q    Q    Q    E  E     Q    Q    Q    E  E     Q    Q    Q    E  E   
-----------------------|-----------------------|-----------------------|
-----------------------|-----------------------|-----------------------|
-----------------------|-----------------------|-----------------------|
--3----3----5----5--5--|--7----7----7----7--7--|--7----7----7----7--7--|


  Q    Q    Q    Q       Q    Q    Q    E  E     Q    Q    Q    E  E   
----------------------|-----------------------|-----------------------|
----------------------|-----------------------|-----------------------|
----------------------|-----------------------|-----------------------|
--0----0----2----2----|--3----3----5----5--5--|--8----8----8----8--8--|


                        Verse II

  Q    Q    Q    E  E     E  E  E  E  E  E  E  E     E  E  E  E  E  E  E  E   
-----------------------|--------------------------|--------------------------|
-----------------------|--------------------------|--------------------------|
-----------------------|--------------------------|--------------------------|
--8----8----8----8--8--|--0--0--0--0--0--0--0--0--|--0--0--0--0--0--0--0--0--|


  E  E  E  E  E  E  E  E     E  E  E  E  E  E  E  E   
--------------------------|--------------------------|
--------------------------|--------------------------|
--------------------------|--------------------------|
--0--0--0--0--0--0--0--0--|--0--0--0--0--0--0--0--0--|


  E  E  E  E  E  E  E  E     E  E  E  E  E  E  E  E   
--------------------------|--------------------------|
--------------------------|--------------------------|
--------------------------|--------------------------|
--8--8--8--8--8--8--8--8--|--8--8--8--8--8--8--8--8--|


  E   E  E  E  E  E  E  E     E  E  E  E  E  E  E  E   
---------------------------|--------------------------|
---------------------------|--------------------------|
---------------------------|--------------------------|
--7h--8--8--8--8--8--8--8--|--8--8--8--8--8--8--8--8--|


  E  E  E  E  E  E  E  E     E  E  E  E  E  E  E  E   
--------------------------|--------------------------|
--------------------------|--------------------------|
--------------------------|--------------------------|
--0--0--0--0--0--0--0--0--|--0--0--0--0--0--0--0--0--|


  E  E  E  E  E  E  E  E     E  E  E  E  E  E   E   E   
--------------------------|----------------------------|
--------------------------|----------------------------|
--------------------------|----------------------------|
--0--0--0--0--0--0--0--0--|--0--0--0--0--0--0--10--10--|


  E  E  E  E  E  E  E  E     E   E  E  E  E  E  E  E   
--------------------------|---------------------------|
--------------------------|---------------------------|
--------------------------|---------------------------|
--8--8--8--8--8--8--8--8--|--7h--8--8--8--8--8--8--8--|


  E   E  E  E  E  E  E  E     E  E  E  E  E  E  E  E   
---------------------------|--------------------------|
---------------------------|--------------------------|
---------------------------|--------------------------|
--7h--8--8--8--8--8--8--8--|--8--8--8--8--8--8--7--7--|


  E  E  E  E  E  E  E  E     E  E  E  E  E  E  E  E   
--------------------------|--------------------------|
--------------------------|--------------------------|
--------------------------|--------------------------|
--0--0--0--0--0--0--0--0--|--0--0--0--0--0--0--0--0--|


  E  E  E  E  E  E  E  E     E  E  E  E  E  E  E  E   
--------------------------|--------------------------|
--------------------------|--------------------------|
--------------------------|--------------------------|
--0--0--0--0--0--0--0--0--|--0--0--0--0--0--3--3--3--|


  E  E  E  E  E  E  E  E     E   E  E  E  E  E  E  E   
--------------------------|---------------------------|
--------------------------|---------------------------|
--------------------------|---------------------------|
--8--8--8--8--8--8--8--8--|--7h--8--8--8--8--8--8--8--|


  E   E  E  E  E  E  E  E     E   E  E  E  E  E   E   E   
---------------------------|-----------------------------|
---------------------------|-----------------------------|
---------------------------|-----------------------------|
--7h--8--8--8--8--8--8--8--|--7h--8--8--8--8--8--10--10--|


  E  E  E  E  E  E  E  E     E  E  E  E  E  E  E  E   
--------------------------|--------------------------|
--------------------------|--------------------------|
--------------------------|--------------------------|
--0--0--0--0--0--0--0--0--|--0--0--0--0--0--0--0--0--|


  E  E  E  E  E  E  E  E      E   E   E   E   E   E   E   E   
--------------------------|----------------------------------|
--------------------------|----------------------------------|
--------------------------|----------------------------------|
--0--0--0--0--0--0--0--0--|--12--12--12--12--10--10--10--10--|


  E  E  E  E  E  E  E  E     E   E  E  E  E  E  E  E   
--------------------------|---------------------------|
--------------------------|---------------------------|
--------------------------|---------------------------|
--8--8--8--8--8--8--8--8--|--7h--8--8--8--8--8--8--8--|


  E   E  E  E  E  E  E  E     E  E  E  E  E  E  E  E   
---------------------------|--------------------------|
---------------------------|--------------------------|
---------------------------|--------------------------|
--7h--8--8--8--8--8--8--8--|--8--8--8--8--8--8--8--8--|


Chorus

   Q     E   E   Q     E   E      Q     E   E   Q     E  E   
------------------------------|-----------------------------|
------------------------------|-----------------------------|
------------------------------|-----------------------------|
--10-----L--10--10-----L--10--|--10-----L--10--10----10--7--|


  Q     E  E  Q     E  E     Q     E  E  Q    E  E     Q    E  E  Q    E  E   
--------------------------|-------------------------|------------------------|
--------------------------|-------------------------|------------------------|
--------------------------|-------------------------|------------------------|
--8-----L--8--8-----L--8--|--8-----L--8--8----8--8--|--0----0--0--2----2--2--|


  Q    E  E  Q    E  E     Q     E  E  Q     E  E     Q     E  E  Q    Q     
------------------------|--------------------------|------------------------|
------------------------|--------------------------|------------------------|
------------------------|--------------------------|------------------------|
--3----3--3--5----5--0--|--8-----L--8--8-----L--8--|--8-----L--8--8----8----|


   Q     E   E   Q     E   E      Q     E   E   Q     E  E   
------------------------------|-----------------------------|
------------------------------|-----------------------------|
------------------------------|-----------------------------|
--10-----L--10--10-----L--10--|--10-----L--10--10----10--7--|


  Q     E  E  Q     E  E     Q     E  E  Q    E  E     Q    E  E  Q    E  E   
--------------------------|-------------------------|------------------------|
--------------------------|-------------------------|------------------------|
--------------------------|-------------------------|------------------------|
--8-----L--8--8-----L--8--|--8-----L--8--8----8--8--|--0----0--0--2----2--2--|


  Q    E  E  Q    E  E     Q     E  E  Q     E  E     Q    Q    Q    Q     
------------------------|--------------------------|----------------------|
------------------------|--------------------------|----------------------|
------------------------|--------------------------|----------------------|
--3----3--3--5----5--0--|--8-----L--8--8-----L--8--|--8----8----8----8----|


Verse III

  W                   W                   W                   W                 
-------------------|-------------------|-------------------|-------------------|
-------------------|-------------------|-------------------|-------------------|
-------------------|-------------------|-------------------|-------------------|
-------------------|-------------------|-------------------|-------------------|


  E  E  E  E  E  E  E  E     E   E  E  E  E  E  E  E   
--------------------------|---------------------------|
--------------------------|---------------------------|
--------------------------|---------------------------|
--8--8--8--8--8--8--8--8--|--7h--8--8--8--8--8--8--8--|


  E   E  E  E  E  E  E  E     E   E  E  E  E   E   E   E   
---------------------------|------------------------------|
---------------------------|------------------------------|
---------------------------|------------------------------|
--7h--8--8--8--8--8--8--8--|--7h--8--8--8--8--10--10--10--|


  E  E   E  E  E  E   E  E     E  E   E  E  E  E   E  E   
----------------------------|----------------------------|
----------------------------|----------------------------|
----------------------------|----------------------------|
--0--0--12--0--0--0--12--0--|--0--0--12--0--0--0--12--0--|


  E  E   E  E  E  E   E  E     E  E   E  E  E  E   E  E   
----------------------------|----------------------------|
----------------------------|----------------------------|
----------------------------|----------------------------|
--0--0--12--0--0--0--12--0--|--0--0--12--0--0--0--12--0--|


  E  E  E  E  E  E   E  E     E  E  E  E  E  E  E  E   
---------------------------|--------------------------|
---------------------------|--------------------------|
--------------------10-----|--------------------9-----|
--8--8--8--8--8--8------8--|--8--8--8--8--8--8-----8--|


  E  E  E  E  E  E   E  E     E  E  E  E  E    E   E   E   
---------------------------|------------------------------|
---------------------------|------------------------------|
--------------------10-----|------------------------------|
--8--8--8--8--8--8------8--|--8--8--8--8--8S--17--17--17--|


  E  E   E  E  E  E   E  E     E  E   E  E  E  E   E  E   
----------------------------|----------------------------|
----------------------------|----------------------------|
----------------------------|----------------------------|
--0--0--12--0--0--0--12--0--|--0--0--12--0--0--0--12--0--|


  E  E   E  E  E  E   E  E     E  E   E  E  E   E   E   E   
----------------------------|------------------------------|
----------------------------|------------------------------|
----------------------------|------------------------------|
--0--0--12--0--0--0--12--0--|--0--0--12--0--0--10--10--10--|


  E  E  E  E  E  E   E  E     E  E  E  E  E  E  E  E   
---------------------------|--------------------------|
---------------------------|--------------------------|
--------------------10-----|--------------------9-----|
--8--8--8--8--8--8------8--|--8--8--8--8--8--8-----8--|


  E  E  E  E  E  E   E  E     E  E  E  E  E    E   E   E   
---------------------------|------------------------------|
---------------------------|------------------------------|
--------------------10-----|------------------------------|
--8--8--8--8--8--8------8--|--8--8--8--8--8S--17--17--17--|


  E  E   E  E  E  E   E  E     E  E   E  E  E  E   E  E   
----------------------------|----------------------------|
----------------------------|----------------------------|
----------------------------|----------------------------|
--0--0--12--0--0--0--12--0--|--0--0--12--0--0--0--12--0--|


  E  E   E  E  E  E   E  E      E  E   E  E   E  E  E  E   
----------------------------|-----------------------------|
----------------------------|-----------------------------|
----------------------------|--14-----12-----10-----9-----|
--0--0--12--0--0--0--12--0--|------0------0------0-----0--|


  E  E  E  E  E  E  E  E     E   E  E  E  E  E  E  E   
--------------------------|---------------------------|
--------------------------|---------------------------|
--------------------------|---------------------------|
--8--8--8--8--8--8--8--8--|--7h--8--8--8--8--8--8--8--|


  E   E  E  E  E  E  E  E     E   E  E  E  E  E  E  E   
---------------------------|---------------------------|
---------------------------|---------------------------|
---------------------------|---------------------------|
--7h--8--8--8--8--8--8--8--|--7h--8--8--8--8--8--8--8--|


Chorus

   Q     E   E   Q     E   E      Q     E   E   Q     E  E   
------------------------------|-----------------------------|
------------------------------|-----------------------------|
------------------------------|-----------------------------|
--10-----L--10--10-----L--10--|--10-----L--10--10----10--7--|


  Q     E  E  Q     E  E     Q     E  E  Q    Q       Q    E  E  Q    E  E   
--------------------------|------------------------|------------------------|
--------------------------|------------------------|------------------------|
--------------------------|------------------------|------------------------|
--8-----L--8--8-----L--8--|--8-----L--8--8----8----|--0----0--0--2----2--2--|


  Q    E  E  Q    E  E     Q     E  E  Q     E  E     Q     E  E  Q    E  E   
------------------------|--------------------------|-------------------------|
------------------------|--------------------------|-------------------------|
------------------------|--------------------------|-------------------------|
--3----3--3--5----5--0--|--8-----L--8--8-----L--8--|--8-----L--8--8----8--8--|


   Q     E   E   Q     E   E      Q     E   E   Q     E  E   
------------------------------|-----------------------------|
------------------------------|-----------------------------|
------------------------------|-----------------------------|
--10-----L--10--10-----L--10--|--10-----L--10--10----10--7--|


  H        Q     E  E     Q    Q    Q    E  E     Q    E  E  Q    E  E   
-----------------------|-----------------------|------------------------|
-----------------------|-----------------------|------------------------|
-----------------------|-----------------------|------------------------|
--8--------8-----L--8--|--8----8----8----8--8--|--0----0--0--2----2--2--|


  Q    E  E  Q    E  E     Q     E  E  Q     E  E     Q    Q    Q    Q     
------------------------|--------------------------|----------------------|
------------------------|--------------------------|----------------------|
------------------------|--------------------------|----------------------|
--3----3--3--5----5--0--|--8-----L--8--8-----L--8--|--8----8----8----7----|


Bridge

  E  E  E  E  E  E  E  E     E  E  E  E  E  E  E  E   
--------------------------|--------------------------|
--------------------------|--------------------------|
--------------------------|--------------------------|
--0--0--0--0--2--2--2--2--|--3--3--3--3--5--5--5--5--|


  E  E  E  E  E  E  E  E     E  E  E  E  E  E  E  E   
--------------------------|--------------------------|
-----------------------9--|--9--------------9--9--9--|
--------------------------|--------------------------|
--7--7--7--7--7--7--7-----|-----7--7--7--7-----------|


  E  E  E  E  E  E  E  E     E  E  E  E  E  E  E  E     Q    E  E  E  E  E  E   
--------------------------|--------------------------|-------------------------|
--------------------------|--------------------------|-------------------------|
--------------------------|--------------------------|-------------------------|
--0--0--0--0--2--2--2--2--|--3--3--3--3--5--5--5--0--|--8----8--8--8--8--8--8--|


  E   E  E  E  E  E  E   E     E  E  E  E  E  E  E  E   
----------------------------|--------------------------|
----------------------------|--------------------------|
----------------------------|--------------------------|
--7h--8--8--8--8--8--8--10--|--0--0--0--0--2--2--2--2--|


  E  E  E  E  E  E  E  E     E  E  E  E  E  E  E  E   
--------------------------|--------------------------|
--------------------------|--------------------------|
--------------------------|--------------------------|
--3--3--3--3--5--5--5--0--|--8--8--8--8--8--8--8--8--|


  E  E  E    E   E   E   E   E     E  E  E  E  E  E  E  E   
--------------------------------|--------------------------|
--------------------------------|--------------------------|
--------------------------------|--------------------------|
--8--8--8S--20--20--20--20--20--|--0--0--0--0--2--2--2--2--|


  E  E  E  E  E  E  E  E     W                   W                 
--------------------------|-------------------|-------------------|
--------------------------|-------------------|-------------------|
--------------------------|-------------------|-------------------|
--3--3--3--3--5--5--5--5--|--7----------------|--L----------------|


Chorus

   Q     Q     Q     E   E      Q     Q     Q     E  E   
----------------------------|---------------------------|
----------------------------|---------------------------|
----------------------------|---------------------------|
--10----10----10----10--10--|--10----10----10----10--7--|


  Q    Q    Q    E  E     Q    Q    Q    E  E     Q    E  E  Q    E  E   
-----------------------|-----------------------|------------------------|
-----------------------|-----------------------|------------------------|
-----------------------|-----------------------|------------------------|
--8----8----8----8--7--|--8----8----8----8--8--|--0----0--0--2----2--2--|


  Q    E  E  Q    E  E     Q    Q    Q    E  E     Q    Q     Q    Q     
------------------------|-----------------------|-----------------------|
------------------------|-----------------------|-----------------------|
------------------------|-----------------------|-------7----10---------|
--3----3--3--5----5--0--|--8----8----8----8--7--|--8---------------8----|


   Q     Q     Q     E   E      Q     Q     Q     E  E   
----------------------------|---------------------------|
----------------------------|---------------------------|
----------------------------|---------------------------|
--10----10----10----10--10--|--10----10----10----10--7--|


  Q    Q    Q    E  E     Q    Q    Q    E  E     Q    E  E  Q    E  E   
-----------------------|-----------------------|------------------------|
-----------------------|-----------------------|------------------------|
-----------------------|-----------------------|------------------------|
--8----8----8----8--7--|--8----8----8----8--8--|--0----0--0--2----2--2--|


  Q    E  E  Q    E  E     Q     Q     Q    E  E     Q     Q     Q    E  E   
------------------------|-------------------------|-------------------------|
------------------------|-------------10----------|-------10----10----------|
------------------------|-------10----------------|-------------------------|
--3----3--3--5----L--0--|--8----------------8--8--|--8----------------8--8--|


   Q     E   E   E   E   E   E      Q     E   E   E   E   E  E   
--------------------------------|-------------------------------|
--------------------------------|-------------------------------|
--------------------------------|-------------------------------|
--10----10--10--10--10--10--10--|--10----10--10--10--10--10--7--|


  Q    E  E  Q    E  E     E  E  E  E  E  E  E  E     E  E  E  E  E  E  E  E   
------------------------|--------------------------|--------------------------|
------------------------|--------------------------|--------------------------|
------------------------|--------------------------|--------------------------|
--8----8--8--8----8--8--|--8--8--8--8--8--8--8--8--|--0--0--0--0--2--2--2--2--|


  E  E  E  E  E  E  E  E     Q    E  E  Q    E  E   
--------------------------|------------------------|
--------------------------|------------------------|
--------------------------|------------------------|
--3--3--3--3--5--5--5--0--|--8----8--8--8----8--8--|


  E  E  E    E   E   E   E   E      Q     E   E   Q     E   E   
--------------------------------|------------------------------|
--------------------------------|------------------------------|
--------------------------------|------------------------------|
--8--8--8S--20--20--20--20--20--|--10----10--10--10----10--10--|


   E   E   E   E   E   E   E  E     Q    E  E  Q    E  E   
---------------------------------|------------------------|
---------------------------------|------------------------|
---------------------------------|------------------------|
--10--10--10--10--10--12--12--7--|--8----8--8--8----8--8--|


  E  E  E  E  E   E   E   E     E  E  E  E  E  E  E  E   
-----------------------------|--------------------------|
-----------------------------|--------------------------|
-----------------------------|--------------------------|
--8--8--8--8--8--12--12--12--|--0--0--0--0--2--2--2--2--|


  E  E  E  E  E  E  E  E     W                   W                 
--------------------------|-------------------|-------------------|
--------------------------|-------------------|-------------------|
--------------------------|-------------------|-------------------|
--3--3--3--3--5--5--5--0--|--8----------------|--L----------------|


Outro

  W                   W                   W                   W                 
-------------------|-------------------|-------------------|-------------------|
-------------------|-------------------|-------------------|-------------------|
-------------------|-------------------|-------------------|-------------------|
--L----------------|--L----------------|--L----------------|--L----------------|


  W                   W                   W                 
-------------------|-------------------|-------------------|
-------------------|-------------------|-------------------|
-------------------|-------------------|-------------------|
--L----------------|--L----------------|-------------------|


  W                  
-------------------||
-------------------||
-------------------||
-------------------||




Duration Legend
---------------
W - whole
H - half
Q - quarter
E - 8th
S - 16th
T - 32nd
X - 64th
. - note dotted
|-n-|  - n-tuplets


Tablature Legend
----------------
L - tied note
x - dead note
g - grace note
(n) - ghost note
> - accentuded note
NH - natural harmonic
AH - artificial harmonic
TH - tapped harmonic
SH - semi harmonic
PH - pitch harmonic
h - hammer on
p - pull off
b - bend
br - bendRelease
pb - preBend
pbr - preBendRelease
brb - bendReleaseBend
\n/ - tremolo bar dip
\n - tremolo bar dive
-/n - tremolo bar Release up
/n\ - tremolo bar inverted dip
/n - tremolo bar return
-\n - tremolo bar Release down
S - shift slide
s - legato slide
/ -  slide into from below or out of upwards
\ -  slide into from above or out of downwards
~ - vibrato
W - wide vibrato
tr - trill
TP - tremolo picking
T - tapping
S - slap
P - pop
< - fade in
^ - brush up
v - brush down
comments
We did not receive enough feedback on this tab! Please rate:
1 2 3 4 5
I want to post or [tab]
guest
You may want to rate the tab now too:
select rating
Please do not post tabs as comments. Select "correction" instead!