Oops, an error
Loading. Please wait.

Battle For The Sun Tab

ver3
ver3

Intro

Whole song

Interactive

More versions @911Tabs.com
18,890 views 48 this week
2 commentsread comments
1 2 3 4 5
excellent!
x 13
Autoscroll
+/-
esc
set tempo
stop
Contributor
Difficulty
Tuning
intermediate
D G C F A D
Hey! There's an official Ultimate Guitar app which is ideal
for learning songs when you're away from computer. Get the app
WARNING: You are trying to view
                                    content from Ultimate-Guitar.com
                                    in an unauthorized application,
                                    which is prohibited.

                                    Please use an official Ultimate
                                    Guitar Tabs application for iPhone,
                                    iPad or Android to access legitimate
                                    chords, guitar, bass, and drum tabs
                                    from Ultimate-Guitar.com database.

                                    Type "ultimate guitar tabs" in Apple
                                    App Store's or Android Market's
                                    search to find the application.
Artist: Placebo
Song: Battle For The Sun

Here is a correct tab for Battle For The Sun by Placebo, saw them live and this
was definately played. Enjoy (: Tabbed by Daniel Speed.

The tuning is one step down. D G C F A d  (Low to High)


0:00 - 0:50

"I, I, I will battle for the sun, sun, sun,
 and I, I, I won't stop untill I'm done, done, done"

d|-------------------------------------------------------------------|
A|-------------------------------------------------------------------|
F|-------------------------------------------------------------------|
C|--------16----------------17--------------------------------10---8-|
G|-14--14----14--14--14--14----14--14\-7--7--7--7--7-9-10-10--10--10-|
D|--0---0-----0---0---0---0-----0--15\-8--8--8--8--8-8--8--8---8-----|

0:51 - 1:14

"You, you, you are getting in the way, way, way,
 and I, I, I have nothing left to say, say, say"

d|----------------------------------------------------------------------|
A|----------------------------------------------------------------------|
F|----------------------------------------------------------------------|
C|--------16------------------17---------------------------------10---8-|
G|-14--14----14--14-15-14--14----14--14\--7--7--7--7--7-9-10-10--10--10-|
D|--0---0-----0---0-----0---0-----0--15\--8--8--8--8--8-8--8--8---8-----|

1:15 - 1:22

d|--------------------------------------------------------------|
A|-----0-------0-------0-------0--------------------------------|
F|--------------------------------------------------------------|
C|--------------------------------------------------------------|
G|--------------------------------------------------------------|
D|-0-0---0-2-2---2-3-3---3-5-5---5-7--7--7--7-7-7-7-7-7-7-7-7-7-|

1:22 - 1:28

d|--------------------------------------------------------------|
A|-----0-------0-------0-------0--------------------------------|
F|--------------------------------------------------------------|
C|--------------------------------------------------------------|
G|--------------------------------------------------------------|
D|-0-0---0-2-2---2-3-3---3-5-5---5-8--8--8--8-8-8-8-8-8-8-8-8-8-|

A second guitar plays this

1:15 - 1:28

d|---------------------------------------------------------------------------------|
A|---------------------------------------------------------------------------------|
F|---------------------------------------------------------------------------------|
C|---------------------------------------------------------------------------------|
G|---------------------------------------------------------7-7-7-7---------7-7-7-7-|
D|-12-12-12-12-12-12-12-12-12-12-12-12-12-12-12-12-7-7-7-7---------7-7-7-7---------|
  H -  -  -  -  -  -  -  -  -  -  -  -  -  -  -  - - - - - - - - - - - - - - - - -

1:28 - 1:52

"I, I, I, I, I will brush off all the dirt, dirt, dirt, dirt, dirt, dirt ,dirt
 and I, I, I, I, I will pretend it didn't hurt, hurt, hurt, hurt, hurt, hurt, hurt, hurt"

d|----------------------------------------------------------------------------------|
A|----------------------------------------------------------------------------------|
F|----------------------------------------------------------------------------------|
C|--------16------------------17---------------------------------10-10---8--8--8--8-|
G|-14--14----14--14-15-14--14----14--14\--7--7--7--7--7-9-10-10--10-10--10-10-10-10-|
D|--0---0-----0---0-----0---0-----0--15\--8--8--8--8--8-8--8--8---8--8--------------|

1:53 - 2:06 (18)

"You, you, you, you, you are a black and heavy weight, weight, weight, weight, weight, 
weight and"

d|---------------------------------------------------------------------------------------|
A|---------------------------------------------------------------------------------------|
F|---------------------------------------------------------------------------------------|
C|--------16------------------17--------------------------------------10-10---8--8--8--8-|
G|-14--14----14--14-15-14--14----14-12-10--9---7--7--7--7--7-9-10-10--10-10--10-10-10-10-|
D|--0---0-----0---0-----0---0----15-14-12-10---8--8--8--8--8-8--8--8---8--8--------------|

2:06 - 2:18

"I, I, I, I, I will not participate, pate, pate, pate, pate, pate, pate, pate"

d|--------------------------------------------------------------------------------------|
A|--------------------------------------------------------------------------------------|
F|-------------------------------16-14-12-7---------------------------------------------|
C|--------16------------------17--x--x--x-x--------------------------10-10---8--8--8--8-|
G|-14--14----14--14-15-14--14----14-12-10-5---7--7--7--7--7-9-10-10--10-10--10-10-10-10-|
D|--0---0-----0---0-----0---0-----------------8--8--8--8--8-8--8--8---8--8--------------|

2:19 - 2:25

"Dream brother, my"

d|-------------------------------------------------------------------------------------------------|
A|-------------------------------------------------------------------------------------------------|
F|-------------------------------------------------------------------------------------------------|
C|-12-12-12-12-12-12-12-12-12-12-12-12-12-12-12-12-10-10-10-10-10-10-10-10-10-10-10-10-10-10-10-10-|
G|-12-12-12-12-12-12-12-12-12-12-12-12-12-12-12-12-10-10-10-10-10-10-10-10-10-10-10-10-10-10-10-10-|
D|-10-10-10-10-10-10-10-10-10-10-10-10-10-10-10-10--8--8--8--8--8--8--8--8--8--8--8--8--8--8--8--8-|

2:25 - 2:31

"killer, my lover"

d|---------------------------------------------------------------------------------|
A|---------------------------------------------------------------------------------|
F|---------------------------------------------------------------------------------|
C|-2-2-2-2-2-2-2-2-2-2-2-2-2-2-2-2-10-10-10-10-10-10-10-10-10-10-10-10-10-10-10-10-|
G|-2-2-2-2-2-2-2-2-2-2-2-2-2-2-2-2-10-10-10-10-10-10-10-10-10-10-10-10-10-10-10-10-|
D|-0-0-0-0-0-0-0-0-0-0-0-0-0-0-0-0--8--8--8--8--8--8--8--8--8--8--8--8--8--8--8--8-|

2:31 - 2:38

"dream brother, my"

d|-------------------------------------------------------------------------------------------------|
A|-------------------------------------------------------------------------------------------------|
F|-------------------------------------------------------------------------------------------------|
C|-12-12-12-12-12-12-12-12-12-12-12-12-12-12-12-12-10-10-10-10-10-10-10-10-10-10-10-10-10-10-10-10-|
G|-12-12-12-12-12-12-12-12-12-12-12-12-12-12-12-12-10-10-10-10-10-10-10-10-10-10-10-10-10-10-10-10-|
D|-10-10-10-10-10-10-10-10-10-10-10-10-10-10-10-10--8--8--8--8--8--8--8--8--8--8--8--8--8--8--8--8-|

2:38 - 2:44

"killer, my lover"

d|---------------------------------------------------------------------------------|
A|---------------------------------------------------------------------------------|
F|---------------------------------------------------------------------------------|
C|-2-2-2-2-2-2-2-2-2-2-2-2-2-2-2-2-10-10-10-10-10-10-10-10-10-10-10-10-10-10-10-10-|
G|-2-2-2-2-2-2-2-2-2-2-2-2-2-2-2-2-10-10-10-10-10-10-10-10-10-10-10-10-10-10-10-10-|
D|-0-0-0-0-0-0-0-0-0-0-0-0-0-0-0-0--8--8--8--8--8--8--8--8--8--8--8--8--8--8--8--8-|

2:45 - 2:50

"I, I, I will battle for the"

d|------|
A|------|
F|-15b~-|
C|--x---|
G|-13b~-|
D|------|

2:51 - 2:57

"Sun,sun, sun, sun, cause"

d|-----------------------------------------------------------------------|
A|-----------------------------------------------------------------------|
F|-----------------------------------------------------11-11-12-12-14-14-|
C|------------------------------------------------------x--x--x--x--x--x-|
G|-7-7-7-7-7-7-7-7-7-7-7-7-7-7-7-7-7-7-7-7-7-7-7-7-7-0--9--9-10-10-12-12-|
D|-----------------------------------------------------------------------|

2:58 - 3:03

"I, I, I have stared down the barrel of a"

d|------------------------------------------------------------------------|
A|------------------------------------------------------------------------|
F|------------------------------------------------------------------------|
C|------------------------------------------------------------------------|
G|-----14-------14-------14-------14-------14-------14---14---12---10---5-|
D|-0-0----0-0-0----0-0-0----0-0-0----0-0-0----0-0-0----0----0----0----0---|

3:03 - 3:10

gun, gun, gun, gun, gun, gun, gun no fun"

d|--------------------------------------------------------------------------|
A|--------------------------------------------------------------------------|
F|-----------------------------------------------------------------11-11-11-|
C|-------9----------------9----------------9------------------------x--x--x-|
G|---------------10---------------10---------------10-------10------9--9--9-|
D|-0-8-8---8-8-8----8-8-8---8-8-8----8-8-8---8-8-8----8-8-8----8-8----------|

3:10 - 3:16

"You, you, you, you, you are a cheap and nasty"

d|-------------------------------------------------------------------------|
A|-------------------------------------------------------------------------|
F|-----16----------------------------------16------------------------------|
C|------x-----------------------------------x------------------------------|
G|-----14-------14-------14-------14-------14-------14---15---14---12---10-|
D|-0-0----0-0-0----0-0-0----0-0-0----0-0-0----0-0-0----0----0----0----0----|

3:16 - 3:22

"fake, fake, fake, fake, fake, fake, fake and"


d|--------------------------------------------------------------------------|
A|--------------------------------------------------------------------------|
F|-----------------------------------------------------------------11-11-11-|
C|-------9----------------9----------------9------------------------x--x--x-|
G|---------------10---------------10---------------10-------10------9--9--9-|
D|-0-8-8---8-8-8----8-8-8---8-8-8----8-8-8---8-8-8----8-8-8----8-8----------|

3:22 - 3:29

"I, I, I, I, I am the bones you couldn't"

d|------------------------------------------------------------------------|
A|------------------------------------------------------------------------|
F|-----16-------16-------16-------16-------16-------16---16---14---12---7-|
C|------x--------x--------x--------x--------x--------x----x----x----x---x-|
G|-----14-------14-------14-------14-------14-------14---14---12---10---5-|
D|-0-0----0-0-0----0-0-0----0-0-0----0-0-0----0-0-0----0----0----0----0---|

3:29 - 3:35

"break, break ,break, break, break, break, break, break!"

d|-----------------------------------------------------------------------------------|
A|-----------------------------------------------------------------------------------|
F|---------------------------------------12-12-12-12-12-12-12---11-11-11-11-11-11-11-|
C|-------9----------------9---------------x--x--x--x--x--x--x----x--x--x--x--x--x--x-|
G|---------------10---------------10-----10-10-10-10-10-10-10----9--9--9--9--9--9--9-|
D|-0-8-8---8-8-8----8-8-8---8-8-8----8-8----------------------8----------------------|

3:35 - 3:41

"dream brother, my"

d|-------------------------------------------------------------------------------------------------|
A|-------------------------------------------------------------------------------------------------|
F|-------------------------------------------------------------------------------------------------|
C|-12-12-12-12-12-12-12-12-12-12-12-12-12-12-12-12-10-10-10-10-10-10-10-10-10-10-10-10-10-10-10-10-|
G|-12-12-12-12-12-12-12-12-12-12-12-12-12-12-12-12-10-10-10-10-10-10-10-10-10-10-10-10-10-10-10-10-|
D|-10-10-10-10-10-10-10-10-10-10-10-10-10-10-10-10--8--8--8--8--8--8--8--8--8--8--8--8--8--8--8--8-|

23:41 - 3:48

"killer, my lover"

d|---------------------------------------------------------------------------------|
A|---------------------------------------------------------------------------------|
F|---------------------------------------------------------------------------------|
C|-2-2-2-2-2-2-2-2-2-2-2-2-2-2-2-2-10-10-10-10-10-10-10-10-10-10-10-10-10-10-10-10-|
G|-2-2-2-2-2-2-2-2-2-2-2-2-2-2-2-2-10-10-10-10-10-10-10-10-10-10-10-10-10-10-10-10-|
D|-0-0-0-0-0-0-0-0-0-0-0-0-0-0-0-0--8--8--8--8--8--8--8--8--8--8--8--8--8--8--8--8-|

3:48 - 3:54

"dream brother, my"

d|-------------------------------------------------------------------------------------------------|
A|-------------------------------------------------------------------------------------------------|
F|-------------------------------------------------------------------------------------------------|
C|-12-12-12-12-12-12-12-12-12-12-12-12-12-12-12-12-10-10-10-10-10-10-10-10-10-10-10-10-10-10-10-10-|
G|-12-12-12-12-12-12-12-12-12-12-12-12-12-12-12-12-10-10-10-10-10-10-10-10-10-10-10-10-10-10-10-10-|
D|-10-10-10-10-10-10-10-10-10-10-10-10-10-10-10-10--8--8--8--8--8--8--8--8--8--8--8--8--8--8--8--8-|

3:55 - 4:01

"killer, my lover"

d|---------------------------------------------------------------------------------|
A|---------------------------------------------------------------------------------|
F|---------------------------------------------------------------------------------|
C|-2-2-2-2-2-2-2-2-2-2-2-2-2-2-2-2-10-10-10-10-10-10-10-10-10-10-10-10-10-10-10-10-|
G|-2-2-2-2-2-2-2-2-2-2-2-2-2-2-2-2-10-10-10-10-10-10-10-10-10-10-10-10-10-10-10-10-|
D|-0-0-0-0-0-0-0-0-0-0-0-0-0-0-0-0--8--8--8--8--8--8--8--8--8--8--8--8--8--8--8--8-|

4:02 - 4:08

d|---------------------------------------------------------------------------------------|
A|-----0-------0---------0----------0----------------------------------------------------|
F|---------------------------------------------------------------------------------------|
C|---------------------------------------------12-12-14-14-------12-12-14-14-------12-12-|
G|-7-7---7-9-9---9-10-10---10-12-12---12-14-14-------------14-14-------------14-14-------|
D|---------------------------------------------------------------------------------------|

4:08 - 4:14

d|---------------------------------------------------------------------------------------|
A|-----0-------0---------0----------0----------------12-12-------12-13-12----12-13-12----|
F|---------------------------------------------------------------------------------------|
C|---------------------------------------------14-14-------14-14----------14----------14-|
G|-7-7---7-9-9---9-10-10---10-12-12---12-14-14-------------------------------------------|
D|---------------------------------------------------------------------------------------|

4:15 - 4:21

d|---------------------------------------------------------------------------------------|
A|-----0-------0---------0----------0----------------12-12-------12-13-12----12-13-12----|
F|---------------------------------------------------------------------------------------|
C|---------------------------------------------14-14-------14-14----------14----------14-|
G|-7-7---7-9-9---9-10-10---10-12-12---12-14-14-------------------------------------------|
D|---------------------------------------------------------------------------------------|
                                                                            P.H  -  -
4:21 - 4:27

d|------------------------------------------------------------------------------------------|
A|-----0-------0---------0----------0----12-12-12-12-12-12-12-12-12-15-15-15-15-15-15-15-15-|
F|------------------------------------------------------------------------------------------|
C|------------------------------------------------------------------------------------------|
G|-7-7---7-9-9---9-10-10---10-12-12---12----------------------------------------------------|
D|------------------------------------------------------------------------------------------|

4:27 - 4:34

"dream brother, my"

d|-------------------------------------------------------------------------------------------------|
A|-------------------------------------------------------------------------------------------------|
F|-------------------------------------------------------------------------------------------------|
C|-12-12-12-12-12-12-12-12-12-12-12-12-12-12-12-12-10-10-10-10-10-10-10-10-10-10-10-10-10-10-10-10-|
G|-12-12-12-12-12-12-12-12-12-12-12-12-12-12-12-12-10-10-10-10-10-10-10-10-10-10-10-10-10-10-10-10-|
D|-10-10-10-10-10-10-10-10-10-10-10-10-10-10-10-10--8--8--8--8--8--8--8--8--8--8--8--8--8--8--8--8-|

4:34 - 4:40

"killer, my lover"

d|---------------------------------------------------------------------------------|
A|---------------------------------------------------------------------------------|
F|---------------------------------------------------------------------------------|
C|-2-2-2-2-2-2-2-2-2-2-2-2-2-2-2-2-10-10-10-10-10-10-10-10-10-10-10-10-10-10-10-10-|
G|-2-2-2-2-2-2-2-2-2-2-2-2-2-2-2-2-10-10-10-10-10-10-10-10-10-10-10-10-10-10-10-10-|
D|-0-0-0-0-0-0-0-0-0-0-0-0-0-0-0-0--8--8--8--8--8--8--8--8--8--8--8--8--8--8--8--8-|

4:41 - 4:47

"dream brother, my"

d|-------------------------------------------------------------------------------------------------|
A|-------------------------------------------------------------------------------------------------|
F|-------------------------------------------------------------------------------------------------|
C|-12-12-12-12-12-12-12-12-12-12-12-12-12-12-12-12-10-10-10-10-10-10-10-10-10-10-10-10-10-10-10-10-|
G|-12-12-12-12-12-12-12-12-12-12-12-12-12-12-12-12-10-10-10-10-10-10-10-10-10-10-10-10-10-10-10-10-|
D|-10-10-10-10-10-10-10-10-10-10-10-10-10-10-10-10--8--8--8--8--8--8--8--8--8--8--8--8--8--8--8--8-|

4:47 - 4:53

"killer, my lover"

d|---------------------------------------------------------------------------------|
A|---------------------------------------------------------------------------------|
F|---------------------------------------------------------------------------------|
C|-2-2-2-2-2-2-2-2-2-2-2-2-2-2-2-2-10-10-10-10-10-10-10-10-10-10-10-10-10-10-10-10-|
G|-2-2-2-2-2-2-2-2-2-2-2-2-2-2-2-2-10-10-10-10-10-10-10-10-10-10-10-10-10-10-10-10-|
D|-0-0-0-0-0-0-0-0-0-0-0-0-0-0-0-0--8--8--8--8--8--8--8--8--8--8--8--8--8--8--8--8-|

4:54 - 5:00

"dream brother, my"

d|-------------------------------------------------------------------------------------------------|
A|-------------------------------------------------------------------------------------------------|
F|-------------------------------------------------------------------------------------------------|
C|-12-12-12-12-12-12-12-12-12-12-12-12-12-12-12-12-10-10-10-10-10-10-10-10-10-10-10-10-10-10-10-10-|
G|-12-12-12-12-12-12-12-12-12-12-12-12-12-12-12-12-10-10-10-10-10-10-10-10-10-10-10-10-10-10-10-10-|
D|-10-10-10-10-10-10-10-10-10-10-10-10-10-10-10-10--8--8--8--8--8--8--8--8--8--8--8--8--8--8--8--8-|

5:01 - 5:06

"killer, my lover"

d|---------------------------------------------------------------------------------|
A|---------------------------------------------------------------------------------|
F|---------------------------------------------------------------------------------|
C|-2-2-2-2-2-2-2-2-2-2-2-2-2-2-2-2-10-10-10-10-10-10-10-10-10-10-10-10-10-10-10-10-|
G|-2-2-2-2-2-2-2-2-2-2-2-2-2-2-2-2-10-10-10-10-10-10-10-10-10-10-10-10-10-10-10-10-|
D|-0-0-0-0-0-0-0-0-0-0-0-0-0-0-0-0--8--8--8--8--8--8--8--8--8--8--8--8--8--8--8--8-|

5:07 - 5:13

"dream brother, my"

d|-------------------------------------------------------------------------------------------------|
A|-------------------------------------------------------------------------------------------------|
F|-------------------------------------------------------------------------------------------------|
C|-12-12-12-12-12-12-12-12-12-12-12-12-12-12-12-12-10-10-10-10-10-10-10-10-10-10-10-10-10-10-10-10-|
G|-12-12-12-12-12-12-12-12-12-12-12-12-12-12-12-12-10-10-10-10-10-10-10-10-10-10-10-10-10-10-10-10-|
D|-10-10-10-10-10-10-10-10-10-10-10-10-10-10-10-10--8--8--8--8--8--8--8--8--8--8--8--8--8--8--8--8-|

5:14 - 5:21

"killer, my lover"

d|-------------------------------------|
A|-------------------------------------|
F|-------------------------------------|
C|-2-2-2-2-2-2-2-2-2-2-2-2-2-2-2-2-10~-|
G|-2-2-2-2-2-2-2-2-2-2-2-2-2-2-2-2-10~-|
D|-0-0-0-0-0-0-0-0-0-0-0-0-0-0-0-0--8~-|

5:21 - 5:33

"I, I, I will battle for the sun"

~ = Let Ring
P.H - = Pinched Harmonic
H - = Natural Harmonic
b = Bend note
\ - Slide Down

Quetions, queries? E-Mail me (:    blink1-8-2@hotmail.co.uk
comments
print report bad tab
2 comments total. show 1 bad comment
0 reply
Ivan Oliver wrote on December 22 2011, 09:48 am

Good tab...
I can't figure keyboard/strings/violin/whatever part in 'dream brother...' part.
Sounds like octaves, but can't figure it out...
Anyone...?

I want to post or [tab]
guest
You may want to rate the tab now too:
select rating
Please do not post tabs as comments. Select "correction" instead!