Oops, an error
Loading. Please wait.

Bionic Live Tab

1,533 views 1 this week
1 commentread comment
1 2 3 4 5
excellent!
x 1
Autoscroll
+/-
esc
set tempo
stop
NEW! There's an official Ultimate Guitar app which is ideal
for learning songs when you're away from computer. Get the app
WARNING: You are trying to view
                                    content from Ultimate-Guitar.com
                                    in an unauthorized application,
                                    which is prohibited.

                                    Please use an official Ultimate
                                    Guitar Tabs application for iPhone,
                                    iPad or Android to access legitimate
                                    chords, guitar, bass, and drum tabs
                                    from Ultimate-Guitar.com database.

                                    Type "ultimate guitar tabs" in Apple
                                    App Store's or Android Market's
                                    search to find the application.
Song: Bionic live in Paris 2003
Artist: Placebo
DVD: Placebo Live In Paris 2003 Soul mates Never Die
Tabbed By: Alex Leatherbarrow
Email: punkster6001@hotmail.com


/////////: Slide up
\\\\\\\\\: Slide down
D: Digital Delay

Brian's tuning: F   A.   D.   G.   C  C the tuning for this is just simply going up a 
steps, and you can't even brake string.

Intro
E-------------------------------------------------------------------------------------------|
B-------------------------------------------------------------------------------------------|
G-------------------------------------------------------------------------------------------|
D-------------------------------------------------------------------------------------------|
A-555555555555555555555555555555555555555555555555555555555555
E-------------------------------------------------------------------------------------------


E------------------------------------------------------|
B------------------------------------------------------|
G--7777777777777777---11-11-11-11-11-11-11-11-11-11----|
D--7777777777777777---11-11-11-11-11-11-11-11-11-11----|
A--5555555555555555---9-9-9-9-9-9-9-9-9-9-9-9-9-9-9-9--|
E------------------------------------------------------|


E------------------------------------------------------|
B------------------------------------------------------|
G--7777777777777777---11-11-11-11-11-11-11-11-11-11----|
D--7777777777777777---11-11-11-11-11-11-11-11-11-11----|
A--5555555555555555---9-9-9-9-9-9-9-9-9-9-9-9-9-9-9-9--|
E------------------------------------------------------|


Verse
E------------------------------------------------------|
B------------------------------------------------------|
G--7777777777777777---11-11-11-11-11-11-11-11-11-11----|
D--7777777777777777---11-11-11-11-11-11-11-11-11-11----|
A--5555555555555555---9-9-9-9-9-9-9-9-9-9-9-9-9-9-9-9--|
E------------------------------------------------------|

E------------------------------------------------------|
B------------------------------------------------------|
G--7777777777777777---11-11-11-11-11-11-11-11-11-11----|
D--7777777777777777---11-11-11-11-11-11-11-11-11-11----|
A--5555555555555555---9-9-9-9-9-9-9-9-9-9-9-9-9-9-9-9--|
E------------------------------------------------------|


E------------------------------------------------------|
B------------------------------------------------------|
G--7777777777777777---11-11-11-11-11-11-11-11-11-11----|
D--7777777777777777---11-11-11-11-11-11-11-11-11-11----|
A--5555555555555555---9-9-9-9-9-9-9-9-9-9-9-9-9-9-9-9--|
E------------------------------------------------------|


E------------------------------------------------------|
B------------------------------------------------------|
G--7777777777777777---11-11-11-11-11-11-11-11-11-11----|
D--7777777777777777---11-11-11-11-11-11-11-11-11-11----|
A--5555555555555555---9-9-9-9-9-9-9-9-9-9-9-9-9-9-9-9--|
E------------------------------------------------------|


Pre Chorus
E-----------------------------------------------------------------------|
B-----------------------------------------------------------------------|
G-----------------------------------------------------------------------|
D-----------------------------------------------------------------------|
A-777-xx-999-777-xx-999-/-16-16-16-16-16-16-16-16-16-16-16-16-16-16-16--|
16
E----------------------------------------------------------------------------------------

E-----------------------------------------------------------------------|
B-----------------------------------------------------------------------|
G-----------------------------------------------------------------------|
D-----------------------------------------------------------------------|
A-777-xx-999-777-xx-999-/-16-16-16-16-16-16-16-16-16-16-16-16-16-16-16--|
16
E----------------------------------------------------------------------------------------


E-----------------------------------------------------------------------|
B-----------------------------------------------------------------------|
G-----------------------------------------------------------------------|
D-----------------------------------------------------------------------|
A-777-xx-999-777-xx-999-/-16-16-16-16-16-16-16-16-16-16-16-16-16-16-16--|
16
E----------------------------------------------------------------------------------------


E-----------------------------------------------------------------------|
B-----------------------------------------------------------------------|
G-----------------------------------------------------------------------|
D-----------------------------------------------------------------------|
A-777-xx-999-777-xx-999-/-16-16-16-16-16-16-16-16-16-16-16-16-16-16-16--|
16
E----------------------------------------------------------------------------------------

Chorus
E-------------------------------------------------------------------|
B-------------------------------------------------------------------|
G--14-14--12-12--11-11-11-11-11-11-11-11--12--14--12--11--12-12-12--|
D-------------------------------------------------------------------|
A-------------------------------------------------------------------|
E-------------------------------------------------------------------|

E------------------------------|
B------------------------------|
G—11-11-11--\--6-6-6--7-7-7-7--|
D------------------------------|
A------------------------------|
E------------------------------|


E-------------------------------------------------------------------|
B-------------------------------------------------------------------|
G--14-14--12-12--11-11-11-11-11-11-11-11--12--14--12--11--12-12-12--|
D-------------------------------------------------------------------|
A-------------------------------------------------------------------|
E-------------------------------------------------------------------|

E------------------------------|
B------------------------------|
G—11-11-11--\--6-6-6--7-7-7-7--|
D------------------------------|
A------------------------------|
E------------------------------|


E-------------------------------------------------------------------|
B-------------------------------------------------------------------|
G--14-14--12-12--11-11-11-11-11-11-11-11--12--14--12--11--12-12-12--|
D-------------------------------------------------------------------|
A-------------------------------------------------------------------|
E-------------------------------------------------------------------|

E------------------------------|
B------------------------------|
G—11-11-11--\--6-6-6--7-7-7-7--|
D------------------------------|
A------------------------------|
E------------------------------|


E-------------------------------------------------------------|
B-------------------------------------------------------------|
G--14-14--12-12--11-11-11-11-11-11-11-11--12--14--12--11--12--|
D-------------------------------------------------------------|
A-------------------------------------------------------------|
E-------------------------------------------------------------|


E-----------------------------------------------------------|
B-----------------------------------------------------------|
G---////--18-18-18-18-18-18-18-18--19-19-19-19-19-19-19-19--|
D-----------------------------------------------------------|
A-----------------------------------------------------------|
E-----------------------------------------------------------|


Verse
E------------------------------------------------------|
B------------------------------------------------------|
G--7777777777777777---11-11-11-11-11-11-11-11-11-11----|
D--7777777777777777---11-11-11-11-11-11-11-11-11-11----|
A--5555555555555555---9-9-9-9-9-9-9-9-9-9-9-9-9-9-9-9--|
E------------------------------------------------------|

E------------------------------------------------------|
B------------------------------------------------------|
G--7777777777777777---11-11-11-11-11-11-11-11-11-11----|
D--7777777777777777---11-11-11-11-11-11-11-11-11-11----|
A--5555555555555555---9-9-9-9-9-9-9-9-9-9-9-9-9-9-9-9--|
E------------------------------------------------------|


E------------------------------------------------------|
B------------------------------------------------------|
G--7777777777777777---11-11-11-11-11-11-11-11-11-11----|
D--7777777777777777---11-11-11-11-11-11-11-11-11-11----|
A--5555555555555555---9-9-9-9-9-9-9-9-9-9-9-9-9-9-9-9--|
E------------------------------------------------------|


E------------------------------------------------------|
B------------------------------------------------------|
G--7777777777777777---11-11-11-11-11-11-11-11-11-11----|
D--7777777777777777---11-11-11-11-11-11-11-11-11-11----|
A--5555555555555555---9-9-9-9-9-9-9-9-9-9-9-9-9-9-9-9--|
E------------------------------------------------------|


Pre Chorus
E-----------------------------------------------------------------------|
B-----------------------------------------------------------------------|
G-----------------------------------------------------------------------|
D-----------------------------------------------------------------------|
A-777-xx-999-777-xx-999-/-16-16-16-16-16-16-16-16-16-16-16-16-16-16-16--|
16
E----------------------------------------------------------------------------------------

E-----------------------------------------------------------------------|
B-----------------------------------------------------------------------|
G-----------------------------------------------------------------------|
D-----------------------------------------------------------------------|
A-777-xx-999-777-xx-999-/-16-16-16-16-16-16-16-16-16-16-16-16-16-16-16--|
16
E----------------------------------------------------------------------------------------


E-----------------------------------------------------------------------|
B-----------------------------------------------------------------------|
G-----------------------------------------------------------------------|
D-----------------------------------------------------------------------|
A-777-xx-999-777-xx-999-/-16-16-16-16-16-16-16-16-16-16-16-16-16-16-16--|
16
E----------------------------------------------------------------------------------------


E-----------------------------------------------------------------------|
B-----------------------------------------------------------------------|
G-----------------------------------------------------------------------|
D-----------------------------------------------------------------------|
A-777-xx-999-777-xx-999-/-16-16-16-16-16-16-16-16-16-16-16-16-16-16-16--|
16
E----------------------------------------------------------------------------------------


Chorus
E-------------------------------------------------------------------|
B-------------------------------------------------------------------|
G--14-14--12-12--11-11-11-11-11-11-11-11--12--14--12--11--12-12-12--|
D-------------------------------------------------------------------|
A-------------------------------------------------------------------|
E-------------------------------------------------------------------|

E------------------------------|
B------------------------------|
G—11-11-11--\--6-6-6--7-7-7-7--|
D------------------------------|
A------------------------------|
E------------------------------|


E-------------------------------------------------------------------|
B-------------------------------------------------------------------|
G--14-14--12-12--11-11-11-11-11-11-11-11--12--14--12--11--12-12-12--|
D-------------------------------------------------------------------|
A-------------------------------------------------------------------|
E-------------------------------------------------------------------|

E------------------------------|
B------------------------------|
G—11-11-11--\--6-6-6--7-7-7-7--|
D------------------------------|
A------------------------------|
E------------------------------|


E-------------------------------------------------------------------|
B-------------------------------------------------------------------|
G--14-14--12-12--11-11-11-11-11-11-11-11--12--14--12--11--12-12-12--|
D-------------------------------------------------------------------|
A-------------------------------------------------------------------|
E-------------------------------------------------------------------|

E------------------------------|
B------------------------------|
G—11-11-11--\--6-6-6--7-7-7-7--|
D------------------------------|
A------------------------------|
E------------------------------|


E-------------------------------------------------------------|
B-------------------------------------------------------------|
G--14-14--12-12--11-11-11-11-11-11-11-11--12--14--12--11--12--|
D-------------------------------------------------------------|
A-------------------------------------------------------------|
E-------------------------------------------------------------|


E-----------------------------------------------------------|
B-----------------------------------------------------------|
G---////--18-18-18-18-18-18-18-18--19-19-19-19-19-19-19-19--|
D-----------------------------------------------------------|
A-----------------------------------------------------------|
E-----------------------------------------------------------|


It then goes into pitch harmonics from here. It also done in a bit of a palm mute.

E-19-19-19-19-19-19-19-19-19-19-19-19-19-19-19--|
B-19-19-19-19-19-19-19-19-19-19-19-19-19-19-19--|
G-----------------------------------------------|
D-----------------------------------------------|
A-----------------------------------------------|
E-----------------------------------------------|


E-----------------------------------------------|
B--24-24-24--24-24-24--12-12-12-12-12-12-12-12--|
G-----------------------------------------------|
D-----------------------------------------------|
A-----------------------------------------------|
E-----------------------------------------------|


E--------------------------------------------------|
B-12-12-12-12-12-12-12-12-12-12-12-12-12-12-12-12--|
G--------------------------------------------------|
D--------------------------------------------------|
A--------------------------------------------------|
E--------------------------------------------------|

E-------------------------------------------------------------------|
B-------------------------------------------------------------------|
G--14-14--12-12--11-11-11-11-11-11-11-11--12--14--12--11--12-12-12--|
D-------------------------------------------------------------------|
A-------------------------------------------------------------------|
E-------------------------------------------------------------------|

E------------------------------|
B------------------------------|
G—11-11-11--\--6-6-6--7-7-7-7--|
D------------------------------|
A------------------------------|
E------------------------------|


E-------------------------------------------------------------------|
B-------------------------------------------------------------------|
G--14-14--12-12--11-11-11-11-11-11-11-11--12--14--12--11--12-12-12--|
D-------------------------------------------------------------------|
A-------------------------------------------------------------------|
E-------------------------------------------------------------------|

E------------------------------|
B------------------------------|
G—11-11-11--\--6-6-6--7-7-7-7--|
D------------------------------|
A------------------------------|
E------------------------------|


E-------------------------------------------------------------------|
B-------------------------------------------------------------------|
G--14-14--12-12--11-11-11-11-11-11-11-11--12--14--12--11--12-12-12--|
D-------------------------------------------------------------------|
A-------------------------------------------------------------------|
E-------------------------------------------------------------------|

E------------------------------|
B------------------------------|
G—11-11-11--\--6-6-6--7-7-7-7--|
D------------------------------|
A------------------------------|
E------------------------------|


E-------------------------------------------------------------|
B-------------------------------------------------------------|
G--14-14--12-12--11-11-11-11-11-11-11-11--12--14--12--11--12--|
D-------------------------------------------------------------|
A-------------------------------------------------------------|
E-------------------------------------------------------------|


E-----------------------------------------------------------|
B-----------------------------------------------------------|
G---////--18-18-18-18-18-18-18-18--19-19-19-19-19-19-19-19--|
D-----------------------------------------------------------|
A-----------------------------------------------------------|
E-----------------------------------------------------------|


E-19-19-19-19-19-19-19-19-19-19-19-19-19-19-19--|
B-19-19-19-19-19-19-19-19-19-19-19-19-19-19-19--|
G-----------------------------------------------|
D-----------------------------------------------|
A-----------------------------------------------|
E-----------------------------------------------|


E-----------------------------------------------|
B--24-24-24--24-24-24--12-12-12-12-12-12-12-12--|
G-----------------------------------------------|
D-----------------------------------------------|
A-----------------------------------------------|
E-----------------------------------------------|


E--------------------------------------------------|
B-12-12-12-12-12-12-12-12-12-12-12-12-12-12-12-12--|
G--------------------------------------------------|
D--------------------------------------------------|
A--------------------------------------------------|
E--------------------------------------------------|


E-19-19-19-19-19-19-19-19-19-19-19-19-19-19-19--|
B-19-19-19-19-19-19-19-19-19-19-19-19-19-19-19--|
G-----------------------------------------------|
D-----------------------------------------------|
A-----------------------------------------------|
E-----------------------------------------------|


E-----------------------------------------------|
B--24-24-24--24-24-24--12-12-12-12-12-12-12-12--|
G-----------------------------------------------|
D-----------------------------------------------|
A-----------------------------------------------|
E-----------------------------------------------|


E--------------------------------------------------|
B-12-12-12-12-12-12-12-12-12-12-12-12-12-12-12-12--|
G--------------------------------------------------|
D--------------------------------------------------|
A--------------------------------------------------|
E--------------------------------------------------|

E-19-19-19-19-19-19-19-19-19-19-19-19-19-19-19--|
B-19-19-19-19-19-19-19-19-19-19-19-19-19-19-19--|
G-----------------------------------------------|
D-----------------------------------------------|
A-----------------------------------------------|
E-----------------------------------------------|


E-----------------------------------------------|
B--24-24-24--24-24-24--12-12-12-12-12-12-12-12--|
G-----------------------------------------------|
D-----------------------------------------------|
A-----------------------------------------------|
E-----------------------------------------------|


E--------------------------------------------------|
B-12-12-12-12-12-12-12-12-12-12-12-12-12-12-12-12--|
G--------------------------------------------------|
D--------------------------------------------------|
A--------------------------------------------------|
E--------------------------------------------------|


E-19-19-19-19-19-19-19-19-19-19-19-19-19-19-19--|
B-19-19-19-19-19-19-19-19-19-19-19-19-19-19-19--|
G-----------------------------------------------|
D-----------------------------------------------|
A-----------------------------------------------|
E-----------------------------------------------|


E-----------------------------------------------|
B--24-24-24--24-24-24--12-12-12-12-12-12-12-12--|
G-----------------------------------------------|
D-----------------------------------------------|
A-----------------------------------------------|
E-----------------------------------------------|


E--------------------------------------------------------------------|
B-12-12-12-12-12-12-12-12-12-12-12-12-12-12-12-12-17-17-17-15-15-15--|
G--------------------------------------------------------------------|
D--------------------------------------------------------------------|
A--------------------------------------------------------------------|
E--------------------------------------------------------------------|

Brian uses a crazy F/X thing at the beginning but I'm quite sure what he uses there though.

This is my first placebo tab so can you please rate it cheers
Enjoy.

Lyrics for Bionic

Harder faster, forever after,
harder faster, forever after,
harder faster, forever after,
forever after.

None of you can make the grade,
none of you can make the grade,
none of you can make the grade,
none of you can make the grade.

Harder faster, forever after,
harder faster, forever after,
harder faster, forever after,
forever after.

None of you can make the grade,
none of you can make the grade,
none of you can make the grade,
none of you can make the grade.
comments
We did not receive enough feedback on this tab! Please rate:
print report bad tab
1 2 3 4 5
1 comment total.
0 reply
BadtzMaru wrote on December 7 2008, 08:37 pm

sweet dude :3

I want to post or [tab]
guest
You may want to rate the tab now too:
select rating
Please do not post tabs as comments. Select "correction" instead!