Oops, an error
Loading. Please wait.

Loud Like Love Tab

ver1
ver1

Album

Whole song

Interactive

More versions @911Tabs.com
2,160 views 21 this week
no commentswrite comment
1 2 3 4 5
worth learning
x 2
Autoscroll
+/-
esc
set tempo
stop
Contributor
Hey! There's an official Ultimate Guitar app which is ideal
for learning songs when you're away from computer. Get the app
WARNING: You are trying to view
                                    content from Ultimate-Guitar.com
                                    in an unauthorized application,
                                    which is prohibited.

                                    Please use an official Ultimate
                                    Guitar Tabs application for iPhone,
                                    iPad or Android to access legitimate
                                    chords, guitar, bass, and drum tabs
                                    from Ultimate-Guitar.com database.

                                    Type "ultimate guitar tabs" in Apple
                                    App Store's or Android Market's
                                    search to find the application.
================
PLACEBO
----------------
Loud Like Love
================

It's roundabout three months ago Placebo released
this very fantastic album and I decided to make one
big tab of all songs by their album 'Loud Like Love' !
It might not be 100% accurate sometimes, but 'tis just
what I was able to hear and what I play and what sounds
good too, I think.
Those are all guitar tabs instead of Scene of the Crime
which I've tabbed out for bass.
Tabbed by 8991placebo, enjoy!
=================================================================
1. Loud Like Love
   Tuning: EADGBe with Capo 1st fret.
   Played by: Stefan Olsdal

Intro
E |-------------------------------------------------------------------------|
B |------0---------0--------0---------0--------0---------0------0---------0-|
G |-----3--------3---3-----3--------3---3-----3--------3--3----3--------3--3|
D |----------4-44------4-4------------------------------------------0-00----|
A |-4-4-------------------------4-44----------------------------------------|
E |---------------------------------------4-4------4-44----4-4--------------|

Verse 1 'Love on an atom, love on a cloud'
E |-------------------------------------------------------------------------|
B |------0---------0--------0---------0--------0---------0------0---------0-|
G |-----3--------3---3-----3--------3---3-----3--------3--3----3--------3--3|
D |----------4-44------4-4------------------------------------------0-00----|
A |-4-4-------------------------4-44----------------------------------------|
E |---------------------------------------4-4------4-44----4-4--------------|

Pre-Chorus 'For all of our youth'
E | --------------------------------------------------------------------- |
B | --------------------------------------------------------------------- |
G | -8-8-8-8-8-8-8-8-8-8-8--6-6-6-6-6-6-6-6-6-6-------------------------- |
D | -8-8-8-8-8-8-8-8-8-8-8--6-6-6-6-6-6-6-6-6-6-------------------------- |
A | -6-6-6-6-6-6-6-6-6-6-6--4-4-4-4-4-4-4-4-4-4-------------------------- |
E | --------------------------------------------------------------------- |


Chorus 'Breathe, breathe, breathe, breathe, believe,...'
E |-------------------------------------------------------------------------|
B |------0---------0--------0---------0--------0---------0------0---------0-|
G |-----3--------3---3-----3--------3---3-----3--------3--3----3--------3--3|
D |----------4-44------4-4------------------------------------------0-00----|
A |-4-4-------------------------4-44----------------------------------------|
E |---------------------------------------4-4------4-44----4-4--------------|

Verse 2
E |-------------------------------------------------------------------------|
B |------0---------0--------0---------0--------0---------0------0---------0-|
G |-----3--------3---3-----3--------3---3-----3--------3--3----3--------3--3|
D |----------4-44------4-4------------------------------------------0-00----|
A |-4-4-------------------------4-44----------------------------------------|
E |---------------------------------------4-4------4-44----4-4--------------|

Pre-Chorus 'For all of our youth'
E | --------------------------------------------------------------------- |
B | --------------------------------------------------------------------- |
G | -8-8-8-8-8-8-8-8-8-8-8--6-6-6-6-6-6-6-6-6-6-------------------------- |
D | -8-8-8-8-8-8-8-8-8-8-8--6-6-6-6-6-6-6-6-6-6-------------------------- |
A | -6-6-6-6-6-6-6-6-6-6-6--4-4-4-4-4-4-4-4-4-4-------------------------- |
E | --------------------------------------------------------------------- |

Guitars 1 + 2 are the same until the part 'We have craved them...'

E | --------------------------------------------------------------------- |
B | --------------------------------------------------------------------- |
G | ----------------------5---------------------------------------------- |
D | ---------------5--8------8--8--8--8--8------------------------------- |
A | -6-6-6-6-6-6-8------------------------------------------------------- |
E | --------------------------------------------------------------------- |

E | --------------------------------------------------------------------- |
B | --------------------------------------------------------------------- |
G | ----------------------3---------------------------------------------- |
D | ---------------3--6------6-6-6-6-6-6-6-6----------------------------- |
A | -4-4-4-4-4-4-6------------------------------------------------------- |
E | --------------------------------------------------------------------- |


Chorus 'We are loud like love'
This is actually the effect Fiona is playing
but you can also play this with a guitar
E |-8-----11-8-------8-------8---------------------------|
B |----9--------9-------9-------9------------------------|
G |---------------------------------8--------------------|
D |------------------------------------------------------|
A |------------------------------------------------------|
E |------------------------------------------------------|

Outro
E | --------------------------------------------------------------------- |
B | ----------0------------0----------------0------------0--------------- |
G | -------3-----------3------3----------3------------3-----3------------ |
D | ---------------------------------------------0-0--------------------- |
A | --------------------------------------------------------------------- |
E | -4-4---------4-4---------------4-4--------------------------4-------- |


=========================================
2. Scene of the Crime
   Tuning: F# A# D# G#
   Played by: Stefan Olsdal

Start before 'We almost made it, but making it was overrated'
G#| ------9---------------------10-------------------------- |
D#| -7--------x4------------10------------------------------ |
A#| ----------------------------------x4-------------------- |
F#| -------------------------------------------------------- |

'Scene of the crime, friend or foe,...'
G#| -------------------------------------------------------- |
D#| -7-7-7-7-7-7-7-7-7----5--7-7-7-7-7-7-7-7--5-5-5-5------- |
A#| --------------------7----------------------------------- |
F#| -------------------------------------------------------- |

G#| -------------------------------------------------------- |
D#| -3-3-3-3-3-3-3-3-3-3---0-3-3-3-3-3-3-3-3-5-5-5-5-5------ |
A#| ---------------------3---------------------------------- |
F#| -------------------------------------------------------- |

End on:
G#| -------------------------------------------------------- |
D#| -3-3-5-5-5-5-7------------------------------------------ |
A#| -------------------------------------------------------- |
F#| -------------------------------------------------------- |

You can play this after 'beneath that shakes, undo all way'
G#| ------9---------------------10-------------------------- |
D#| -7--------x4------------10------------------------------ |
A#| ----------------------------------x4-------------------- |
F#| -------------------------------------------------------- |

After that interlude:
'Making it was overrated'
G#| -------------------------------------------------------- |
D#| -7-7-7-7-7-7-7-7-7----5--7-7-7-7-7-7-7-7--5-5-5-5------- |
A#| --------------------7----------------------------------- |
F#| -------------------------------------------------------- |

G#| -------------------------------------------------------- |
D#| -3-3-3-3-3-3-3-3-3-3---0-3-3-3-3-3-3-3-3-5-5-5-5-5------ |
A#| ---------------------3---------------------------------- |
F#| -------------------------------------------------------- |

End on:
G#| -------------------------------------------------------- |
D#| -3-3-5-5-5-5-7------------------------------------------ |
A#| -------------------------------------------------------- |
F#| -------------------------------------------------------- |

Outro
G#| -------------------------------------------------------- |
D#| -------------------------------------------------------- |
A#| -------------------------------------------------------- |
F#| -6-6-6-6-6-6-6-6-6-0-6-6-6-6-6-6------------------------ |

G#| -------------------------------------------------------- |
D#| -------------------------------------------------------- |
A#| -------------------------------------------------------- |
F#| -2-2-2-2-2-2-2-2-2-0-2-2-2-2-2/4-4-4-4-4---------------- |

It might not be 100% perfect but it sounds and
looks pretty right to me when I watch Stef
playing it on the LLL DVD (:
Feel free to correct the tabs!

====================================================
3. Too Many Friends
   Tuning: Guitar 1: EADGBe with Capo 3rd fret (by Brian Molko)
           Guitar 2: EADGBe (by Stefan Olsdal as Piano mostly)
           Guitar 3: EADGBe (by Nick Gavrilovic as an effect)

   Tab 100% by 8991placebo!

Intro + Verse Guitar 2
E | --------------------------------------------------------------------- |
B | --------------------------------------------------------------------- |
G | ----7----------7------------7---------7---------7-----7-/------------ |
D | -------7-----------7-----------7---------7--------------------------- |
A | -5---------5------------5---------5---------5------5----/------------ |
E | --------------------------------------------------------------------- |

E | --------------------------------------------------------------------- |
B | --------------------------------------------------------------------- |
G | ---10---------10-----------10--------10--------10-----10/------------ |
D | ------10----------10----------10--------10--------------------------- |
A | -8---------8------------8---------8---------8------8----/------------ |
E | --------------------------------------------------------------------- |

E | --------------------------------------------------------------------- |
B | --------------------------------------------------------------------- |
G | ---12---------12-----------12--------12--------12-----12\------------ |
D | ------12----------12----------12--------12--------------------------- |
A | 10--------10-----------10--------10---------10----10----\------------ |
E | --------------------------------------------------------------------- |

E | --------------------------------------------------------------------- |
B | --------------------------------------------------------------------- |
G | ----2----------2------------2---------2---------2-----2-------------- |
D | -------2-----------2-----------2---------2--------------------------- |
A | -0---------0------------0---------0---------0------0----------------- |
E | --------------------------------------------------------------------- |

Guitar 1 can already join with these chords: (CAPO 3RD FRET)
Em                       D
  My computer thinks I'm gay
                            C
I threw that piece of junk away

On the Champs-Elysées, as I was walking home


Em                        D
  This is my last communiqué
                    C
Down the supper highway

All that I have left to say, in a single tome


     G
I got too many friends
                     D
Too many people that I'll never meet
                        Em
And I'll never be there for
                    C
I'll never be there for, 'cause I'll never be there

Verse 2:
Guitar 2 keep playing the riff above!
Guitar 1 keep the chords E D C
Guitar 3:
E | ----------------------|------------------ |
B | --------------6-------|-----------6--6--- |
G | ---------7/8-----7----|--------7-------7- |
D | ------7---------------|-----7------------ |
A | ---5------------------|--4--------------- |
E | ----------------------|------------------ |

Chorus:

Guitar 1: Keep playing the chords C D Em C as in the interlude above

Guitar 2 (strumming)
E | --------------------------------------------------------------------- |
B | --------------------------------------------------------------------- |
G | --7-------------10----------12-------------------2------------------- |
D | --7-------------10----------12-------------------2------------------- |
A | --5-------------8-----------10-------------------0------------------- |
E | --------------------------------------------------------------------- |

Small instrumental after the chorus:
Guitar 3
E | --------------5------------------------------- |
B | -------7--------------7--------------------2x- |
G | -----7------7------7-------7--------7--------- |
D | ------------------------------0--------------- |
A | ---------------------------------------------- |
E | ---------------------------------------------- |

E | ------5-----------------------------5-------------------------------- |
B | -------------------7------------------------------------------------- |
G | --7------7------7-------7-------7------7---7-8-7--------------------- |
D | --------------------------------------------------------------------- |
A | --------------------------------------------------------------------- |
E | --------------------------------------------------------------------- |

E | ------5-----------------------------5-------------------------------- |
B | -------------------7------------------------------------------------- |
G | --7------7------7-------7-------7------7---7-8-10-12^---------------- |
D | --------------------------------------------------------------------- |
A | --------------------------------------------------------------------- |
E | --------------------------------------------------------------------- |

Breakdown, only guitar 1
Em                       D
  My computer thinks I'm gay
                         C
What's the difference anyway
                           C
When all the people do all day, is stare into a phone

Last Chorus:
Guitar 1, keep G D Em C (G)
Guitar 2, keep the same pattern as above
Guitar 3, completely at the ending:
E | --------------------------------------------------------------------- |
B | --15-15-15-15-15--13-13-13-13-13--11-11-11-11---15-15-15-15-13-15-15- |
G | --------------------------------------------------------------------- |
D | --------------------------------------------------------------------- |
A | --------------------------------------------------------------------- |
E | --------------------------------------------------------------------- |

====================================================
4. Hold On To Me
   Tuning: E A D G B e
   Played by Stefan Olsdal
   Tab 100% by 8991placebo!
Intro + Verse 1:

E | --------------------------------------------------------------------- |
B | --------------------------------------------------------------------- |
G | --------------------------------------------------------------------- |
D | -13--15------15-------15---------15---------------------------------- |
A | ---------13-------16--------13--------------------------------------- |
E | --------------------------------------------------------------------- |

Chorus:
E | --------------------------------------------------------------------- |
B | --------6--------6------6---------4----------4--------4-------------- |
G | -----6--------6----------------5---------5--------------------------- |
D | --8--------8--------8-------6--------6-----------6------------------- |
A | --------------------------------------------------------------------- |
E | --------------------------------------------------------------------- |

E | --------------------------------------------------------------------- |
B | --------4--------4------4----------2--------2-------2---------------- |
G | -----3--------3-----------------3--------3--------------------------- |
D | --4-------4---------4--------4--------4---------4-------------------- |
A | --------------------------------------------------------------------- |
E | --------------------------------------------------------------------- |

Verse 2:
E | --------------------------------------------------------------------- |
B | --------------------------------------------------------------------- |
G | --------------------------------------------------------------------- |
D | -13--15------15-------15---------15---------------------------------- |
A | ---------13-------16--------13--------------------------------------- |
E | --------------------------------------------------------------------- |

Chorus x2
E | --------------------------------------------------------------------- |
B | --------6--------6------6---------4----------4--------4-------------- |
G | -----6--------6----------------5---------5--------------------------- |
D | --8--------8--------8-------6--------6-----------6------------------- |
A | --------------------------------------------------------------------- |
E | --------------------------------------------------------------------- |

E | --------------------------------------------------------------------- |
B | --------4--------4------4----------2--------2-------2---------------- |
G | -----3--------3-----------------3--------3--------------------------- |
D | --4-------4---------4--------4--------4---------4-------------------- |
A | --------------------------------------------------------------------- |
E | --------------------------------------------------------------------- |

Outro
E | --------------------------------------------------------------------- |
B | --------------------------------------------------------------------- |
G | --------------------------------------------------------------------- |
D | -15-------13--------------------13----------------------------------- |
A | -----13-------13----16--13----------13------------------------------- |
E | --------------------------------------------------------------------- |

That short violin interlude:
E | --------------------------------------------------------------------- |
B | --3---1-------------------------------------------------------------- |
G | ----------------3-----3br-------------------------------------------- |
D | -------------------------3---1--------------2----3---4---6--8-10--12- |
A | --------------------------------------------------------------------- |
E | --------------------------------------------------------------------- |

Afterwards guitar continues like that again:
E | --------------------------------------------------------------------- |
B | --------------------------------------------------------------------- |
G | --------------------------------------------------------------------- |
D | -15-------13--------------------13----------------------------------- |
A | -----13-------13----16--13----------13------------------------------- |
E | --------------------------------------------------------------------- |
Finished this song so far! (:

====================================================
5. Rob The Bank
   Tuning: E A D G B e
   Played by Stefan Olsdal

   Tab 100% by 8991placebo!

Verse 1 (not sure whether this was just bass but wayne.)
You will be able to find out when to swap which chord.

Riff 1 (Choruses):

E | --------------------------------------------------------------------- |
B | -11/16-16-15-14-12-14--14-14-15----12-10----12-10-12--(12-12-12-12)-- |
G | --------------------------------------------------------------------- |
D | --------------------------------------------------------------------- |
A | --------------------------------------------------------------------- |
E | --------------------------------------------------------------------- |

Riff 2 (Verses):

E | --------------------------------------------------------------------- |
B | --------------------------------------------------------------------- |
G | -11-11--11-11--11-11---7-7-7-7-7-7-7--------------------------------- |
D | -9--9---9--9---9--9----9-9-9-9-9-9-9--------------------------------- |
A | --------------------------------------------------------------------- |
E | --------------------------------------------------------------------- |

Riff 3 (Bridge)

E | -------------------|------------------------------------------------- |
B | ---12-10--12-10----|12-12-12-12-13-13-13-13-14-14-14-15-15-15-15-15-- |
G | -------------------|------------------------------------------------- |
D | -11-------------x2-|------------------------------------------------- |
A | -------------------|------------------------------------------------- |
E | -------------------|------------------------------------------------- |

Riff 4 (that very fast outro)

E | --------------------------------------------------------------------- |
B | -16-18-16-18-12-13-12-13--------------------------------------------- |
G | --------------------------------------------------------------------- |
D | --------------------------------------------------------------------- |
A | --------------------------------------------------------------------- |
E | --------------------------------------------------------------------- |

That's what I play. Sounds pretty right to me.

====================================================
6. A Million Little Pieces
   Tuning: E A D G B e Guitar 1 by Stefan Olsdal
           D G C F A d Guitar 2 by Brian Molko
           D G C F A d Guitar 3 by Fiona Brice as Piano

   Tab 100% by 8991placebo!

Pre-Verse

E | -11-11-11-11-11-11-11-------9-9-9-9-9-9-9-9-9-9-9-9------------------ |
B | -11-11-11-11-11-11-11-------9-9-9-9-9-9-9-9-9-9-9-9------------------ |
G | --------------------------------------------------------------------- |
D | --------------------------------------------------------------------- |
A | --------------------------------------------------------------------- |
E | --------------------------------------------------------------------- |

E | -11-11-11-11-11-11-11-------6-6-6-6-6-6-4-4-4-4-4-4------------------ |
B | -11-11-11-11-11-11-11-------6-6-6-6-6-6-4-4-4-4-4-4------------------ |
G | --------------------------------------------------------------------- |
D | --------------------------------------------------------------------- |
A | --------------------------------------------------------------------- |
E | --------------------------------------------------------------------- |


Verse 1 (seems to be what Nick is playing with his
Gibson Les Paul or acoustic guitar he uses on the DVD)

E | --------------------------------------------------------------------- |
B | --------------------------------------------------------------------- |
G | --------------------------------------------------------------------- |
D | -11-11-11-11-11-11-11-11----8~~-------------------------------------- |
A | -11-11-11-11-11-11-11-11----8~~-------------------------------------- |
E | -9--9--9--9--9--9--9--9-----6~~-------------------------------------- |

Refrain

E | -11-11-11-11-11-11-11-------9-9-9-9-9-9-9-9-9-9-9-9------------------ |
B | -11-11-11-11-11-11-11-------9-9-9-9-9-9-9-9-9-9-9-9------------------ |
G | --------------------------------------------------------------------- |
D | --------------------------------------------------------------------- |
A | --------------------------------------------------------------------- |
E | --------------------------------------------------------------------- |

E | -11-11-11-11-11-11-11-------6-6-6-6-6-6-4-4-4-4-4-4------------------ |
B | -11-11-11-11-11-11-11-------6-6-6-6-6-6-4-4-4-4-4-4------------------ |
G | --------------------------------------------------------------------- |
D | --------------------------------------------------------------------- |
A | --------------------------------------------------------------------- |
E | --------------------------------------------------------------------- |

Verse 2

E | --------------------------------------------------------------------- |
B | --------------------------------------------------------------------- |
G | --------------------------------------------------------------------- |
D | -11-11-11-11-11-11-11-11----8~~-------------------------------------- |
A | -11-11-11-11-11-11-11-11----8~~-------------------------------------- |
E | -9--9--9--9--9--9--9--9-----6~~-------------------------------------- |


Refrain

E | -11-11-11-11-11-11-11-------9-9-9-9-9-9-9-9-9-9-9-9------------------ |
B | -11-11-11-11-11-11-11-------9-9-9-9-9-9-9-9-9-9-9-9------------------ |
G | --------------------------------------------------------------------- |
D | --------------------------------------------------------------------- |
A | --------------------------------------------------------------------- |
E | --------------------------------------------------------------------- |

E | -11-11-11-11-11-11-11-------6-6-6-6-6-6-4-4-4-4-4-4------------------ |
B | -11-11-11-11-11-11-11-------6-6-6-6-6-6-4-4-4-4-4-4------------------ |
G | --------------------------------------------------------------------- |
D | --------------------------------------------------------------------- |
A | --------------------------------------------------------------------- |
E | --------------------------------------------------------------------- |

E | -6-6-6-6-6-6-9-9-9-9-11-11-11-11--9-9-9-9-9-9------------------------ |
B | -6-6-6-6-6-6-9-9-9-9-11-11-11-11--9-9-9-9-9-9------------------------ |
G | --------------------------------------------------------------------- |
D | --------------------------------------------------------------------- |
A | --------------------------------------------------------------------- |
E | --------------------------------------------------------------------- |

E | -9-9-9-9-9-9-9-7/11-11-11-11-11-9/14-14-14-14-14-16-16-16-16-16--12~~ |
B | --------------------------------------------------------------------- |
G | --------------------------------------------------------------------- |
D | --------------------------------------------------------------------- |
A | --------------------------------------------------------------------- |
E | --------------------------------------------------------------------- |


Interlude - nothing

Outro

E | -11-11-11-11-11-11-11-------9-9-9-9-9-9-9-9-9-9-9-9------------------ |
B | -11-11-11-11-11-11-11-------9-9-9-9-9-9-9-9-9-9-9-9------------------ |
G | --------------------------------------------------------------------- |
D | --------------------------------------------------------------------- |
A | --------------------------------------------------------------------- |
E | --------------------------------------------------------------------- |

E | -11-11-11-11-11-11-11-------6-6-6-6-6-6-4-4-4-4-4-4------------------ |
B | -11-11-11-11-11-11-11-------6-6-6-6-6-6-4-4-4-4-4-4------------------ |
G | --------------------------------------------------------------------- |
D | --------------------------------------------------------------------- |
A | --------------------------------------------------------------------- |
E | --------------------------------------------------------------------- |

E | -14-14-14-14-11-11-11-------9-9-9-9-9-9-9-9-9-9-9-9------------------ |
B | -14-14-14-14-11-11-11-------9-9-9-9-9-9-9-9-9-9-9-9------------------ |
G | --------------------------------------------------------------------- |
D | --------------------------------------------------------------------- |
A | --------------------------------------------------------------------- |
E | --------------------------------------------------------------------- |

E | -14-14-14-14-11-11-11-------6-6-6-6-6-6-4-4-4-4-4-4------------------ |
B | -14-14-14-14-11-11-11-------6-6-6-6-6-6-4-4-4-4-4-4------------------ |
G | --------------------------------------------------------------------- |
D | --------------------------------------------------------------------- |
A | --------------------------------------------------------------------- |
E | --------------------------------------------------------------------- |

E | -6-6-6-6-6-6-9-9-9-9-11-11-11-11--9-9-9-9-9-9------------------------ |
B | -6-6-6-6-6-6-9-9-9-9-11-11-11-11--9-9-9-9-9-9------------------------ |
G | --------------------------------------------------------------------- |
D | --------------------------------------------------------------------- |
A | --------------------------------------------------------------------- |
E | --------------------------------------------------------------------- |

E | -9-9-9-9-9-9-9-7/11-11-11-11-11-9/14-14-14-14-14-16-16-16-16-16--12~~ |
B | --------------------------------------------------------------------- |
G | --------------------------------------------------------------------- |
D | --------------------------------------------------------------------- |
A | --------------------------------------------------------------------- |
E | --------------------------------------------------------------------- |

Guitar: (D G C F A d; Distortion)

d | -------------8--------------------------------------------------------------- |
A | -------------9--------------------------------------------------------------- |
F | ------------10--------------------------------------------------------------- |
C | ------------10--------------------------------------------------------------- |
G | -------------8--------------------------------------------------------------- |
D | -------------8--------------------------------------------------------------- |


d | -----8-------11-------------------------------------------------------------- |
A | -----9-------11-------------------------------------------------------------- |
F | -...10-------12-------------------------------------------------------------- |
C | ----10-------13-------------------------------------------------------------- |
G | -----8-------13-------------------------------------------------------------- |
D | -----8-------11-------------------------------------------------------------- |


d | -------------8----------------------------------------------------------------- |
A | -------------9----------------------------------------------------------------- |
F | ------------10----------------------------------------------------------------- |
C | ------------10----------------------------------------------------------------- |
G | -------------8----------------------------------------------------------------- |
D | -------------8----------------------------------------------------------------- |

d | -----8-------11-------------------------------------------------------------- |
A | -----9-------11-------------------------------------------------------------- |
F | -...10-------12-------------------------------------------------------------- |
C | ----10-------13-------------------------------------------------------------- |
G | -----8-------13-------------------------------------------------------------- |
D | -----8-------11-------------------------------------------------------------- |


That's the distortionized Guitar Riff for the whole song!

Guitar 3 (D G C F A d; Piano Riff) by Fiona Brice

== is 'let the note ring'

The most varied part in this song

d | ----------------------------------------------------------------------------- |
A | ---------------13=========11=========9----11========-6======================= |
F | -----11---13----------------------------------------------------------------- |
C | 13--------------------------------------------------------------------------- |
G | ----------------------------------------------------------------------------- |
D | ----------------------------------------------------------------------------- |


d | ----------------------------------------------------------------------------- |
A | ---------------13=========11=========9----11========------------------------- |
F | -----11---13-----------------------------------------8======================= |
C | 13--------------------------------------------------------------------------- |
G | ----------------------------------------------------------------------------- |
D | ----------------------------------------------------------------------------- |


d | ----------------------------------------------------------------------------- |
A | ---------------13=========11=========9----11========-6======================= |
F | -----11---13----------------------------------------------------------------- |
C | 13--------------------------------------------------------------------------- |
G | ----------------------------------------------------------------------------- |
D | ----------------------------------------------------------------------------- |


d | ----------------------------------------------------------------------------- |
A | ---------------13=========11=========9----11========------------------------- |
F | -----11---13-----------------------------------------8======================= |
C | 13--------------------------------------------------------------------------- |
G | ----------------------------------------------------------------------------- |
D | ----------------------------------------------------------------------------- |

d | ----------------------------------------------------------------------------- |
A | ----------------------------------------------------------------------------- |
F | -----11---13================================================================= |
C | 13--------------------------------------------------------------------------- |
G | ----------------------------------------------------------------------------- |
D | ----------------------------------------------------------------------------- |

Chorus:

d | ----------------------------------------------------------------------------- |
A | ---------------13=========11=========9----11========-6======================= |
F | -----11---13----------------------------------------------------------------- |
C | 13--------------------------------------------------------------------------- |
G | ----------------------------------------------------------------------------- |
D | ----------------------------------------------------------------------------- |


d | ----------------------------------------------------------------------------- |
A | ---------------13=========11=========9----11========------------------------- |
F | -----11---13-----------------------------------------8======================= |
C | 13--------------------------------------------------------------------------- |
G | ----------------------------------------------------------------------------- |
D | ----------------------------------------------------------------------------- |

d | ----------------------------------------------------------------------------- |
A | ---------------13=========11=========9----11========-6======================= |
F | -----11---13----------------------------------------------------------------- |
C | 13--------------------------------------------------------------------------- |
G | ----------------------------------------------------------------------------- |
D | ----------------------------------------------------------------------------- |

d | ----------------------------------------------------------------------------- |
A | ----------------------------------------------------------------------------- |
F | -----11---13================================================================= |
C | 13--------------------------------------------------------------------------- |
G | ----------------------------------------------------------------------------- |
D | ----------------------------------------------------------------------------- |

Verse, beginning:

d | ----------------------------------------------------------------------------- |
A | ----------------------------------------------------------------------------- |
F | -----11---13================================================================= |
C | 13--------------------------------------------------------------------------- |
G | ----------------------------------------------------------------------------- |
D | ----------------------------------------------------------------------------- |

Chorus 2:

d | ----------------------------------------------------------------------------- |
A | ---------------13=========11=========9----11========-6======================= |
F | -----11---13----------------------------------------------------------------- |
C | 13--------------------------------------------------------------------------- |
G | ----------------------------------------------------------------------------- |
D | ----------------------------------------------------------------------------- |


d | ----------------------------------------------------------------------------- |
A | ----------------------------------------------------------------------------- |
F | -----11---13================================================================= |
C | 13--------------------------------------------------------------------------- |
G | ----------------------------------------------------------------------------- |
D | ----------------------------------------------------------------------------- |

d | ----------------------------------------------------------------------------- |
A | ---------------13=========11=========9----11========-6======================= |
F | -----11---13----------------------------------------------------------------- |
C | 13--------------------------------------------------------------------------- |
G | ----------------------------------------------------------------------------- |
D | ----------------------------------------------------------------------------- |

d | ----------------------------------------------------------------------------- |
A | ----------------------------------------------------------------------------- |
F | -----11---13================================================================= |
C | 13--------------------------------------------------------------------------- |
G | ----------------------------------------------------------------------------- |
D | ----------------------------------------------------------------------------- |


d | ----------------------------------------------------------------------------- |
A | -----11---13---11---------11---13----11--------11----13---11-------11--13--11 |
F | 13-------------------13-------------------13-------------------13------------ |
C | ----------------------------------------------------------------------------- |
G | ----------------------------------------------------------------------------- |
D | ----------------------------------------------------------------------------- |


d | ----------------------------------------------------------------------------- |
A | -----11---13---11---------11---13----11--------11----13---11-------11--13--11 |
F | 13-------------------13-------------------13-------------------13------------ |
C | ----------------------------------------------------------------------------- |
G | ----------------------------------------------------------------------------- |
D | ----------------------------------------------------------------------------- |


d | ----------------------------------------------------------------------------- |
A | -----11---13---11---------11---13----11--------11----13---11-------11--13--11 |
F | 13-------------------13-------------------13-------------------13------------ |
C | ----------------------------------------------------------------------------- |
G | ----------------------------------------------------------------------------- |
D | ----------------------------------------------------------------------------- |


d | ----------------------------------------------------------------------------- |
A | -----11---13---11---------11---13----11--------11----13---11-------11--13--11 |
F | 13-------------------13-------------------13-------------------13------------ |
C | ----------------------------------------------------------------------------- |
G | ----------------------------------------------------------------------------- |
D | ----------------------------------------------------------------------------- |

Bridge:

d | ------------------------------------------------------------------------17=== |
A | -------------------------------------------------------------------11-------- |
F | ----------------------------------------------------------------------------- |
C | ----------------------------------------------------------------------------- |
G | ----------------------------------------------------------------------------- |
D | ----------------------------------------------------------------------------- |

d | ------------------------------------------------------------------------17=== |
A | 13=================================================================11-------- |
F | ----------------------------------------------------------------------------- |
C | ----------------------------------------------------------------------------- |
G | ----------------------------------------------------------------------------- |
D | ----------------------------------------------------------------------------- |


d | ----------------------------------------------------------------------------- |
A | ----------------13=====================================================-11-18 |
F | ----------------------------------------------------------------------------- |
C | ----------------------------------------------------------------------------- |
G | ----------------------------------------------------------------------------- |
D | 3==============-------------------------------------------------------------- |


d | ----------------------------------------------------------------------------- |
A | 13=====================================================================11--18 |
F | ----------------------------------------------------------------------------- |
C | ----------------------------------------------------------------------------- |
G | ----------------------------------------------------------------------------- |
D | ----------------------------------------------------------------------------- |

d | ------------------------------------------------------------------------17=== |
A | 13=================================================================11-------- |
F | ----------------------------------------------------------------------------- |
C | ----------------------------------------------------------------------------- |
G | ----------------------------------------------------------------------------- |
D | ----------------------------------------------------------------------------- |


d | ------------------------------------------------------------------------17=== |
A | 13=================================================================11-------- |
F | ----------------------------------------------------------------------------- |
C | ----------------------------------------------------------------------------- |
G | ----------------------------------------------------------------------------- |
D | ----------------------------------------------------------------------------- |

d | ----------------------------------------------------------------------------- |
A | ----------------13=====================================================-11-18 |
F | ----------------------------------------------------------------------------- |
C | ----------------------------------------------------------------------------- |
G | ----------------------------------------------------------------------------- |
D | 3==============-------------------------------------------------------------- |


d | ----------------------------------------------------------------------------- |
A | 13=========================================================================== |
F | ----------------------------------------------------------------------------- |
C | ----------------------------------------------------------------------------- |
G | ----------------------------------------------------------------------------- |
D | ----------------------------------------------------------------------------- |

Chorus 3:


d | ----------------------------------------------------------------------------- |
A | ---------------13=========11=========9----11========-6======================= |
F | -----11---13----------------------------------------------------------------- |
C | 13--------------------------------------------------------------------------- |
G | ----------------------------------------------------------------------------- |
D | ----------------------------------------------------------------------------- |


d | ----------------------------------------------------------------------------- |
A | ----------------------------------------------------------------------------- |
F | -----11---13================================================================= |
C | 13--------------------------------------------------------------------------- |
G | ----------------------------------------------------------------------------- |
D | ----------------------------------------------------------------------------- |


d | ----------------------------------------------------------------------------- |
A | ---------------13=========11=========9----11========-6======================= |
F | -----11---13----------------------------------------------------------------- |
C | 13--------------------------------------------------------------------------- |
G | ----------------------------------------------------------------------------- |
D | ----------------------------------------------------------------------------- |


d | ----------------------------------------------------------------------------- |
A | ----------------------------------------------------------------------------- |
F | -----11---13================================================================= |
C | 13--------------------------------------------------------------------------- |
G | ----------------------------------------------------------------------------- |
D | ----------------------------------------------------------------------------- |


d | ----------------------------------------------------------------------------- |
A | ---------------13=========11=========9----11========-6======================= |
F | -----11---13----------------------------------------------------------------- |
C | 13--------------------------------------------------------------------------- |
G | ----------------------------------------------------------------------------- |
D | ----------------------------------------------------------------------------- |

d | ----------------------------------------------------------------------------- |
A | ----------------------------------------------------------------------------- |
F | -----11---13================================================================= |
C | 13--------------------------------------------------------------------------- |
G | ----------------------------------------------------------------------------- |
D | ----------------------------------------------------------------------------- |

d | ----------------------------------------------------------------------------- |
A | ---------------13=========11=========9----11========-6======================= |
F | -----11---13----------------------------------------------------------------- |
C | 13--------------------------------------------------------------------------- |
G | ----------------------------------------------------------------------------- |
D | ----------------------------------------------------------------------------- |


d | ----------------------------------------------------------------------------- |
A | ----------------------------------------------------------------------------- |
F | -----11---13================================================================= |
C | 13--------------------------------------------------------------------------- |
G | ----------------------------------------------------------------------------- |
D | ----------------------------------------------------------------------------- |


d | ----------------------------------------------------------------------------- |
A | ---------------13=========11=========9----11========-6======================= |
F | -----11---13----------------------------------------------------------------- |
C | 13--------------------------------------------------------------------------- |
G | ----------------------------------------------------------------------------- |
D | ----------------------------------------------------------------------------- |

d | ----------------------------------------------------------------------------- |
A | ----------------------------------------------------------------------------- |
F | -----11---13================================================================= |
C | 13--------------------------------------------------------------------------- |
G | ----------------------------------------------------------------------------- |
D | ----------------------------------------------------------------------------- |


d | ----------------------------------------------------------------------------- |
A | -----11---13---11---------11---13----11--------11----13---11-------11--13--11 |
F | 13-------------------13-------------------13-------------------13------------ |
C | ----------------------------------------------------------------------------- |
G | ----------------------------------------------------------------------------- |
D | ----------------------------------------------------------------------------- |

d | ----------------------------------------------------------------------------- |
A | -----11---13---11---------11---13----11--------11----13---11-------11--13--11 |
F | 13-------------------13-------------------13-------------------13------------ |
C | ----------------------------------------------------------------------------- |
G | ----------------------------------------------------------------------------- |
D | ----------------------------------------------------------------------------- |

d | ----------------------------------------------------------------------------- |
A | -----11---13---11---------11---13----11--------11----13---11-------11--13--11 |
F | 13-------------------13-------------------13-------------------13------------ |
C | ----------------------------------------------------------------------------- |
G | ----------------------------------------------------------------------------- |
D | ----------------------------------------------------------------------------- |

d | ----------------------------------------------------------------------------- |
A | -----11---13---11---------11---13----11--------11----13---11-------11--13--11 |
F | 13-------------------13-------------------13-------------------13------------ |
C | ----------------------------------------------------------------------------- |
G | ----------------------------------------------------------------------------- |
D | ----------------------------------------------------------------------------- |

====================================================
7. Exit Wounds
   Tuning: E A D G B e with Capo 1st fret for Guitar 1 by Stefan Olsdal!
          [E A D G B e (with Capo 1st fret) for Guitar 2 by Fiona Brice as piano!]

Tab 100% by 8991placebo!

Intro + Verse 1
* means 'rest'
E | --------------------------------------------------------------------- |
B | --------------------------------------------------------------------- |
G | --------------------------------------------------------------------- |
D | -11-------11*------11*---10-------10*------10*----------------------- |
A | ----13-13-------13----------13-13-------13--------------------------- |
E | --------------------------------------------------------------------- |

E | --------------------------------------------------------------------- |
B | --------------------------------------------------------------------- |
G | --------------------------------------------------------------------- |
D | --------8*------8*----------10*------10/11*-------------------------- |
A | -9-9-9-------9--------9-9-9--------9--------------------------------- |
E | --------------------------------------------------------------------- |
Repeated many, many times!

Guitar 2 at the very ending of 1st verse:
Piano
E | --------------------------------------------------------------------- |
B | ------------------------------------12-------9----------------------- |
G | --12----------7-----------9--------------------------------x2-------- |
D | --------------------------------------------------------------------- |
A | --------------------------------------------------------------------- |
E | --------------------------------------------------------------------- |

Chorus:
Guitar 1
    G                        F
E | --------------------------------------------------------------------- |
B | --------------------------------------------------------------------- |
G | -8-8-8-8-8-8-8-8-8-8-8---11-11-11-11-11-11-11-11-11------------------ |
D | -8-8-8-8-8-8-8-8-8-8-8---11-11-11-11-11-11-11-11-11------------------ |
A | -6-6-6-6-6-6-6-6-6-6-6---9--9--9--9--9--9--9--9--9------------------- |
E | --------------------------------------------------------------------- |

Verse 2: (seems to be played a bit faster now)
E | --------------------------------------------------------------------- |
B | --------------------------------------------------------------------- |
G | --------------------------------------------------------------------- |
D | -11-------11*------11*---10-------10*------10*----------------------- |
A | ----13-13-------13----------13-13-------13--------------------------- |
E | --------------------------------------------------------------------- |

E | --------------------------------------------------------------------- |
B | --------------------------------------------------------------------- |
G | --------------------------------------------------------------------- |
D | --------8*------8*----------10*------10/11*-------------------------- |
A | -9-9-9-------9--------9-9-9--------9--------------------------------- |
E | --------------------------------------------------------------------- |

Guitar 2 at the very end:
Piano
E | --------------------------------------------------------------------- |
B | ------------------------------------12-------9----------------------- |
G | --12----------7-----------9--------------------------------x2-------- |
D | --------------------------------------------------------------------- |
A | --------------------------------------------------------------------- |
E | --------------------------------------------------------------------- |

Chorus 2
    G                        F
E | --------------------------------------------------------------------- |
B | --------------------------------------------------------------------- |
G | -8-8-8-8-8-8-8-8-8-8-8---11-11-11-11-11-11-11-11-11------------------ |
D | -8-8-8-8-8-8-8-8-8-8-8---11-11-11-11-11-11-11-11-11------------------ |
A | -6-6-6-6-6-6-6-6-6-6-6---9--9--9--9--9--9--9--9--9------------------- |
E | --------------------------------------------------------------------- |

Interlude:
     Am                     F
E | --------------------------------------------------------------------- |
B | -0--0--0--0--0--0--0------------------------------------------------- |
G | -10-10-10-10-10-10-10----11-11-11-11-11-11-11-11-11------------------ |
D | -10-10-10-10-10-10-10----11-11-11-11-11-11-11-11-11------------------ |
A | -0--0--0--0--0--0--0-----9--9--9--9--9--9--9--9--9------------------- |
E | --------------------------------------------------------------------- |
When you like playing the chords play Am, Asus2, F!
Once again chorus 3:
    G                        F
    G                        F
E | --------------------------------------------------------------------- |
B | --------------------------------------------------------------------- |
G | -8-8-8-8-8-8-8-8-8-8-8---11-11-11-11-11-11-11-11-11------------------ |
D | -8-8-8-8-8-8-8-8-8-8-8---11-11-11-11-11-11-11-11-11------------------ |
A | -6-6-6-6-6-6-6-6-6-6-6---9--9--9--9--9--9--9--9--9------------------- |
E | --------------------------------------------------------------------- |

Outro:
E | -13-13-13------------------------------------------------------------ |
B | ----------14---14-14-14-13-13-13-14br--16\(9)/11--11-11--11-11------- |
G | --------------------------------------------------------------------- |
D | --------------------------------------------------------------------- |
A | ---------------------------------------------------------------x3---- |
E | --------------------------------------------------------------------- |

E | -13-13-13------------------------------------------------------------ |
B | ----------14---14-14-14-13-13-13-14br--16\(9)/11--------------------- |
G | --------------------------------------------------------------------- |
D | --------------------------------------------------------------------- |
A | --------------------------------------------------------------------- |
E | --------------------------------------------------------------------- |

====================================================
8. Purify
   Tuning: D G C F A d (by Brian Molko)
           D A D G (by Stefan Olsdal)

Tab 100% by 8991placebo. (but bass is probably not 100% what Stef plays :D )

Verse 1:
'Space show, awareness, so much confusion...'
G | --------------------------------------------------------------------- |
D | --------------------------------------------------------------------- |
A | -12-12-12-12\0-0-0-0-0-3-0-----0/5/7*(7-7-7)------------------------- |
D#| --------------------------------------------------------------------- |

G | --------------------------------------------------------------------- |
D | --------------------------------------------------------------------- |
A | -0-0-0-0-0-3-0-----0/5/7*(7-7-7)------------------------------------- |
D#| --------------------------------------------------------------------- |

Pre-Chorus
             My kiss    can you feel it yet?
G | --------------------------------------------------------------------- |
D | --------------------------------------------------------------------- |
A | 0-0-0-0-------------------------------------------------------------- |
D#| ---------9-9-9-9-9-12-12-12-12-12-12-12-12--------------------------- |

Continued:
G | --------------------------------------------------------------------- |
D | --------------------------------------------------------------------- |
A | --------------------------------------------------------------------- |
D#| -12-12-12-12-12-12-12-12-15-15-15-15-18-18-18------------------------ |

Verse 2, same but keep playing the single notes:
G | --------------------------------------------------------------------- |
D | --------------------------------------------------------------------- |
A | -0-0-0-0-0-3-0-0-0-0-0-0-0-0-0-0---5-5-5-5-7-7-7-7-7-7-7-7-0-0-0-0--- |
D#| --------------------------------------------------------------------- |

End on:
G | --------------------------------------------------------------------- |
D | --------------------------------------------------------------------- |
A | -0-0-0-0-0-3-3-3-3-3-3-5-5-5-5-7-7-7-7-7-7-7-7----------------------- |
D#| --------------------------------------------------------------------- |

Pre-Chorus
             My kiss    can you feel it yet?
G | --------------------------------------------------------------------- |
D | --------------------------------------------------------------------- |
A | 0-0-0-0-------------------------------------------------------------- |
D#| ---------9-9-9-9-9-12-12-12-12-12-12-12-12--------------------------- |

Continued:
G | --------------------------------------------------------------------- |
D | --------------------------------------------------------------------- |
A | --------------------------------------------------------------------- |
D#| -12-12-12-12-12-12-12-12-15-15-15-15-18-18-18------------------------ |

Refrain 'you're so my kind'

G | --------------------------------------------------------------------- |
D | --------------------------------------------------------------------- |
A | -9-9-9-9-9-9-9-9-9-9-9-9-9-9--5-5-5-5/11\3-3-3-3-5-5-5-5-5-5-5-5-5-5- |
D#| --------------------------------------------------------------------- |

Interlude:
G | --------------------------------------------------------------------- |
D | --------------------------------------------------------------------- |
A | -12-12-12-12\0-0-0-0-0-3-0-----0/5/7*(7-7-7)------------------------- |
D#| --------------------------------------------------------------------- |

G | --------------------------------------------------------------------- |
D | --------------------------------------------------------------------- |
A | -0-0-0-0-0-3-0-----0/5/7*(7-7-7)------------------------------------- |
D#| --------------------------------------------------------------------- |

Pre-Chorus
             My kiss    can you feel it yet?
G | --------------------------------------------------------------------- |
D | --------------------------------------------------------------------- |
A | 0-0-0-0-------------------------------------------------------------- |
D#| ---------9-9-9-9-9-12-12-12-12-12-12-12-12--------------------------- |

Continued:
G | --------------------------------------------------------------------- |
D | --------------------------------------------------------------------- |
A | --------------------------------------------------------------------- |
D#| -12-12-12-12-12-12-12-12-15-15-15-15-18-18-18------------------------ |

Outro:
G | --------------------------------------------------------------------- |
D | --------------------------------------------------------------------- |
A | --------------------------------------------------------------------- |
D#| -11-11-11-11-11-11-11-11-11--7-7-7-7-7/15\5-5-5-5-5-7-7-7-7-7-7-7-7-- |

End on:
G | --------------------------------------------------------------------- |
D | --------------------------------------------------------------------- |
A | -12~~~~~~~~~~~~~~~~~~~~~~-------------------------------------------- |
D#| --------------------------------------------------------------------- |

Guitar Tab 'Purify'

Start with Pre-Chorus 'My kiss, can you feel it yet?'
d | --------------------------------------------------------------------- |
A | --------------------------------------------------------------------- |
F | ----------------------------------------12-12-12-12-13-13-13-13------ |
C | ----------------------------------------x--x--x--x--x--x--x--x------- |
G | -10-10-10-10-10-10-10-14-14-14-14-14-14-10-10-10-10-11-11-11-11------ |
D | -8--8--8--8--8--8--8--12-12-12-12-12-12------------------------------ |

Verse 2 - nothing ...

Pre-Chorus again:
d | --------------------------------------------------------------------- |
A | --------------------------------------------------------------------- |
F | ----------------------------------------12-12-12-12-13-13-13-13------ |
C | ----------------------------------------x--x--x--x--x--x--x--x------- |
G | -10-10-10-10-10-10-10-14-14-14-14-14-14-10-10-10-10-11-11-11-11------ |
D | -8--8--8--8--8--8--8--12-12-12-12-12-12------------------------------ |

Chorus:
d | --------------------------------------------------------------------- |
A | --------------------------------------------------------------------- |
F | -12-12-12-11-11-11-7-7-9-9-9-7-7-7-6-6-4-4-4-2----------------------- |
C | -----------------------------------------------0-0-0-2-2-2-2-2-2----- |
G | --------------------------------------------------------------------- |
D | --------------------------------------------------------------------- |

End on:
d | --------------------------------------------------------------------- |
A | ---------------------------------------5-5-5/10-10-10-10-10/11\10~--- |
F | -12-12-12-11-11-11-7-7-9-9-9-7-7-7-6-6------------------------------- |
C | --------------------------------------------------------------------- |
G | --------------------------------------------------------------------- |
D | --------------------------------------------------------------------- |

Interlude - nothing

Pre-Chorus again:
d | --------------------------------------------------------------------- |
A | --------------------------------------------------------------------- |
F | ----------------------------------------12-12-12-12-13-13-13-13------ |
C | ----------------------------------------x--x--x--x--x--x--x--x------- |
G | -10-10-10-10-10-10-10-14-14-14-14-14-14-10-10-10-10-11-11-11-11------ |
D | -8--8--8--8--8--8--8--12-12-12-12-12-12------------------------------ |

Chorus:
d | --------------------------------------------------------------------- |
A | --------------------------------------------------------------------- |
F | -12-12-12-11-11-11-7-7-9-9-9-7-7-7-6-6-4-4-4-2----------------------- |
C | -----------------------------------------------0-0-0-2-2-2-2-2-2----- |
G | --------------------------------------------------------------------- |
D | --------------------------------------------------------------------- |

End on:
d | --------------------------------------------------------------------- |
A | ---------------------------------------5-5-5/10-10-10-10-10/11\10~--- |
F | -12-12-12-11-11-11-7-7-9-9-9-7-7-7-6-6------------------------------- |
C | --------------------------------------------------------------------- |
G | --------------------------------------------------------------------- |
D | --------------------------------------------------------------------- |

That's it.

====================================================
9. Begin The End
   Tuning: E A D G B e
   Played by Stefan Olsdal

Tab 100% by 8991placebo!

Riff 1
E | ----------------------------------------------------------------------------- |
B | ----11-12--12-11-~~~--11-12-11-12--~~~~~-11-12--12-11-~~~~~-11-12-11-12------ |
G | -------------------------------------------------------11--~~~~~~~~~~~~~~~--- |
D | -9~~~~~~~~~~~~~~---9--~~~~~~~~~~~~---9--~~~~~~~~~~~~~------------------------ |
A | ----------------------------------------------------------------------------- |
E | ----------------------------------------------------------------------------- |

E | ----------------------------------------------------------------------------- |
B | ----11-12--12-11--~~~~-11-12-11-12-~~~-11-12--12-11--~~~~11-12-11-12--------- |
G | ----------------------------------------------------------------------------- |
D | ------------------------------------------------------13~~~~~~~~~~~~~~~~----- |
A | -11-~~~~~~~~~~~~~~-11-~~~~~~~~~~~~~~11-~~~~~~~~~~~~~~------------------------ |
E | ----------------------------------------------------------------------------- |

Riff 2 for Chorus 1:
E | --------------------------------------------------------------------- |
B | ------------------------------------------Somewhere-towards-the-ending|
G | --------------------------------------------------------------------- |
D | --9-9-9-9-9-9-9-9----13-13-13-13-13-13-------17-17-16-16-13-13-13-13 |
A | --7-7-7-7-7-7-7-7----11-11-11-11-11-11-------15-15-14-14-11-11-11-11 |
E | --------------------------------------------------------------------- |

Continue with Riff 1


Continue with Riff 2

... with Riff 3: 'Make no mistake'

E | ----------------------------------------------------------------------------- |
B | ----------------------------------------------------------------------------- |
G | ----------------------------------------------------------------------------- |
D | -6-6-6-6-6-6-8-8-8-8-8-8-8-----11-11-11-11-11-11----------------------------- |
A | -4-4-4-4-4-4-6-6-6-6-6-6-6-----9--9--9--9--9--9------------------------------ |
E | ----------------------------------------------------------------------------- |

Riff 1

Riff 2

Riff 1 (note you will have more and more distortion in that riff when you get closer to 
end of this song)

Towards ending so far. That's it.

====================================================
10. Bosco
    Tuning: E A D G B e by Stefan Olsdal played as piano:

You've probably found my other tab of Bosco here on ultimate-guitar. If not, here it is!
100% written by 8991placebo!

Intro - Piano

E | ------------------------------------------------------- |
B | ------------------------------------------------------- |
G | 11===-10==============================================- |
D | ---------------8-----8-----8-------8------------------- |
A | ------------9-----9-----9------9-------9==============- |
E | ------------------------------------------------------- |

E | ------------------------------------------------------- |
B | ------------------------------------------------------- |
G | 11===-10==============================================- |
D | ---------------8-----8-----8-------8------------------- |
A | ------------9-----9-----9------9-------9==============- |
E | ------------------------------------------------------- |

E | ------------------------------------------------------- |
B | ------------------------------------------------------- |
G | 11===-10-------8-----8-----8-------8-------8-------8--- |
D | ------------------------------------------------------- |
A | ------------9-----9-----9------9-------9-------9------- |
E | ------------------------------------------------------- |

E | ------------------------------------------------------- |
B | ------------------------------------------------------- |
G | ---------------8-----8-----8-------8-------8-------8--- |
D | ------------------------------------------------------- |
A | (9--9--9--9)9-----9-----9------9-------9-------9------- |
E | ------------------------------------------------------- |

Repeat those pretty often

And when I get drunk

E | ------------------------------------------------------- |
B | ------------------------------------------------------- |
G | ------------------------------------------------------- |
D | ---8-----8-----8-----8-----8-------8-------8-------8--- |
A | 9-----9-----9-----9-----9------9-------9-------9------- |
E | ------------------------------------------------------- |

E | ------------------------------------------------------- |
B | ------------------------------------------------------- |
G | ------------------------------------------------------- |
D | ---3-----3-----3-----3-----3-------3-------3-------3--- |
A | 4-----4-----4-----4-----4------4-------4-------4------- |
E | ------------------------------------------------------- |

E | ------------------------------------------------------- |
B | ------------------------------------------------------- |
G | ------------------------------------------------------- |
D | ---1-----1-----1-----1-----1-------1-------1-------1--- |
A | 2-----2-----2-----2-----2------2-------2-------2------- |
E | ------------------------------------------------------- |

E | ------------------------------------------------------- |
B | ------------------------------------------------------- |
G | ------------------------------------------------------- |
D | ------------------------------------------------------- |
A | 0-----0-----0-----0-----0------0-------0-------0------- |
E | ---9-----9-----9-----9-----9-------9-------9-------9--- |

E | ------------------------------------------------------- |
B | ------------------------------------------------------- |
G | ------------------------------------------------------- |
D | ---8-----8-----8-----8-----8-------8-------8-------8--- |
A | 9-----9-----9-----9-----9------9-------9-------9------- |
E | ------------------------------------------------------- |

E | ------------------------------------------------------- |
B | ------------------------------------------------------- |
G | ------------------------------------------------------- |
D | ---6-----6-----6-----6-----6-------6------------------- |
A | 7-----7-----7-----7-----7------7-------7==============- |
E | ------------------------------------------------------- |

I ask you for another second chance

E | ------------------------------------------------------- |
B | ------------------------------------------------------- |
G | 11===-10==============================================- |
D | ---------------8-----8-----8-------8------------------- |
A | ------------9-----9-----9------9-------9==============- |
E | ------------------------------------------------------- |

E | ------------------------------------------------------- |
B | ------------------------------------------------------- |
G | 11===-10==============================================- |
D | ---------------8-----8-----8-------8------------------- |
A | ------------9-----9-----9------9-------9==============- |
E | ------------------------------------------------------- |

E | ------------------------------------------------------- |
B | ------------------------------------------------------- |
G | 11===-10-------8-----8-----8-------8-------8-------8--- |
D | ------------------------------------------------------- |
A | ------------9-----9-----9------9-------9-------9------- |
E | ------------------------------------------------------- |

E | ------------------------------------------------------- |
B | ------------------------------------------------------- |
G | ---------------8-----8-----8-------8-------8-------8--- |
D | ------------------------------------------------------- |
A | (9--9--9--9)9-----9-----9------9-------9-------9------- |
E | ------------------------------------------------------- |

Also repeated some times

And when I get drunk

E | ------------------------------------------------------- |
B | ------------------------------------------------------- |
G | ------------------------------------------------------- |
D | ---8-----8-----8-----8-----8-------8-------8-------8--- |
A | 9-----9-----9-----9-----9------9-------9-------9------- |
E | ------------------------------------------------------- |

E | ------------------------------------------------------- |
B | ------------------------------------------------------- |
G | ------------------------------------------------------- |
D | ---3-----3-----3-----3-----3-------3-------3-------3--- |
A | 4-----4-----4-----4-----4------4-------4-------4------- |
E | ------------------------------------------------------- |

E | ------------------------------------------------------- |
B | ------------------------------------------------------- |
G | ------------------------------------------------------- |
D | ---1-----1-----1-----1-----1-------1-------1-------1--- |
A | 2-----2-----2-----2-----2------2-------2-------2------- |
E | ------------------------------------------------------- |

E | ------------------------------------------------------- |
B | ------------------------------------------------------- |
G | ------------------------------------------------------- |
D | ------------------------------------------------------- |
A | 0-----0-----0-----0-----0------0-------0-------0------- |
E | ---9-----9-----9-----9-----9-------9-------9-------9--- |

E | ------------------------------------------------------- |
B | ------------------------------------------------------- |
G | ------------------------------------------------------- |
D | ---8-----8-----8-----8-----8-------8-------8-------8--- |
A | 9-----9-----9-----9-----9------9-------9-------9------- |
E | ------------------------------------------------------- |

E | ------------------------------------------------------- |
B | ------------------------------------------------------- |
G | ------------------------------------------------------- |
D | ---6-----6-----6-----6-----6-------6------------------- |
A | 7-----7-----7-----7-----7------7-------7==============- |
E | ------------------------------------------------------- |

 You know I'm grateful

E | ------------------------------------------------------- |
B | ------------------------------------------------------- |
G | ------------------------------------------------------- |
D | ---1-----1-----3-----3-----8-------8-------8-------8--- | repeated
A | 2-----2-----4-----4-----9------9-------9-------9------- |
E | ------------------------------------------------------- |


Afterwards, repeat everything once again (because when Steve enters it's all just 
repeating everything)

I admit also not 100% accurate but pretty close to what Stef is playing with the 
piano.

======================================================

That was my complete tab of Placebo's latest album 'Loud Like Love'. It took me some 
days to tab everything out and I hope you liked it and enjoyed playing everything (:

Guitar used: Squier Stratocaster by Fender
Bass used: Epiphone Thunderbird IV VSB

+ Loud Like Love is one of Placebo's best albums I think! A real masterpiece!
And please don't forget to leave many comments (and also corrections!) there and 
please rate the tab!
(If you wish, please also check out my tab of Pity Party of One by Placebo; this song 
was also on the DVD and I suppose this is also meant to be a part of LLL or rather a B-Side)

Thank you,
8991placebo !
comments
We did not receive enough feedback on this tab! Please rate:
print report bad tab
1 2 3 4 5
I want to post or [tab]
guest
You may want to rate the tab now too:
select rating
Please do not post tabs as comments. Select "correction" instead!