Oops, an error
Loading. Please wait.

Boomerang Tab

2,365 views 6 this week
no commentswrite comment
1 2 3 4 5
please rate
add to favorites launch autoscroll
font size
0
reset
Autoscroll
+/-
esc
set tempo
stop
Contributor
WARNING: You are trying to view
                                    content from Ultimate-Guitar.com
                                    in an unauthorized application,
                                    which is prohibited.

                                    Please use an official Ultimate
                                    Guitar Tabs application for iPhone,
                                    iPad or Android to access legitimate
                                    chords, guitar, bass, and drum tabs
                                    from Ultimate-Guitar.com database.

                                    Type "ultimate guitar tabs" in Apple
                                    App Store's or Android Market's
                                    search to find the application.
Artist: Plain White Tees
Song: Boomerang


 Intro
  q  q  q  q  q  q  q  q  q  q  q  q  q  q  q  q
|-------------4--4--4--4--------------4--4--4--4--|
|-4--4--4--4--5--5--5--5--4--4--4--4--5--5--5--5--|
|-4--4--4--4--6--6--6--6--4--4--4--4--6--6--6--6--|
|-4--4--4--4--6--6--6--6--4--4--4--4--6--6--6--6--|
|-2--2--2--2--4--4--4--4--2--2--2--2--4--4--4--4--|
|-------------------------------------------------|


 Verse
  q  q  q  q  q  q  q  q  q  q  q  q  q  q  q  q
|-------------4--4--4--4--------------4--4--4--4--|
|-4--4--4--4--5--5--5--5--4--4--4--4--5--5--5--5--|
|-4--4--4--4--6--6--6--6--4--4--4--4--6--6--6--6--|
|-4--4--4--4--6--6--6--6--4--4--4--4--6--6--6--6--|
|-2--2--2--2--4--4--4--4--2--2--2--2--4--4--4--4--|
|-------------------------------------------------|


  q  q  q  q  q  q  q  q  q  q  q  q  q  q  q  q
|-------------4--4--4--4--------------4--4--4--4--|
|-4--4--4--4--5--5--5--5--4--4--4--4--5--5--5--5--|
|-4--4--4--4--6--6--6--6--4--4--4--4--6--6--6--6--|
|-4--4--4--4--6--6--6--6--4--4--4--4--6--6--6--6--|
|-2--2--2--2--4--4--4--4--2--2--2--2--4--4--4--4--|
|-------------------------------------------------|


 Pre Chorus
  q  q  q  q  q  q  q  q  q  q  q  q  q  q  q  q
|-4--4--4--4--6--6--6--6--4--4--4--4--6--6--6--6---|
|-4--4--4--4--7--7--7--7--4--4--4--4--7--7--7--7---|
|-4--4--4--4--8--8--8--8--4--4--4--4--8--8--8--8---|
|-6--6--6--6--8--8--8--8--6--6--6--6--8--8--8--8---|
|-6--6--6--6--6--6--6--6--6--6--6--6--6--6--6--6---|
|-4--4--4--4--------------4--4--4--4---------------|


  q  q  q  q  q  q  q  q
|-0--0--0--0--2--2--2--2----|
|-0--0--0--0--2--2--2--2----|
|-1--1--1--1--3--3--3--3----|
|-2--2--2--2--4--4--4--4----|
|-2--2--2--2--4--4--4--4----|
|-0--0--0--0--2--2--2--2----|


 Chorus
  H    Q  E E E E Q  E E E E H    Q  E E E E Q  E E E E
|---------------2-2--2-2-2-2-4----4--4-4---0-0--0-0-0-0--|
|-4----4--4-4---2-2--2-2-2-2-4----4--4-4---0-0--0-0-0-0--|
|-4----4--4-4---3-3--3-3-3-3-4----4--4-4---1-1--1-1-1-1--|
|-4----4--4-4---4-4--4-4-4-4-6----6--6-6---2-2--2-2-2-2--|
|-2----2--2-2---4-4--4-4-4-4-6----6--6-6---2-2--2-2-2-2--|
|---------------2-2--2-2-2-2-4----4--4-4---0-0--0-0-0-0--|


  H    Q  E E E E Q  E E E E H    Q  E E E E Q  E E E E
|---------------2-2--2-2-2-2-4----4--4-4---0-0--0-0-0-0--|
|-4----4--4-4---2-2--2-2-2-2-4----4--4-4---0-0--0-0-0-0--|
|-4----4--4-4---3-3--3-3-3-3-4----4--4-4---1-1--1-1-1-1--|
|-4----4--4-4---4-4--4-4-4-4-6----6--6-6---2-2--2-2-2-2--|
|-2----2--2-2---4-4--4-4-4-4-6----6--6-6---2-2--2-2-2-2--|
|---------------2-2--2-2-2-2-4----4--4-4---0-0--0-0-0-0--|


  H    Q  E E E E Q  E E E E H    Q  E E E E Q  E E E E
|---------------2-2--2-2-2-2-4----4--4-4---0-0--0-0-0-0--|
|-4----4--4-4---2-2--2-2-2-2-4----4--4-4---0-0--0-0-0-0--|
|-4----4--4-4---3-3--3-3-3-3-4----4--4-4---1-1--1-1-1-1--|
|-4----4--4-4---4-4--4-4-4-4-6----6--6-6---2-2--2-2-2-2--|
|-2----2--2-2---4-4--4-4-4-4-6----6--6-6---2-2--2-2-2-2--|
|---------------2-2--2-2-2-2-4----4--4-4---0-0--0-0-0-0--|


 Interlude
  W        W        W        q  q  q  Q
|----------4--------0-----------2---------|
|-4--------5--------0--------4--2--4------|
|-4--------6--------1--------4--3--4------|
|-4--------6--------2--------4--4--4------|
|-2--------4--------2--------2--4--2------|
|-------------------0-----------2---------|


 Verse
  q  q  q  q  q  q  q  q  q  q  q  q  q  q  q  q
|-------------4--4--4--4--------------4--4--4--4--|
|-4--4--4--4--5--5--5--5--4--4--4--4--5--5--5--5--|
|-4--4--4--4--6--6--6--6--4--4--4--4--6--6--6--6--|
|-4--4--4--4--6--6--6--6--4--4--4--4--6--6--6--6--|
|-2--2--2--2--4--4--4--4--2--2--2--2--4--4--4--4--|
|-------------------------------------------------|

 
  q  q  q  q  q  q  q  q  q  q  q  q  q  q  q  q
|-------------4--4--4--4--------------4--4--4--4--|
|-4--4--4--4--5--5--5--5--4--4--4--4--5--5--5--5--|
|-4--4--4--4--6--6--6--6--4--4--4--4--6--6--6--6--|
|-4--4--4--4--6--6--6--6--4--4--4--4--6--6--6--6--|
|-2--2--2--2--4--4--4--4--2--2--2--2--4--4--4--4--|
|-------------------------------------------------|


 Pre Chorus
  q  q  q  q  q  q  q  q  q  q  q  q  q  q  q  q
|-4--4--4--4--6--6--6--6--4--4--4--4--6--6--6--6---|
|-4--4--4--4--7--7--7--7--4--4--4--4--7--7--7--7---|
|-4--4--4--4--8--8--8--8--4--4--4--4--8--8--8--8---|
|-6--6--6--6--8--8--8--8--6--6--6--6--8--8--8--8---|
|-6--6--6--6--6--6--6--6--6--6--6--6--6--6--6--6---|
|-4--4--4--4--------------4--4--4--4---------------|


  q  q  q  q  q  q  q  q
|-0--0--0--0--2--2--2--2----|
|-0--0--0--0--2--2--2--2----|
|-1--1--1--1--3--3--3--3----|
|-2--2--2--2--4--4--4--4----|
|-2--2--2--2--4--4--4--4----|
|-0--0--0--0--2--2--2--2----|


 Chorus
  H    Q  E E E E Q  E E E E H    Q  E E E E Q  E E E E
|---------------2-2--2-2-2-2-4----4--4-4---0-0--0-0-0-0--|
|-4----4--4-4---2-2--2-2-2-2-4----4--4-4---0-0--0-0-0-0--|
|-4----4--4-4---3-3--3-3-3-3-4----4--4-4---1-1--1-1-1-1--|
|-4----4--4-4---4-4--4-4-4-4-6----6--6-6---2-2--2-2-2-2--|
|-2----2--2-2---4-4--4-4-4-4-6----6--6-6---2-2--2-2-2-2--|
|---------------2-2--2-2-2-2-4----4--4-4---0-0--0-0-0-0--|


  H    Q  E E E E Q  E E E E H    Q  E E E E Q  E E E E
|---------------2-2--2-2-2-2-4----4--4-4---0-0--0-0-0-0--|
|-4----4--4-4---2-2--2-2-2-2-4----4--4-4---0-0--0-0-0-0--|
|-4----4--4-4---3-3--3-3-3-3-4----4--4-4---1-1--1-1-1-1--|
|-4----4--4-4---4-4--4-4-4-4-6----6--6-6---2-2--2-2-2-2--|
|-2----2--2-2---4-4--4-4-4-4-6----6--6-6---2-2--2-2-2-2--|
|---------------2-2--2-2-2-2-4----4--4-4---0-0--0-0-0-0--|


  H    Q  E E E E Q  E E E E H    Q  E E E E Q  E E E E
|---------------2-2--2-2-2-2-4----4--4-4---0-0--0-0-0-0--|
|-4----4--4-4---2-2--2-2-2-2-4----4--4-4---0-0--0-0-0-0--|
|-4----4--4-4---3-3--3-3-3-3-4----4--4-4---1-1--1-1-1-1--|
|-4----4--4-4---4-4--4-4-4-4-6----6--6-6---2-2--2-2-2-2--|
|-2----2--2-2---4-4--4-4-4-4-6----6--6-6---2-2--2-2-2-2--|
|---------------2-2--2-2-2-2-4----4--4-4---0-0--0-0-0-0--|


  H    Q  E E E E Q  E E E E H    Q  E E E E Q  E E E E
|---------------2-2--2-2-2-2-4----4--4-4---0-0--0-0-0-0--|
|-4----4--4-4---2-2--2-2-2-2-4----4--4-4---0-0--0-0-0-0--|
|-4----4--4-4---3-3--3-3-3-3-4----4--4-4---1-1--1-1-1-1--|
|-4----4--4-4---4-4--4-4-4-4-6----6--6-6---2-2--2-2-2-2--|
|-2----2--2-2---4-4--4-4-4-4-6----6--6-6---2-2--2-2-2-2--|
|---------------2-2--2-2-2-2-4----4--4-4---0-0--0-0-0-0--|


 Bridge
  q  q  q  q  q  q  q  q  q  q  q  q  q  q  q  q
|-4--4--4--4--0--0--0--0--4--4--4--4--0--0--0--0---|
|-4--4--4--4--0--0--0--0--4--4--4--4--0--0--0--0---|
|-4--4--4--4--1--1--1--1--4--4--4--4--1--1--1--1---|
|-6--6--6--6--2--2--2--2--6--6--6--6--2--2--2--2---|
|-6--6--6--6--2--2--2--2--6--6--6--6--2--2--2--2---|
|-4--4--4--4--0--0--0--0--4--4--4--4--0--0--0--0---|


  q  q  q  q  q  q  q  q  q  q  q  q  q  q  q  q
|-4--4--4--4--0--0--0--0--2--2--2--2--2--2--2--2---|
|-4--4--4--4--0--0--0--0--2--2--2--2--2--2--2--2---|
|-4--4--4--4--1--1--1--1--3--3--3--3--3--3--3--3---|
|-6--6--6--6--2--2--2--2--4--4--4--4--4--4--4--4---|
|-6--6--6--6--2--2--2--2--4--4--4--4--4--4--4--4---|
|-4--4--4--4--0--0--0--0--2--2--2--2--2--2--2--2---|


 Chorus
  H    Q  E E E E Q  E E E E H    Q  E E E E Q  E E E E
|---------------2-2--2-2-2-2-4----4--4-4---0-0--0-0-0-0--|
|-4----4--4-4---2-2--2-2-2-2-4----4--4-4---0-0--0-0-0-0--|
|-4----4--4-4---3-3--3-3-3-3-4----4--4-4---1-1--1-1-1-1--|
|-4----4--4-4---4-4--4-4-4-4-6----6--6-6---2-2--2-2-2-2--|
|-2----2--2-2---4-4--4-4-4-4-6----6--6-6---2-2--2-2-2-2--|
|---------------2-2--2-2-2-2-4----4--4-4---0-0--0-0-0-0--|


  H    Q  E E E E Q  E E E E H    Q  E E E E Q  E E E E
|---------------2-2--2-2-2-2-4----4--4-4---0-0--0-0-0-0--|
|-4----4--4-4---2-2--2-2-2-2-4----4--4-4---0-0--0-0-0-0--|
|-4----4--4-4---3-3--3-3-3-3-4----4--4-4---1-1--1-1-1-1--|
|-4----4--4-4---4-4--4-4-4-4-6----6--6-6---2-2--2-2-2-2--|
|-2----2--2-2---4-4--4-4-4-4-6----6--6-6---2-2--2-2-2-2--|
|---------------2-2--2-2-2-2-4----4--4-4---0-0--0-0-0-0--|


  H    Q  E E E E Q  E E E E H    Q  E E E E Q  E E E E
|---------------2-2--2-2-2-2-4----4--4-4---0-0--0-0-0-0--|
|-4----4--4-4---2-2--2-2-2-2-4----4--4-4---0-0--0-0-0-0--|
|-4----4--4-4---3-3--3-3-3-3-4----4--4-4---1-1--1-1-1-1--|
|-4----4--4-4---4-4--4-4-4-4-6----6--6-6---2-2--2-2-2-2--|
|-2----2--2-2---4-4--4-4-4-4-6----6--6-6---2-2--2-2-2-2--|
|---------------2-2--2-2-2-2-4----4--4-4---0-0--0-0-0-0--|


  H    Q  E E E E Q  E E E E H    Q  E E E E Q  E E E E
|---------------2-2--2-2-2-2-4----4--4-4---0-0--0-0-0-0--|
|-4----4--4-4---2-2--2-2-2-2-4----4--4-4---0-0--0-0-0-0--|
|-4----4--4-4---3-3--3-3-3-3-4----4--4-4---1-1--1-1-1-1--|
|-4----4--4-4---4-4--4-4-4-4-6----6--6-6---2-2--2-2-2-2--|
|-2----2--2-2---4-4--4-4-4-4-6----6--6-6---2-2--2-2-2-2--|
|---------------2-2--2-2-2-2-4----4--4-4---0-0--0-0-0-0--|


 Interlude
  W        W        W        q  q  q  Q
|----------4--------0-----------2---------|
|-4--------5--------0--------4--2--4------|
|-4--------6--------1--------4--3--4------|
|-4--------6--------2--------4--4--4------|
|-2--------4--------2--------2--4--2------|
|-------------------0-----------2---------|

www.guitarstars.biz
comments
We did not receive enough feedback on this tab! Please rate:
print report bad tab
1 2 3 4 5
I want to post or [tab]
guest
You may want to rate the tab now too:
select rating
Please do not post tabs as comments. Select "correction" instead!