Oops, an error
Loading. Please wait.

Aquele Lugar Dvd Ao Vivo Tab

405 views 1 this week
no commentswrite comment
1 2 3 4 5
please rate
Autoscroll
+/-
esc
set tempo
stop
Contributor
Difficulty
intermediate
Hey! There's an official Ultimate Guitar app which is ideal
for learning songs when you're away from computer. Get the app
WARNING: You are trying to view
                                    content from Ultimate-Guitar.com
                                    in an unauthorized application,
                                    which is prohibited.

                                    Please use an official Ultimate
                                    Guitar Tabs application for iPhone,
                                    iPad or Android to access legitimate
                                    chords, guitar, bass, and drum tabs
                                    from Ultimate-Guitar.com database.

                                    Type "ultimate guitar tabs" in Apple
                                    App Store's or Android Market's
                                    search to find the application.
Transcrição por Banda Muro de Berlim, Reggae music. Bebedouro/SP.
Contato: bandamurodeberlim@gmail.com

Planta e Raiz - Aquele Lugar (Versão do DVD ao vivo).
Official website: www.bandaplantaeraiz.com.br
(Franja/Guitarra solo).

b  =  bend.
r  =  release.
s  =  slide.
p  =  pull-off.
h  =  hammer on.
(h)=  artificial harmonic
~  =  vibrato.
Pm =  palm mute.

Introdução. (Base B e E)

E|-9s7-----9-----9----9s7-----|
B|-9s7--7s9---7s9--9--9s7-----|
G|----------------------------|
D|----------------------------|
A|----------------------------|
E|----------------------------|

E|----------------------------------------------------|
B|-9s7------------------------------------------------|
G|-----6-4-6b-6brp4~---------4------------4---4br~----|
D|--------------------2s4--6---6~--2s4--6---6---------|
B|----------------------------------------------------|
E|----------------------------------------------------|
                          Pm           Pm

E|-----------------------4----------------------------|
B|---7br~--7s9-9s7~--4s7------------------------------|
G|-6-----6-----------------6--4s6-4-6-4~--------------|
D|----------------------------------------------------|
A|----------------------------------------------------|
E|----------------------------------------------------|

E|---------7b--9b-9brp7---7~----7-7p4---4~------------|
B|-----9-9--------------9-------------7---------------|
G|-6s8------------------------------------------------|
D|----------------------------------------------------|
A|----------------------------------------------------|
E|----------------------------------------------------|
      bend(1/2)                      Pm


E|-----9----9-9s7-----|
B|-7s9--7s9---9s7-----|
G|--------------------|
D|--------------------|
A|--------------------|
E|--------------------|

Finalizada a introdução, segue-se o seguinte riff tocado em B e em E:

E|----9-----9----9s7--|
B|-7s9--7s9---9--9s7--|
G|--------------------|
D|--------------------|
A|--------------------|
E|--------------------|

"Chegar e ver que as ondas estão rolando..", tem-se o riff:

E|-------------------------|
B|-9s7---------------------|
G|-----6-4-6b-6brp4----4~--|
D|-------------------6-----|
B|-------------------------|
E|-------------------------|

Com G#m e C#m (com palm mute).

E|-----------------------------------------------------4----------------|
B|-------------------------------------------------------7p4------------|
G|--------------4b-------------4---6--6-6--6-6-6--6-6--------6brp4------|
D|-4-6--6-6-6--6--6--4-6-6-6-6---6--------------------------------------|
A|----------------------------------------------------------------------|
E|----------------------------------------------------------------------|
            bend(1/2)

   Pm    Pm    Pm    Pm    Pm    Pm    Pm    Pm    Pm

E|-----------------------------------------------------4-4--------------|
B|-------------------------------------------------------4h7p4--7b------|
G|----------------4b----------4---4-6-6--6-6-6--6-4-6----------6--------|
D|-6-4-6--6-6-6--6--6--6--6-4---6---------------------------------------|
A|----------------------------------------------------------------------|
E|----------------------------------------------------------------------|
                 (1/2)                                         (1/2)

   Pm    Pm    Pm    Pm    Pm    Pm    Pm    Pm    Pm

E|----------------------------------------------------4-----------------|
B|-----------------------------------------------------7p4--------------|
G|------------------4b----------4---4h6-6--6-6-6--4-6-----6br-4---------|
D|-4s6-4-6--6-6-6--6--6--6--4-6---6-----------------------------6-------|
A|----------------------------------------------------------------------|
E|----------------------------------------------------------------------|
                  (1/2)
 
  Pm    Pm    Pm    Pm    Pm    Pm    Pm    Pm    Pm

E|----------------------------------------------------------------------|
B|-----------------------------------------------------7s4--------------|
G|--------------4b----------4b--4-6-6--6-6-6--6-4-6s8~----6-4-----------|
D|-4-6--4-6-6--6--6--6--4-6---6------------------------------6-4s6------|
A|----------------------------------------------------------------------|
E|----------------------------------------------------------------------|
              (1/2)

   Pm    Pm    Pm    Pm    Pm    Pm    Pm         D#m      Pm

E|----------------------7b--s4-7-4--9b-9-7h9-7-----------7---9br-7-9br~-|
B|-9-9s12-9-----7-7h9~-9----------------------9-7s9~--7s9-9~------9-----|
G|-----------6s8-8------------------------------------------------------|
D|-6-6s9--6-------------------------------------------------------------|
A|----------------------------------------------------------------------|
E|----------------------------------------------------------------------|
"Aquele luar.."        (1/2)                       "O mais belo luar.."


Novamente com B e E:

E|----9-----9----9s7--|
B|-7s9--7s9---9--9s7--|
G|--------------------|
D|--------------------|
A|--------------------|
E|--------------------|

Primeiro Solo.

E|---------------------------------------------------------------------------|
B|-9s7-----7---------------------4b------------------------------------------|
G|-----6-4-6b-6brp4~--4~---------4b------------------------------------------|
D|------------------6----------6----6-4--------------------------------------|
B|------------------------4-5-6---------6-4b---------------------------------|
E|----------------------s4-------------------7--2-3-4~~----------------------|
                               (1/3)
                          Pm

E|-------7b--9b-9br-9brp7----------------------------------------------------|
B|----9-9----------------9~--7h9p7-------------------------------------------|
G|-6s8-----------------------------8p6--4-4-6--4-6--4~~4~--------------------|
D|------------------------------------------------6--------------------------|
A|---------------------------------------------------------------------------|
E|---------------------------------------------------------------------------|
       (1/2)

E|---------------------------------------------------------------------------|
B|---------------------5-4~--------19b-19------------------------------------|
G|-6s8-8s6--4-4-6--4--------s16-16--------16-18b-16~~------------------------|
D|-------------------6-------------------------------------------------------|
A|---------------------------------------------------------------------------|
E|---------------------------------------------------------------------------|


E|-21b-21br-19h21-21------21b-21b-21b~~-21br-21-19-19p21---------------------|
B|------------------21~-21-----------------------------21~-------------------|
G|---------------------------------------------------------------------------|
D|---------------------------------------------------------------------------|
A|---------------------------------------------------------------------------|
E|---------------------------------------------------------------------------|

E|---------------------------------------------------------------------------|
B|-19-21-21br--19-21-21br--19-21-21br--21br-19h21-19-21~-21~-21~-------------|
G|---------------------------------------------------------------------------|
D|---------------------------------------------------------------------------|
A|---------------------------------------------------------------------------|
E|---------------------------------------------------------------------------|
                                  bend(1+1/2)
E|---------------------------------------------------------------------------|
B|-21-21-21-21-21-21-21-21-21-21-21-21-21-21-21-21-21-21-21-21-21-21~~~------|
G|---------------------------------------------------------------------------|
D|---------------------------------------------------------------------------|
A|---------------------------------------------------------------------------|
E|---------------------------------------------------------------------------|

Segundo Solo.

E|---------------------------------------------------------------------------|
B|-9s7-----7---------------------4b------------------------------------------|
G|-----6-4-6b-6brp4~--4~---------4b------------------------------------------|
D|------------------6----------6----6-4--------------------------------------|
B|------------------------4-5-6---------6-4b---------------------------------|
E|----------------------s4-------------------7--2-3-4~~----------------------|
                               (1/3)
                          Pm

E|-------7b--9b-9br-9brp7----------------------------------------------------|
B|----9-9----------------9~--7h9p7-------------------------------------------|
G|-6s8-----------------------------8p6--4-4-6--4-6--4~~4~--------------------|
D|------------------------------------------------6--------------------------|
A|---------------------------------------------------------------------------|
E|---------------------------------------------------------------------------|
       (1/2)

E|---------------------------------7-9-9brp7~---9-12-9---9h12p9----9h12p9----|
B|---------------------5-4~-----9-9-------------------12b------12b-------12b-|
G|-6s8-8s6--4-4-6--4--------6s8----------------------------------------------|
D|-------------------6-------------------------------------------------------|
A|---------------------------------------------------------------------------|
E|---------------------------------------------------------------------------|

E|-9h12p9----9h12p9----9h12p9---9h12p9---9h12p9---9h12p9---9h12p9------------|
B|-------12b-------12b-------12b------12b------12b------12h------12b~--------|
G|---------------------------------------------------------------------------|
D|---------------------------------------------------------------------------|
A|---------------------------------------------------------------------------|
E|---------------------------------------------------------------------------|

E|---------------------------------------------------------------------------|
B|-14br-14br-----------12~-9h12-9-11p9-----------------7s9~---9~---9~-9~-----|
G|------------11h13-13-13~--------11p9-----4--------6h8----6s8--6s8----------|
D|--------------------------------11p9-4h6--6-4-4h6--------------------------|
A|---------------------------------------------------------------------------|
E|---------------------------------------------------------------------------|
      bend(2)

E|--------------7-11p7-----7-9br-11br-12br-14br-14b-14b-14b~~~---------------|
B|----9~----9~-9------9---9--------------------------------------------------|
G|-6s8---6s8--8---------8----------------------------------------------------|
D|---------------------------------------------------------------------------|
A|---------------------------------------------------------------------------|
E|---------------------------------------------------------------------------|
                                 bend(1+1/2)

E|-------16---------16---16-19p16--------16-19p16---------16-19p16-----------|
B|-16-19b--19-16-19b--19b--------19-16-19---------19-16-19---------19-16-19--|
G|---------------------------------------------------------------------------|
D|---------------------------------------------------------------------------|
A|---------------------------------------------------------------------------|
E|---------------------------------------------------------------------------|

E|-16-19p16--------16-19p16---------16-19p16---------16-19p16----------------|
B|---------19-16-19--------19-16-19---------19-16-19----------19-16-19-------|
G|---------------------------------------------------------------------------|
D|---------------------------------------------------------------------------|
A|---------------------------------------------------------------------------|
E|---------------------------------------------------------------------------|

E|-16-19p16--------16-19p16---------16-19p16---------16-19p16----------------|
B|---------19-16-19--------19-16-19---------19-16-19----------19-16----------|
G|---------------------------------------------------------------------------|
D|---------------------------------------------------------------------------|
A|---------------------------------------------------------------------------|
E|---------------------------------------------------------------------------|

E|---------------------4-----------------------------------------------------|
B|----19-19~----------4-4-7p4-------------------------------12--14-14br------|
G|-18b---18b~~---4-6b~-------6brp4--4b---4-6-4~s/---13-11-13--13-------------|
D|------------s6-------------------6---6-------------------------------------|
A|---------------------------------------------------------------------------|
E|---------------------------------------------------------------------------|
                                                   Pm  Pm  Pm

E|---------------14b-14br-------9-9s7-------9----9-----9----9s7--------------|
B|-12-14-14br-12------------7s9---9s7---7s9--7s9---7s9---9--9s7--------------|
G|---------------------------------------------------------------------------|
D|---------------------------------------------------------------------------|
A|---------------------------------------------------------------------------|
E|---------------------------------------------------------------------------|
   Pm Pm

E|---------------4-7-4h7p4--4---------------9-----9-----9---9s7--------------|
B|----7-9-7h9p7-----------7--7p4--------7s9---7s9---7s9---9-9s7--------------|
G|-6s8---------8----------------6b(h)~---------------------------------------|
D|---------------------------------------------------------------------------|
A|---------------------------------------------------------------------------|
E|---------------------------------------------------------------------------|

                                                (2x)

E|-7s9-----9-9s7-------------------------------------------------------------|
B|-7s9-7s9-9-9s7-------------------------------------------------------------|
G|---------------------------------------------------------------------------|
D|---------------------------------------------------------------------------|
A|---------------------------------------------------------------------------|
E|---------------------------------------------------------------------------|
             B
comments
We did not receive enough feedback on this tab! Please rate:
print report bad tab
1 2 3 4 5
I want to post or [tab]
guest
You may want to rate the tab now too:
select rating
Please do not post tabs as comments. Select "correction" instead!