Oops, an error
Loading. Please wait.

Good Love Tab

617 views 15 this week
no commentswrite comment
1 2 3 4 5
excellent!
x 1
Autoscroll
+/-
esc
set tempo
stop
Contributor
WARNING: You are trying to view
                                    content from Ultimate-Guitar.com
                                    in an unauthorized application,
                                    which is prohibited.

                                    Please use an official Ultimate
                                    Guitar Tabs application for iPhone,
                                    iPad or Android to access legitimate
                                    chords, guitar, bass, and drum tabs
                                    from Ultimate-Guitar.com database.

                                    Type "ultimate guitar tabs" in Apple
                                    App Store's or Android Market's
                                    search to find the application.
Song:Good Love
Artist:Poison
Written By:B.Dall,C.DeVille,R.Rockett,B.Michaels
Album:Open Up And Say Ahh!!
Tuning:Half Step Down
Tabulated By Chris Mclarty

Chords:
A5-x02xxx                                                         
A6-x04xxx                    
A7-x05xxx
D-x5777x
D5-x577xx
E-x7999x                    

Intro
Fast Rock Q=220
4/4
Gtr I
  E E E Q  E Q    W          E E E Q  E Q    W
|---------------|----------|---------------|------|
|---------------|----------|---------------|------|
|---------------|----------|---------------|------|
|-2-2-2-4--2-5--|----------|-2-2-2-4--2-2--|------|
|-0-0-0-0--0-0--|----------|-0-0-0-0--0-0--|------|
|---------------|----------|---------------|------|

  E E E Q  E Q    W          E E E Q  E Q    W
|---------------|----------|---------------|------|
|---------------|----------|---------------|------|
|---------------|----------|---------------|------|
|-2-2-2-4--2-5--|----------|-2-2-2-4--2-2--|------|
|-0-0-0-0--0-0--|----------|-0-0-0-0--0-0--|------|
|---------------|----------|---------------|------|

  E E E Q  E Q    W          E E E Q  E Q    +Q   E E Q  Q
|---------------|----------|---------------|------5-5-5-----|
|---------------|----------|---------------|------5-5-5-----|
|---------------|----------|---------------|----------------|
|-2-2-2-4--2-5--|----------|-2-2-2-4--2-2--|-(2)------------|
|-0-0-0-0--0-0--|----------|-0-0-0-0--0-0--|-(0)---------7--|
|---------------|----------|---------------|----------------|

  E E E Q  E Q    W          E E E Q  E Q    +Q   E E Q  Q
|---------------|----------|---------------|----------5------|
|---------------|----------|---------------|-----------------|
|---------------|----------|---------------|------5s6--------|
|-2-2-2-4--2-5--|----------|-2-2-2-4--2-2--|-(2)---------7--|
|-0-0-0-0--0-0--|----------|-0-0-0-0--0-0--|-(0)-------------|
|---------------|----------|---------------|-----------------|

Verse
    E E E Q  E Q    W          E E E Q  E Q    +Q   E E Q  Q
||----------------|----------|---------------|------5-5-5------|
||o---------------|----------|---------------|------5-5-5------|
||----------------|----------|---------------|-----------------|
||--2-2-2-4--2-5--|----------|-2-2-2-4--2-2--|-(2)-------------|
||o-0-0-0-0--0-0--|----------|-0-0-0-0--0-0--|-(0)---------7---|
||----------------|----------|---------------|-----------------|

  E E E Q  E Q    W          E E E Q  E Q    +Q   E E Q  Q
|---------------|----------|---------------|----------5-----|
|---------------|----------|---------------|----------------|
|---------------|----------|---------------|------5s6-------|
|-2-2-2-4--2-5--|----------|-2-2-2-4--2-2--|-(2)---------7--|
|-0-0-0-0--0-0--|----------|-0-0-0-0--0-0--|-(0)------------|
|---------------|----------|---------------|----------------|

  E E E Q  E Q    W          E E E Q  E Q    +Q   E E Q  Q
|---------------|----------|---------------|------5-5-5-----|
|---------------|----------|---------------|------5-5-5-----|
|---------------|----------|---------------|----------------|
|-2-2-2-4--2-5--|----------|-2-2-2-4--2-2--|-(2)------------|
|-0-0-0-0--0-0--|----------|-0-0-0-0--0-0--|-(0)---------7--|
|---------------|----------|---------------|----------------|

  E E E Q  E Q    W          E E E Q  E Q    +Q   E E Q  Q
|---------------|----------|---------------|----------5-----|
|---------------|----------|---------------|----------------|
|---------------|----------|---------------|------5s6-------|
|-2-2-2-4--2-5--|----------|-2-2-2-4--2-2--|-(2)---------7--|
|-0-0-0-0--0-0--|----------|-0-0-0-0--0-0--|-(0)------------|
|---------------|----------|---------------|----------------|

Chorus
  H.      E E   Q  Q  E E Q    H.      E  E   E  E E  E H
|-------------|--------------|--------------|----------------|
|-7-----------|--------------|-9------------|------9h10-9----|
|-7-----------|-7--7------7--|-9------------|-9h11-----------|
|-7-----------|-7--7------7--|-9-------9h11-|----------------|
|---------7h9-|-------7h9----|--------------|----------------|
|-------------|--------------|--------------|----------------|

  E E E Q  E Q    W          E E E Q  E E E   E E Q  E E Q
|---------------|----------|----------------|-----5------5--|
|---------------|----------|----------------|---------------|
|---------------|----------|----------------|-5s6----5s6----|
|-2-2-2-4--2-5--|----------|-2-2-2-4--2-2p0-|---------------|
|-0-0-0-0--0-0--|----------|-0-0-0-0--0-----|---------------|
|---------------|----------|----------------|---------------|

  H.      E E   Q  Q  E E Q    H.      E  E   E  E E  E H
|-------------|--------------|--------------|----------------|
|-7-----------|--------------|-9------------|------9h10-9----|
|-7-----------|-7--7------7--|-9------------|-9h11-----------|
|-7-----------|-7--7------7--|-9-------9h11-|----------------|
|---------7h9-|-------7h9----|--------------|----------------|
|-------------|--------------|--------------|----------------|

                                            1.
  E E E Q  E Q    W          E E E Q  E Q    +Q   E E Q  Q
|---------------|----------|---------------|----------5------|
|---------------|----------|---------------|-----------------|
|---------------|----------|---------------|------5h6--------|
|-2-2-2-4--2-5--|----------|-2-2-2-4--2-2--|-(2)---------7--|
|-0-0-0-0--0-0--|----------|-0-0-0-0--0-0--|-(0)-------------|
|---------------|----------|---------------|-----------------|

  Gtr II
   Q.        E  Q       Q     H.        Q
|--------------------------|---------------|
|--------------------------|---------------|
|-11b12r====11-11b12r==11--|-11b12------5s=|
|--------------------------|---------------|
|--------------------------|---------------|
|--------------------------|---------------|
|
| Gtr I
|  E    E E  Q       E  Q     W
|--------------------------|---------------|
|--------------------------|---------------|
|--------------------------|---------------|
|--2----2-2--4-------2--5--|---------------|
|--0----0-0--0-------0--0--|---------------|
|--------------------------|---------------|

  E E E E H        +Q   Q   H       +H     H
|---------5------|-(5)--8---9-----|-(9)---------|
|---5-7-5--------|----------------|-------------|
|-6--------------|----------------|-------------|
|----------------|----------------|-------------|
|----------------|----------------|-------------|
|----------------|----------------|-------------|
|
| E E E Q   E Q    +Q   E E Q  Q     W
|----------------|------5-5-5-----|-------------|
|----------------|------5-5-5-----|-------------|
|----------------|----------------|-------------|
|-2-2-2-4---2-2--|-(2)------------|-------------|
|-0-0-0-0---0-0--|-(0)---------7--|-------------|
|----------------|----------------|-------------|

  E E E Q  E Q    W          E E E Q  E Q    Q  E E Q  Q
|---------------|----------|---------------|--------5-------||
|---------------|----------|---------------|---------------o||
|---------------|----------|---------------|----5S6---------||
|-2-2-2-4--2-5--|----------|-2-2-2-4--2-2--|-2---------7---||
|-0-0-0-0--0-0--|----------|-0-0-0-0--0-0--|-0-------------o||
|---------------|----------|---------------|----------------||

Guitar Solo
  2.
  W           H.        Q     H.        Q     H.       E  E
|----------|---------------|---------------|----------------|
|----------|-20b22------x--|-17b19------x--|----------------|
|----------|-19b21------x--|-16b18------x--|-14----------11-|
|----------|---------------|---------------|----------14----|
|----------|---------------|---------------|----------------|
|----------|---------------|---------------|----------------|

   H.      Q     E  E  E  E  E  E  E  E
|-------------|-------17-------17-------|
|-------------|----------17-20----------|
|-------------|-17S18-------------17S18-|
|-------------|-------------------------|
|-12-------x--|-------------------------|
|-------------|-------------------------|

   E  E  E  E  E  E  E  E    H     H
|-17-------17-------17----|----------------|
|----17-20-------------17-|-20----20b22----|
|-------------17S18-------|----------------|
|-------------------------|----------------|
|-------------------------|----------------|
|-------------------------|----------------|

                    |--3--|  |--3--|  |--3--|  |--3--|
   H        H       E  E  E  E  E  E  E  E  E  E  E  E
|----------------|-20p17----17-------20p17----17-------|
|-20b22---------|-------20----20-17-------20----20-17-|
|----------------|-------------------------------------|
|----------------|-------------------------------------|
|----------------|-------------------------------------|
|----------------|-------------------------------------|

   |--3--|  |--3--|  |--3--|  |--3--|
   E  E  E  E  E  E  E  E  E  E  E  E
|-20p17----17-------20p17----17--------|
|-------20----20-17-------20----20-17--|
|--------------------------------------|
|--------------------------------------|
|--------------------------------------|
|--------------------------------------|

                                              |-3-| |-3-| |-3--| |-3--|
   E  E  E  E  E  E  E  E    E  E  Q   H      E E E E E E E E  E E E  E
|-17----------------------|-----------------|---------------------------|
|----19-17----19-17-------|-17p14-----------|---------------------------|
|----------18-------18-16-|-------16--14----|--------------------7h9h11-|
|-------------------------|-----------------|-------------7h9h11--------|
|-------------------------|-----------------|-------5h7h9---------------|
|-------------------------|-----------------|-5h7h9---------------------|

   |--3--|  |--3--|  |--3--|  |--3--|    |--3--|
   E  E  E  E  E  E  E  E  E  E  E  E    Q  Q  Q  Q   E  E    H     +H
|-------------------------------------|----21--------------|-17----(17)--|
|-------------------------------------|--------------------|-17----(17)--|
|----------------------------12-14-20S|=21----20-19--17S18-|--------------|
|-------------------12h14h16----------|--------------------|--------------|
|----------10h12h14-------------------|--------------------|--------------|
|-10h12h14----------------------------|--------------------|--------------|

2nd Verse
  E E E Q  E Q    W          E E E Q  E Q    +Q   E E Q  Q
|---------------|----------|---------------|------5-5-5-----|
|---------------|----------|---------------|------5-5-5-----|
|---------------|----------|---------------|----------------|
|-2-2-2-4--2-5--|----------|-2-2-2-4--2-2--|-(2)------------|
|-0-0-0-0--0-0--|----------|-0-0-0-0--0-0--|-(0)---------7--|
|---------------|----------|---------------|----------------|

  E E E Q  E Q    W          E E E Q  E Q    +Q   E E Q  Q
|---------------|----------|---------------|----------5-----|
|---------------|----------|---------------|----------------|
|---------------|----------|---------------|------5s6-------|
|-2-2-2-4--2-5--|----------|-2-2-2-4--2-2--|-(2)---------7--|
|-0-0-0-0--0-0--|----------|-0-0-0-0--0-0--|-(0)------------|
|---------------|----------|---------------|----------------|

  E E E Q  E Q    W          E E E Q  E Q    +Q   E E Q  Q
|---------------|----------|---------------|------5-5-5-----|
|---------------|----------|---------------|------5-5-5-----|
|---------------|----------|---------------|----------------|
|-2-2-2-4--2-5--|----------|-2-2-2-4--2-2--|-(2)------------|
|-0-0-0-0--0-0--|----------|-0-0-0-0--0-0--|-(0)---------7--|
|---------------|----------|---------------|----------------|

  E E E Q  E Q    W          E E E Q  E Q    +Q   E E Q  Q
|---------------|----------|---------------|----------5-----|
|---------------|----------|---------------|----------------|
|---------------|----------|---------------|------5s6-------|
|-2-2-2-4--2-5--|----------|-2-2-2-4--2-2--|-(2)---------7--|
|-0-0-0-0--0-0--|----------|-0-0-0-0--0-0--|-(0)------------|
|---------------|----------|---------------|----------------|

Chorus
  H.      E E   Q  Q  E E Q    H.      E  E   E  E E  E H
|-------------|--------------|--------------|----------------|
|-7-----------|--------------|-9------------|------9h10-9----|
|-7-----------|-7--7------7--|-9------------|-9h11-----------|
|-7-----------|-7--7------7--|-9-------9h11-|----------------|
|---------7h9-|-------7h9----|--------------|----------------|
|-------------|--------------|--------------|----------------|

                                             3rd Verse
  E E E Q  E Q    W          E E E Q  E E E   W
|---------------|----------|----------------|------|
|---------------|----------|----------------|------|
|---------------|----------|----------------|------|
|-2-2-2-4--2-5--|----------|-2-2-2-4--2-2p0-|------|
|-0-0-0-0--0-0--|----------|-0-0-0-0--0-----|------|
|---------------|----------|----------------|------|

  W          W           Q      E  E  E  E  E     E    E  E  Q      H
|----------|----------|--------17-------------------|-17-----------------|
|----------|----------|-----------17-20-17-------17-|----17--------20b22|
|----------|----------|-19b21--------------19b21----|-------19b21--------|
|----------|----------|-----------------------------|--------------------|
|----------|----------|-----------------------------|--------------------|
|----------|----------|-----------------------------|--------------------|

  W          W           H    H         W
|----------|----------|---------------|------|
|----------|----------|-------9b10----|------|
|----------|----------|---------------|-8----|
|----------|----------|-/7------------|------|
|----------|----------|---------------|------|
|----------|----------|---------------|------|

                               PM|                 PM
                         |---3----|
  W          W           Q     Q  Q  H         Q   Q   H
|----------|----------|----------17-20b22----|----17--20b22----|
|----------|----------|-------17-------------|-----------------|
|----------|----------|-19b21----------------|-----------------|
|----------|----------|----------------------|-----------------|
|----------|----------|----------------------|-----------------|
|----------|----------|----------------------|-----------------|

                                |--3--|         |--3--|
  W          W           Q      E  E  E  Q      E  E  E
|----------|----------|--------17--------------17-------|
|----------|----------|-----------20p17-----------20p17-|
|----------|----------|-19b21-----------19b21-----------|
|----------|----------|---------------------------------|
|----------|----------|---------------------------------|
|----------|----------|---------------------------------|

          |--3--|
   Q      E  E  E  H
|--------17----------------|
|-----------20p17-20b22----|
|-19b21--------------------|
|--------------------------|
|--------------------------|
|--------------------------|

Chorus
   W           +W            W           +W
|-----------|-------------|-----------|---------|
|-19--------|-(19)--------|-21--------|-(21)----|
|-----------|-------------|-----------|---------|
|-----------|-------------|-----------|---------|
|-----------|-------------|-----------|---------|
|-----------|-------------|-----------|---------|

   H    H      W          E E E Q  E E E   Q  Q  H
|------------|----------|----------------|------------|
|-21---------|----------|----------------|------------|
|------------|----------|----------------|------------|
|------------|----------|-2-2-2-4--2-2p0-|-2----------|
|------------|----------|-0-0-0-0--0-----|-0----------|
|------------|----------|----------------|------------|

Chorus Out
  H.      E E   Q  Q  E E Q    H.      E  E   E  E E  E H
|-------------|--------------|--------------|----------------|
|-7-----------|--------------|-9------------|------9h10-9----|
|-7-----------|-7--7------7--|-9------------|-9h11-----------|
|-7-----------|-7--7------7--|-9-------9h11-|----------------|
|---------7h9-|-------7h9----|--------------|----------------|
|-------------|--------------|--------------|----------------|

  E E E Q  E Q    W          E E E Q  E E E   E E Q  E E Q
|---------------|----------|----------------|-----5------5--|
|---------------|----------|----------------|---------------|
|---------------|----------|----------------|-5s6----5s6----|
|-2-2-2-4--2-5--|----------|-2-2-2-4--2-2p0-|---------------|
|-0-0-0-0--0-0--|----------|-0-0-0-0--0-----|---------------|
|---------------|----------|----------------|---------------|

  H.      E E   Q  Q  E E Q    H.      E  E   E  E E  E H
|-------------|--------------|--------------|----------------|
|-7-----------|--------------|-9------------|------9h10-9----|
|-7-----------|-7--7------7--|-9------------|-9h11-----------|
|-7-----------|-7--7------7--|-9-------9h11-|----------------|
|---------7h9-|-------7h9----|--------------|----------------|
|-------------|--------------|--------------|----------------|

  E E E Q   E Q    W              E E E Q  E q
|----------------|--------------|---------------*|
|----------------|--------------|---------------*|
|----------------|--------------|---------------*|
|-2-2-2-4---2-5--|--------------|-2-2-2-4--2-2--*|
|-0-0-0-0---0-0--|--------------|-0-0-0-0--0-0--*|
|----------------|--------------|---------------*|
|
| Gtr II
|                        ~~~~
| H       Q   Q    E E E E H      W
|----------------|--------------|---------------*|
|-------------5--|-7p5---7-5----|---------------*|
|-------------5--|-7p5---7-5----|---------------*|
|----------------|-----7--------|---------------*|
|----------------|--------------|---------------*|
|----------------|--------------|---------------*|    
comments
We did not receive enough feedback on this tab! Please rate:
print report bad tab
1 2 3 4 5
I want to post or [tab]
guest
You may want to rate the tab now too:
select rating
Please do not post tabs as comments. Select "correction" instead!