Oops, an error
Loading. Please wait.

Rush Tab

ver2
ver2

Whole song

Interactive

More versions @911Tabs.com
3,191 views 1 this week
no commentswrite comment
1 2 3 4 5
excellent!
x 2
add to favorites launch autoscroll
font size
0
reset
Autoscroll
+/-
esc
set tempo
stop
Contributor
WARNING: You are trying to view
                                    content from Ultimate-Guitar.com
                                    in an unauthorized application,
                                    which is prohibited.

                                    Please use an official Ultimate
                                    Guitar Tabs application for iPhone,
                                    iPad or Android to access legitimate
                                    chords, guitar, bass, and drum tabs
                                    from Ultimate-Guitar.com database.

                                    Type "ultimate guitar tabs" in Apple
                                    App Store's or Android Market's
                                    search to find the application.
===========================================================

                   Rush
===========================================================

By:  Poisonblack
Album: Lust Stained Despair

Tabbed by: John Moores
mooresjw@email.uc.edu



Drop C Tuning (CGCFAD)

 *  = Palm Mute
 @  = Pinched harmonic
 x  = muted
(5) = natural harmonic on said fret


Intro/Main Riff
0:00

|--------------------------------------------------|
|--------------------------------------------------|
|--------------------------------------------------|
|--0-----------------------------------------------|
|--0---(5)-(5)------------------5-------5----------|
|--0---(5)-(5)-(5)----5--7--8-----8--7----7---3@---|

|-----------------------------------------------|
|-----------------------------------------------|
|-----------------------------------------------|
|-----------------------------------------------|
|---(5)-(5)-----------------5-----3--7--3-------|
|---(5)-(5)-(5)-0--5--7--8-----8----------------|
                                  *  *  *

|----------------------------------------------------|
|----------------------------------------------------|
|----------------------------------------------------|
|-0-------------------------------------5------------|
|-0--(5)-(5)--------------5-------5-----5---5-5-5--5-|
|-0--(5)-(5)-(5)--5--7--8---8--7-----7--5---5-5-5--5-|
                                            * * *

|-----------------------------------------------------|
|-----------------------------------------------------|
|-----------------------------------------------------|
|----7-7-7----3-3-3---2-2-2---------------------------|
|----7-7-7----3-3-3---2-2-2---------------------------|
|----7-7-7----3-3-3---2-2-2---------------------------|


0:14
Repeat main riff


Verse 1
0:27

|--------------------------------|
|--------------------------------|
|--------------------------------|
|--------------------------------|
|--------------------------------|
|-------000----------000---------|
        ***          ***

0:41

Guitar I
|---------------------------------------------------------|
|---------------------------------------------------------|
|---------------------------------------------------------|
|--1--------------------------1---------------------------|
|--1-0------------------------1-0-------------------------|
|--1-0--0--0--0--0--0-0-0--0--1-0--0--0--0--0-0-0-000-000-|
     *  *  *  *  *  * * *  *    *  *  *  *  * * * *** ***

|---------------------------------------------------------|
|---------------------------------------------------------|
|---------------------------------------------------------|
|--1--------------------------3-3-3--3--3--1-1-1---1--1---|
|--1-0------------------------3-3-3--3--3--1-1-1---1--1---|
|--1-0--0--0--0--0--0-0-0--0--3-3-3--3--3--1-1-1---1--1---|
     *  *  *  *  *  * * *  *  * * *  *  *  * * *   *  *

Guitar II
|----------------------------------------------------------|
|----------------------------------------------------------|
|----------------------------------------------------------|
|--1--------------------------1----------------------------|
|--1-0------------------------1-0--------------------------|
|--1-0--0--0--0--0--0-0-0--0--1-0--0--0--0--0-0-0-000-000--|
     *  *  *  *  *  * * *  *    *  *  *  *  * * * *** ***

|---------------------------------------------------------|
|---------------------------------------------------------|
|---------------------------------------------------------|
|-----------------------------3-3-3--3--3--1-1-1---1--1---|
|-3@-0------------------------3-3-3--3--3--1-1-1---1--1---|
|----0--0--0--0--0--0-0-0--0--3-3-3--3--3--1-1-1---1--1---|
     *  *  *  *  *  * * *  *  * * *  *  *  * * *   *  *


Verse 2
0:54

|------------------------------------|
|------------------------------------|
|------------------------------------|
|----------------------0-------------|
|----------------------0-------------|
|-------000----------000------000----|
        ***          **       ***
                       ^ Let Ring

Pre-chorus
1:07

|----------------------------------------|
|----------------------------------------|
|----------------------------------------|
|---8-8-8-8-8-8-8-8-8--------------------|
|---8-8-8-8-8-8-8-8-8--------------------|
|---8-8-8-8-8-8-8-8-8--------------------|

1:11

|------------------------------------------------------|
|------------------------------------------------------|
|------------------------------------------------------|
|----------------------------0--8-8-8-8-8-5-5-5-5-5-5--|
|--0-0--0-0-0--0-0-0--0-0-0--0--8-8-8-8-8-5-5-5-5-5-5--|
|--0-0--0-0-0--0-0-0--0-0-0--0--8-8-8-8-8-5-5-5-5-5-5--|
   * *  * * *  * * *  * * * 

|-----------------------------------------|
|-----------------------------------------|
|-----------------------------------------|
|---7-7-7---3-3-3---2-2-2-----------------|
|---7-7-7---3-3-3---2-2-2-----------------|
|---7-7-7---3-3-3---2-2-2-----------------|


Chorus/Main Riff    (Play Twice)
1:20

|--------------------------------------------------|
|--------------------------------------------------|
|--------------------------------------------------|
|--0-----------------------------------------------|
|--0---0-0---------------5--------5----------------|
|--0---0-0-0----5--7--8-----8--7-----7-----3@------|

|-----------------------------------------------|
|-----------------------------------------------|
|-----------------------------------------------|
|-----------------------------------------------|
|-----0-0-------------5-----3--7--3-------------|
|-----0-0-0--5--7--8-----8----------------------|


|-----------------------------------------------------|
|-----------------------------------------------------|
|-----------------------------------------------------|
|--0---------------------------------5----------------|
|--0--0-0-------------5--------5-----5---5-5-5--5-----|
|--0--0-0-0--5--7--8-----8--7-----7--5---5-5-5--5-----|


|-----------------------------------------------------|
|-----------------------------------------------------|
|-----------------------------------------------------|
|----7-7-7----3-3-3---2-2-2---------------------------|
|----7-7-7----3-3-3---2-2-2---------------------------|
|----7-7-7----3-3-3---2-2-2---------------------------|



1:49

Guitar I
|---------------------------------------------------------|
|---------------------------------------------------------|
|---------------------------------------------------------|
|--1--------------------------1---------------------------|
|--1-0------------------------1-0-------------------------|
|--1-0--0--0--0--0--0-0-0--0--1-0--0--0--0--0-0-0-000-000-|
     *  *  *  *  *  * * *  *    *  *  *  *  * * * *** ***

|---------------------------------------------------------|
|---------------------------------------------------------|
|---------------------------------------------------------|
|--1--------------------------3-3-3--3--3--1-1-1---1--1---|
|--1-0------------------------3-3-3--3--3--1-1-1---1--1---|
|--1-0--0--0--0--0--0-0-0--0--3-3-3--3--3--1-1-1---1--1---|
     *  *  *  *  *  * * *  *  * * *  *  *  * * *   *  *

Guitar II
|----------------------------------------------------------|
|----------------------------------------------------------|
|----------------------------------------------------------|
|--1--------------------------1----------------------------|
|--1-0------------------------1-0--------------------------|
|--1-0--0--0--0--0--0-0-0--0--1-0--0--0--0--0-0-0-000-000--|
     *  *  *  *  *  * * *  *    *  *  *  *  * * * *** ***

|---------------------------------------------------------|
|---------------------------------------------------------|
|---------------------------------------------------------|
|-----------------------------3-3-3--3--3--1-1-1---1--1---|
|-3@-0------------------------3-3-3--3--3--1-1-1---1--1---|
|----0--0--0--0--0--0-0-0--0--3-3-3--3--3--1-1-1---1--1---|
     *  *  *  *  *  * * *  *  * * *  *  *  * * *   *  *

Verse 3
2:01

|--------------------------------|
|--------------------------------|
|--------------------------------|
|--------------------------------|
|--------------------------------|
|-------000----------000---------|
        ***          ***
2:28

|--------------------------------|
|--------------------------------|
|--------------------------------|
|----8-8\\\----------------------|
|----8-8\\\----------------------|
|----8-8\\\----------------------|


Pre-chorus
2:32

|------------------------------------------------------|
|------------------------------------------------------|
|------------------------------------------------------|
|----------------------------0--8-8-8-8-8-5-5-5-5-5-5--|
|--0-0--0-0-0--0-0-0--0-0-0--0--8-8-8-8-8-5-5-5-5-5-5--|
|--0-0--0-0-0--0-0-0--0-0-0--0--8-8-8-8-8-5-5-5-5-5-5--|
   * *  * * *  * * *  * * * 

|-----------------------------------------|
|-----------------------------------------|
|-----------------------------------------|
|---7-7-7---3-3-3---2-2-2-----------------|
|---7-7-7---3-3-3---2-2-2-----------------|
|---7-7-7---3-3-3---2-2-2-----------------|


Chorus
2:41

|--------------------------------------------------|
|--------------------------------------------------|
|--------------------------------------------------|
|--0-----------------------------------------------|
|--0---0-0---------------5--------5----------------|
|--0---0-0-0----5--7--8-----8--7-----7-----3@------|

|-----------------------------------------------|
|-----------------------------------------------|
|-----------------------------------------------|
|-----------------------------------------------|
|-----0-0-------------5-----3--7--3-------------|
|-----0-0-0--5--7--8-----8----------------------|


|-----------------------------------------------------|
|-----------------------------------------------------|
|-----------------------------------------------------|
|--0---------------------------------5----------------|
|--0--0-0-------------5--------5-----5---5-5-5--5-----|
|--0--0-0-0--5--7--8-----8--7-----7--5---5-5-5--5-----|


|-----------------------------------------------------|
|-----------------------------------------------------|
|-----------------------------------------------------|
|----7-7-7----3-3-3---2-2-2---------------------------|
|----7-7-7----3-3-3---2-2-2---------------------------|
|----7-7-7----3-3-3---2-2-2---------------------------|


Bridge
2:55
|---------------------------|
|---------------------------|
|---------------------------|
|----0~~-----0~~------------|
|----0~~-----0~~------------|
|----0~~-----0~~------------|

3:07
Pick scratch

3:08
|------------------------|
|------------------------|
|------------------------|
|--1---------------------|  x4
|--1-0--0--0-------------|
|--1-0--0--0-------------|
        *  *

3:21

Guitar I
|----------------------------------------------------------|
|----------------------------------------------------------|
|----------------------------------------------------------|
|-----------1--------------------------1-------------------|
|-----------1-0------------------------1-0-----------------|
|-000-000---1-0--0--0--0--0--0-0-0--0--1-0--0--0--0--0-0-0-|
  *** ***        *  *  *  *  * * *  *       *  *  *  * * *

|----------------------------------------------------------|
|----------------------------------------------------------|
|----------------------------------------------------------|
|-----------1--------------------------1-------------------|
|-----------1-0------------------------1-0-----------------|
|-000-000---1-0--0--0--0--0--0-0-0--0--1-0--0--0--0--0-0-0-|
  *** ***        *  *  *  *  * * *  *       *  *  *  * * *


Guitar II
|----------------------------------------------------------|
|----------------------------------------------------------|
|----------------------------------------------------------|
|-----------1--------------------------1-------------------|
|-----------1-0------------------------1-0-----------------|
|-000-000---1-0--0--0--0--0--0-0-0--0--1-0--0--0--0--0-0-0-|
  *** ***        *  *  *  *  * * *  *       *  *  *  * * *

|----------------------------------------------------------|
|----------------------------------------------------------|
|----------------------------------------------------------|
|-------------------------------------1--------------------|
|------------3@-----------------------1-0------------------|
|-000-000-------0--0--0--0--0-0-0--0--1-0--0--0--0--0-0-0--|
  *** ***       *  *  *  *  * * *  *       *  *  *  * * *


Chorus (Play Twice)
3:36
|--------------------------------------------------|
|--------------------------------------------------|
|--------------------------------------------------|
|--0-----------------------------------------------|
|--0---0-0---------------5--------5----------------|
|--0---0-0-0----5--7--8-----8--7-----7-----3@------|

|-----------------------------------------------|
|-----------------------------------------------|
|-----------------------------------------------|
|-----------------------------------------------|
|-----0-0-------------5-----3--7--3-------------|
|-----0-0-0--5--7--8-----8----------------------|


|-----------------------------------------------------|
|-----------------------------------------------------|
|-----------------------------------------------------|
|--0---------------------------------5----------------|
|--0--0-0-------------5--------5-----5---5-5-5--5-----|
|--0--0-0-0--5--7--8-----8--7-----7--5---5-5-5--5-----|


|-----------------------------------------------------|
|-----------------------------------------------------|
|-----------------------------------------------------|
|----7-7-7----3-3-3---2-2-2---------------------------|
|----7-7-7----3-3-3---2-2-2---------------------------|
|----7-7-7----3-3-3---2-2-2---------------------------|


4:02
|------------------------|
|------------------------|
|------------------------|
|--1---------------------|
|--1-0-------------------|
|--1-0--0--0-------------|
        *  *



comments
We did not receive enough feedback on this tab! Please rate:
print report bad tab
1 2 3 4 5
I want to post or [tab]
guest
You may want to rate the tab now too:
select rating
Please do not post tabs as comments. Select "correction" instead!