Oops, an error
Loading. Please wait.

Still Alive Tab

ver4
ver4

Whole song

Interactive

More versions @911Tabs.com
6,760 views 33 this week
no commentswrite comment
1 2 3 4 5
accurate
x 3
Autoscroll
+/-
esc
set tempo
stop
Hey! There's an official Ultimate Guitar app which is ideal
for learning songs when you're away from computer. Get the app
WARNING: You are trying to view
                                    content from Ultimate-Guitar.com
                                    in an unauthorized application,
                                    which is prohibited.

                                    Please use an official Ultimate
                                    Guitar Tabs application for iPhone,
                                    iPad or Android to access legitimate
                                    chords, guitar, bass, and drum tabs
                                    from Ultimate-Guitar.com database.

                                    Type "ultimate guitar tabs" in Apple
                                    App Store's or Android Market's
                                    search to find the application.



                   "PORTAL"'S CLOSING CREDITS SONG
                           "STILL ALIVE"


               Original song by: Jonathan Coulton

                  Fingerstyle Arrangement by:
                        Gonзalo Martins

                 Video Version can be found at:
           http://www.youtube.com/watch?v=g_4rMlYThrg




Note: I found this song a lot easier to play if you tune the 
      third string (G) a half-step down, (making it a F#)
      instead of using the standard tuning.
      That's how I am presenting this tab to you.

Tuning: 1-> e    4-> D
        2-> B    5-> A
        3-> F#   6-> E





               Verse 1

E ||-----------3--2--0--0--|--2-----------------------|
B ||-----------------------|--------------------------|
F#||-----------------------|--------0-----------0-----|
D ||-----------------------|-----0-----0-----0-----0--|
A ||-----------------------|--0-----------2-----------|
E ||-----------------------|--------------------------|


--------------3--2--0--0--|-----2--------------0-----|
-----------3--------------|--------------3-----------|
--------0-----------0-----|--------0-----------0--3--|
-----0-----0-----0-----0--|-----0-----0-----0-----0--|
--0-----------2-----------|--0-----------2-----------|
--------------------------|--------------------------|


--------------------------|--0-----2--3--------0-----|
--------------------------|-----------------------2--|
--------0-----------0--3--|--------1-----------1-----|
-----0-----0-----0-----0--|-----2-----2-----2-----2--|
--0-----------2-----------|--2-----------2-----------|
--------------------------|--------------------------|


-----------0-----------0--|-----2--------------------|
--------3-----------------|--------------------------|
--------------------3-----|--------0-----------0-----|
--------2-----------2-----|-----0-----0-----0-----0--|
--0--4-----4--0--4-----4--|--0-----------2-----------|
--------------------------|--------------------------|


              Verse 2

--------------3--2--0--0--|--2-----------------------|
--------------------------|--------------------------|
--------0-----------0-----|--------0-----------0-----|
-----0-----0-----0-----0--|-----0-----0-----0-----0--|
--0-----------2-----------|--0-----------2-----------|
--------------------------|--------------------------|


--------------3--2--0--0--|-----2--------------0-----|
-----------3--------------|--------------3-----------|
--------0-----------0-----|--------0-----------0--3--|
-----0-----0-----0-----0--|-----0-----0-----0-----0--|
--0-----------2-----------|--0-----------2-----------|
--------------------------|--------------------------|


--------------------------|--0-----2--3--------0-----|
--------------------------|-----------------------2--|
--------0-----------0--3--|--------1-----------1-----|
-----0-----0-----0-----0--|-----2-----2-----2-----2--|
--0-----------2-----------|--2-----------2-----------|
--------------------------|--------------------------|

                                                       Chorus 1

-----------0-----------0--|--1--0-------------------|-------1----0-----------|
--------3-----------3-----|--------3--1-------------|--1------------3--3--1--|
-----------------3--------|-----------3-------3--4--|------------------------|
--------2-----------2-----|-----0--3----------------|------------------------|
--0--4-----4--0--4-----4--|--1----------------------|--3----3----3-----3-----|
--------------------------|-------------------------|------------------------|


-------------------------|-------1----3--1--0--1--|--0--1--1----1----3--5--|
--3--1--1-----1----------|--1---------------------|------------------------|
-----------3-------3--4--|------------------------|------------------------|
-------------------------|------------------------|------------------------|
--1-----1-----3----3-----|--3----3----3-----3-----|--1-----1----3----3-----|
-------------------------|------------------------|------------------------|


--6--6--5----3----1--3--|--5--5--3----------------|-----1--1--0-----0--2--2--|
------------------------|-----------6--6----3--1--|--3--------------5--------|
------------------------|-------------------------|--------------------------|
--0-----0---------------|--------------0----0-----|--------------------------|
-------------3----3-----|--3-----3----------------|--1-----1-----0-----0-----|
------------------------|-------------------------|--------------------------|


--------------------------|--------------------------|
--------------------------|--------------------------|
--------0-----------0-----|--------0-----------0-----|
-----0-----0-----0-----0--|-----0-----0-----0-----0--|
--0-----------2-----------|--0-----------2-----------|
--------------------------|--------------------------|

                                         Verse 3

--------------------------|--------------3--2--0--0--|
--------------------------|--------------------------|
--------0-----------0-----|--------0--3--------0-----|
-----0-----0-----0-----0--|-----0-----0-----0-----0--|
--0-----------2-----------|--0-----------2-----------|
--------------------------|--------------------------|


-----2--------------------|--------------3--2--0--0--|
--------------------------|-----------3--------------|
--------0-----------0-----|--------0-----------0-----|
-----0-----0-----0-----0--|-----0-----0-----0-----0--|
--0-----------2-----------|--0-----------2-----------|
--------------------------|--------------------------|


-----2--------------0-----|--------------------------|
--------------3-----------|--------------------------|
--------0-----------0--3--|--------0-----------0--3--|
-----0-----0-----0-----0--|-----0-----0-----0-----0--|
--0-----------2-----------|--0-----------2-----------|
--------------------------|--------------------------|


--0-----2--3--------0-----|-----------0-----------0--|
-----------------------2--|--------3-----------------|
--------1-----------1-----|--------------------3-----|
-----2-----2-----2-----2--|--------2-----------2-----|
--2-----------2-----------|--0--4-----4--0--4-----4--|
--------------------------|--------------------------|

                                          Verse 4

-----2--------------------|--------------3--2--0--0--|
--------------------------|--------------------------|
--------0-----------0-----|--------0-----------0-----|
-----0-----0-----0-----0--|-----0-----0-----0-----0--|
--0-----------2-----------|--0-----------2-----------|
--------------------------|--------------------------|


--2-----------------------|--------------3--2--0--0--|
--------------------------|-----------3--------------|
--------0-----------0-----|--------0-----------0-----|
-----0-----0-----0-----0--|-----0-----0-----0-----0--|
--0-----------2-----------|--0-----------2-----------|
--------------------------|--------------------------|


-----2--------------0-----|--------------------------|
--------------3-----------|--------------------------|
--------0-----------0--3--|--------0-----------0--3--|
-----0-----0-----0-----0--|-----0-----0-----0-----0--|
--0-----------2-----------|--0-----------2-----------|
--------------------------|--------------------------|


--0-----2--3--------0-----|-----------0-----------0--|--1--0-------------------|
-----------------------2--|--------3-----------3-----|--------3--1-------------|
--------1-----------1-----|-----------------3--------|-----------3-------3--4--|
-----2-----2-----2-----2--|--------2-----------2-----|-----0--3----------------|
--2-----------2-----------|--0--4-----4--0--4-----4--|--1----------------------|
--------------------------|--------------------------|-------------------------|

Chorus 2

-------1----0-----------|-------------------------|-------1----3--1--0--1--|
--1------------3--3--1--|--3--1--1-----1----------|--1---------------------|
------------------------|-----------3-------3--4--|------------------------|
------------------------|-------------------------|------------------------|
--3----3----3-----3-----|--1-----1-----3----3-----|--3----3----3-----3-----|
------------------------|-------------------------|------------------------|


--0--1--1----1----3--5--|--6--6--5----3----1--3--|--5--5--3----------------|
------------------------|------------------------|-----------6--6----3--1--|
------------------------|------------------------|-------------------------|
------------------------|--0-----0---------------|--------------0----0-----|
--1-----1----3----3-----|-------------3----3-----|--3-----3----------------|
------------------------|------------------------|-------------------------|


-----1--1--0-----0--2--2--|--------------------------|
--3--------------5--------|--------------------------|
--------------------------|--------0-----------0-----|
--------------------------|-----0-----0-----0-----0--|
--1-----1-----0-----0-----|--0-----------2-----------|
--------------------------|--------------------------|


--------------3-----2-----|--------------------------|
-----------------------3--|--------------------------|
--------0-----------0-----|--3-----0-----------0-----|
-----0-----0-----0-----0--|-----0-----0-----0-----0--|
--0-----------2-----------|--0-----------2-----------|
--------------------------|--------------------------|

              Verse 5

--------------3--2--0--0--|-----2--------------------|
--------------------------|--------------------------|
--------0--3--------0-----|--------0-----------0-----|
-----0-----0-----0-----0--|-----0-----0-----0-----0--|
--0-----------2-----------|--0-----------2-----------|
--------------------------|--------------------------|


--------------3--2--0--0--|-----2--------------0-----|
-----------3--------------|--------------3-----------|
--------0-----------0-----|--------0-----------0--3--|
-----0-----0-----0-----0--|-----0-----0-----0-----0--|
--0-----------2-----------|--0-----------2-----------|
--------------------------|--------------------------|


--------------------------|--0-----2--3--------0-----|
--------------------------|-----------------------2--|
--------0-----------0--3--|--------1-----------1-----|
-----0-----0-----0-----0--|-----2-----2-----2-----2--|
--0-----------2-----------|--2-----------2-----------|
--------------------------|--------------------------|


-----------0-----------0--|-----2--------------------|
--------3-----------------|--------------------------|
--------------------3-----|--------0-----------0-----|
--------2-----------2-----|-----0-----0-----0-----0--|
--0--4-----4--0--4-----4--|--0-----------2-----------|
--------------------------|--------------------------|

              Verse 6

--------------3--2--0--0--|--2-----------------------|
--------------------------|--------------------------|
--------0-----------0-----|--------0-----------0-----|
-----0-----0-----0-----0--|-----0-----0-----0-----0--|
--0-----------2-----------|--0-----------2-----------|
--------------------------|--------------------------|


--------------3--2--0--0--|-----2--------------0-----|
-----------3--------------|--------------3-----------|
--------0-----------0-----|--------0-----------0--3--|
-----0-----0-----0-----0--|-----0-----0-----0-----0--|
--0-----------2-----------|--0-----------2-----------|
--------------------------|--------------------------|


--------------------------|--0-----2--3--------0-----|
--------------------------|-----------------------2--|
--------0-----------0--3--|--------1-----------1-----|
-----0-----0-----0-----0--|-----2-----2-----2-----2--|
--0-----------2-----------|--2-----------2-----------|
--------------------------|--------------------------|

                                                       Chorus 3

-----------0-----------0--|--1--0-------------------|-------1----0-----------|
--------3-----------3-----|--------3--1-------------|--1------------3--3--1--|
-----------------3--------|-----------3-------3--4--|------------------------|
--------2-----------2-----|-----0--3----------------|------------------------|
--0--4-----4--0--4-----4--|--1----------------------|--3----3----3-----3-----|
--------------------------|-------------------------|------------------------|


-------------------------|-------1----3--1--0--1--|--0--1--1----1----3--5--|
--3--1--1-----1----------|--1---------------------|------------------------|
-----------3-------3--4--|------------------------|------------------------|
-------------------------|------------------------|------------------------|
--1-----1-----3----3-----|--3----3----3-----3-----|--1-----1----3----3-----|
-------------------------|------------------------|------------------------|


--6--6--5----3----1--3--|--5--5--3----------------|-----1--1--0-----0--2--2--|
------------------------|-----------6--6----3--1--|--3--------------5--------|
------------------------|-------------------------|--------------------------|
--0---------------------|--------------0----0-----|--------------------------|
--------5----3----3-----|--3-----3----------------|--1-----1-----0-----0-----|
------------------------|-------------------------|--------------------------|

                    Ending

--------------------5--5--|--7--5--2--------0--2--2--|
--------------------------|-----------3-----0--3--3--|
--------0-----------0-----|--------0-----------0-----|
-----0-----0-----0-----0--|-----0-----0-----0-----0--|
--0-----------2-----------|--0-----------2-----------|
--------------------------|--------------------------|


--------------------5--5--|--7--5--2--------0--2--2--|
--------------------------|-----------3-----0--3--3--|
--------0-----------0-----|--------0-----------0-----|
-----0-----0-----0-----0--|-----0-----0-----0-----0--|
--0-----------2-----------|--0-----------2-----------|
--------------------------|--------------------------|


--------------------5--5--|--7--5--2--------0--2--2--|
--------------------------|-----------3-----0--3--3--|
--------0-----------0-----|--------0-----------0-----|
-----0-----0-----0-----0--|-----0-----0-----0-----0--|
--0-----------2-----------|--0-----------2-----------|
--------------------------|--------------------------|


--------------------5--5--|--7--5--2--------0--2--2--|
--------------------------|-----------3-----0--3--3--|
--------0-----------0-----|--------0-----------0-----|
-----0-----0-----0-----0--|-----0-----0-----0-----0--|
--0-----------2-----------|--0-----------2-----------|
--------------------------|--------------------------|


--------------------5--5--|--7--5--2--------0--2--2--|
--------------------------|-----------3-----0--3--3--|
--------0-----------0-----|--------0-----------0-----|
-----0-----0-----0-----0--|-----0-----0-----0-----0--|
--0-----------2-----------|--0-----------2-----------|
--------------------------|--------------------------|


-----------------2--5--5--|-----------------3--2--2--|-------------------||
--------------------------|--------------------------|-------------------||
--------0-----------0-----|--------0-----------0-----|-------------------||
-----0-----0-----0-----0--|-----0-----0-----0-----0--|-------------------||
--0-----------2-----------|--0-----------2-----------|-------------------||
--------------------------|--------------------------|-------------------||

comments
We did not receive enough feedback on this tab! Please rate:
print report bad tab
1 2 3 4 5
I want to post or [tab]
guest
You may want to rate the tab now too:
select rating
Please do not post tabs as comments. Select "correction" instead!