Oops, an error
Loading. Please wait.

I Dont Want You To Love Me Tab

549 views 1 this week
no commentswrite comment
1 2 3 4 5
excellent!
x 1
Autoscroll
+/-
esc
set tempo
stop
Contributor
Difficulty
intermediate
NEW! There's an official Ultimate Guitar app which is ideal
for learning songs when you're away from computer. Get the app
WARNING: You are trying to view
                                    content from Ultimate-Guitar.com
                                    in an unauthorized application,
                                    which is prohibited.

                                    Please use an official Ultimate
                                    Guitar Tabs application for iPhone,
                                    iPad or Android to access legitimate
                                    chords, guitar, bass, and drum tabs
                                    from Ultimate-Guitar.com database.

                                    Type "ultimate guitar tabs" in Apple
                                    App Store's or Android Market's
                                    search to find the application.
-------------------------------------------------------------------------------
                             I DON'T WANT YOU TO LOVE ME - Prima Donna
-------------------------------------------------------------------------------
Tabbed by: ironmanben
Email: bentrooper@gmail.com

Tuning: e B G D A E

guitar 1 - Kevin Preston - lead
guitar 2 - Eric Arcane - rhythm (a little hard to hear, but it's there)
guitar 3 - Eric Arcane - fills
guitar 4 - Kevin Preston - guitar solo


main riff 1:
(guitar 1:)
 | x3              | x1              |
e|-----------------|-----------------|
B|-----------------|-----------------|
G|-----------------|-----------------|
D|-2---2---5---7---|-2---------------|
A|-2---2---5---7---|-2---------------|
E|-0---0---3---5---|-0---------------|
-| (guitar 2:)     |                 |
e|-----------------|-----------------|
B|-----------------|-----------------|
G|-2h4-2h4-2h4-2h4-|-2h4-------------|
D|-----------------|-----------------|
A|-----------------|-----------------|
E|-----------------|-----------------|


verse 1:
(guitar 1:)
e|---------------------------------|---------------------------------|
B|---------------------------------|---------------------------------|
G|---------------------------------|---------------------------------|
D|-2---2---5---7-2---2-2---5---7---|-2---2---5---7-2---2-2---5---7---|
A|-2---2---5---7-2---2-2---5---7---|-2---2---5---7-2---2-2---5---7---|
E|-0---0---3---5-0---0-0---3---5---|-0---0---3---5-0---0-0---3---5---|
-| (guitar 2:)                     |                                 |
e|---------------------------------|---------------------------------|
B|---------------------------------|---------------------------------|
G|-2h4-2h4-2h4-2h4-2h4-2h4-2h4-2h4-|-2h4-2h4-2h4-2h4-2h4-2h4-2h4-2h4-|
D|---------------------------------|---------------------------------|
A|---------------------------------|---------------------------------|
E|---------------------------------|---------------------------------|
-| (guitar 3:)                     |                                 |
e|-----0-0-0-0---0---0-------------|-----0-0-0-0---0---0-------------|
B|-----0-0-0-0---0---0-------------|-----0-0-0-0---0---0-------------|
G|---------------------------------|---------------------------------|
D|---------------------------------|---------------------------------|
A|---------------------------------|---------------------------------|
E|---------------------------------|---------------------------------|


e|---------------------------------|---------------------------------|
B|---------------------------------|---------------------------------|
G|---------------------------------|---------------------------------|
D|-7---7---10--12-7---7-7---10--12-|-2---2---5---7-2---2-2---5---7---|
A|-7---7---10--12-7---7-7---10--12-|-2---2---5---7-2---2-2---5---7---|
E|-5---5---8---10-5---5-5---8---10-|-0---0---3---5-0---0-0---3---5---|
-|                                 |                                 |
e|---------------------------------|---------------------------------|
B|---------------------------------|---------------------------------|
G|-2---2---5---7--2---2-2---5---7--|-2h4-2h4-2h4-2h4-2h4-2h4-2h4-2h4-|
D|---------------------------------|---------------------------------|
A|---------------------------------|---------------------------------|
E|---------------------------------|---------------------------------|
-|                                 |                                 |
e|-----5-----5---5-----------------|-----1-1-3-3---1---1-1-1-1---1-1-|
B|-----5-----5---5-----------------|-----1-1-3-3---1---1-1-1-1---1-1-|
G|---------------------------------|---------------------------------|
D|---------------------------------|---------------------------------|
A|---------------------------------|---------------------------------|
E|---------------------------------|---------------------------------|



pre-chorus:
(guitar 1:)
e|----------------------------------------------------|
B|----------------------------------------------------|
G|----------------------------------------------------|
D|----------------------------------------------------|
A|-2---2-2-2-2-2-2-2-2-2-2-3-3-3-3--2-----------------|
E|----------------------------------------------------|
-| (guitar 2:)                                        |
e|----------------------------------------------------|
B|----------------------------------------------------|
G|----------------------------------------------------|
D|-9---9-9-9-9-9-9-9-9-9-9-10101010-9-----------------|
A|-9---9-9-9-9-9-9-9-9-9-9-10101010-9-----------------|
E|-7---7-7-7-7-7-7-7-7-7-7-8-8-8-8--7-----------------|



bridge riff:
(guitar 3 only:)
e|--3-0--------------|
B|------3-0----------|
G|----------2br(4)-0-|
D|-------------------|
A|-------------------|
E|-------------------|


main riff 2:
(guitars 1 & 2:)
 | x1              | x1              |
e|-----------------|-----------------|
B|-----------------|-----------------|
G|-----------------|-----------------|
D|-2---2---5---7---|-2---------------|
A|-2---2---5---7---|-2---------------|
E|-0---0---3---5---|-0---------------|
-| (guitar 2:)     |                 |
e|-----------------|-----------------|
B|-----------------|-----------------|
G|-2h4-2h4-2h4-2h4-|-2h4-------------|
D|-----------------|-----------------|
A|-----------------|-----------------|
E|-----------------|-----------------|




verse 2:
(guitar 1:)
e|---------------------------------|---------------------------------|
B|---------------------------------|---------------------------------|
G|---------------------------------|---------------------------------|
D|-2---2---5---7-2---2-2---5---7---|-2---2---5---7-2---2-2---5---7---|
A|-2---2---5---7-2---2-2---5---7---|-2---2---5---7-2---2-2---5---7---|
E|-0---0---3---5-0---0-0---3---5---|-0---0---3---5-0---0-0---3---5---|
-| (guitar 2:)                     |                                 |
e|---------------------------------|---------------------------------|
B|---------------------------------|---------------------------------|
G|-2h4-2h4-2h4-2h4-2h4-2h4-2h4-2h4-|-2h4-2h4-2h4-2h4-2h4-2h4-2h4-2h4-|
D|---------------------------------|---------------------------------|
A|---------------------------------|---------------------------------|
E|---------------------------------|---------------------------------|
-| (guitar 3:)                     |                                 |
e|---------------------------------|---------------------------------|
B|---------------------------------|---------------------------------|
G|---------------------------------|---------------------------------|
D|---------------------------------|---------------------------------|
A|-------7-/14---5-7---------------|-------7-/14---5-7---------------|
E|---------------------------------|---------------------------------|


e|---------------------------------|---------------------------------|
B|---------------------------------|---------------------------------|
G|---------------------------------|---------------------------------|
D|-7---7---10--12-7---7-7---10--12-|-2---2---5---7-2---2-2---5---7---|
A|-7---7---10--12-7---7-7---10--12-|-2---2---5---7-2---2-2---5---7---|
E|-5---5---8---10-5---5-5---8---10-|-0---0---3---5-0---0-0---3---5---|
-|                                 |                                 |
e|---------------------------------|---------------------------------|
B|---------------------------------|---------------------------------|
G|-2---2---5---7--2---2-2---5---7--|-2h4-2h4-2h4-2h4-2h4-2h4-2h4-2h4-|
D|---------------------------------|---------------------------------|
A|---------------------------------|---------------------------------|
E|---------------------------------|---------------------------------|
-|                                 |                                 |
e|-----5-5-5-5---5-----------------|-----------------0---------------|
B|-----5-5-5-5---5-----------------|-----------------0---------------|
G|---------------------------------|---------------------------------|
D|---------------------------------|---------------------------------|
A|---------------------------------|-------7-/12---7-----------------|
E|---------------------------------|---------------------------------|



guitar solo:
(guitar 4:)
e|-0-000-000-000-000-0-0-0-0---0---|-0-000-000-000-000-0-0-0-0---0---|
B|-5-555-555-555-555-3-2-0-0---0---|-5-555-555-555-555-3-2-0-0---0---|
G|-----------------------2---------|-----------------------2---------|
D|---------------------------------|---------------------------------|
A|---------------------------------|---------------------------------|
E|---------------------------------|---------------------------------|

e|--------------------------------------------------------|
B|--------------------------------------------------------|
G|-0-2-2^(4)---2pb(4)---2br(4)p0---0-2br(4)p0---0-----0---|
D|-------------------------------2------------2-----2-----|
A|--------------------------------------------------------|
E|--------------------------------------------------------|

e|-000000000-000-000---------------------14---14-17---14-17-19-19br(21)p17-|
B|-555555555-555-555-/17-17-17-17---17-------------------------------------|
G|-------------------------------------------------------------------------|
D|-------------------------------------------------------------------------|
A|-------------------------------------------------------------------------|
E|-------------------------------------------------------------------------|

e|----17---19p17----17-19-17h19-----------------|
B|-19------------19-----------------------------|
G|----------------------------------------------|
D|----------------------------------------------|
A|----------------------------------------------|
E|----------------------------------------------|


verse 3:
(guitar 1:)
e|-----------------------------------------------------------------|
B|-----------------------------------------------------------------|
G|-----------------------------------------------------------------|
D|-2---2---2---2---2---2---2---2---2---2---2---2---2---2---2---2---|
A|-2---2---2---2---2---2---2---2---2---2---2---2---2---2---2---2---|
E|-0---0---0---0---0---0---0---0---0---0---0---0---0---0---0---0---|
-| (guitar 2:)                                                     |
e|-----------------------------------------------------------------|
B|-----------------------------------------------------------------|
G|-----------------------------------------------------------------|
D|-2---2---2---2---2---2---2---2---2---2---2---2---2---2---2---2---|
A|-2---2---2---2---2---2---2---2---2---2---2---2---2---2---2---2---|
E|-0---0---0---0---0---0---0---0---0---0---0---0---0---0---0---0---|
-| (guitar 3:)                                                     |
e|-----------------------------------------------------------------|
B|-----------------------------------------------------------------|
G|-----------------------------------------------------------------|
D|-----------------------------------------------------------------|
A|-----------------------------------------------------------------|
E|-----------------------------------------------------------------|


e|---------------------------------|---------------------------------|
B|---------------------------------|---------------------------------|
G|---------------------------------|---------------------------------|
D|-7-------7-------7-------7-------|-7-------7-------7-------7-------|
A|-7-------7-------7-------7-------|-7-------7-------7-------7-------|
E|-5-------5-------5-------5-------|-5-------5-------5-------5-------|
-|                                 |                                 |
e|---------------------------------|---------------------------------|
B|---------------------------------|---------------------------------|
G|---------------------------------|---------------------------------|
D|-7-------7-------7-------7-------|-7-------7-------7-------7-------|
A|-7-------7-------7-------7-------|-7-------7-------7-------7-------|
E|-5-------5-------5-------5-------|-5-------5-------5-------5-------|
-|                                 |                                 |
e|-12-12-----------12-12-----------|-12-12-----------12-12-----------|
B|-------15^(17)---------15^(17)---|-------15^(17)---------15^(17)---|
G|---------------------------------|---------------------------------|
D|---------------------------------|---------------------------------|
A|---------------------------------|---------------------------------|
E|---------------------------------|---------------------------------|


e|-------------------------------------------------|
B|-------------------------------------------------|
G|-------------------------------------------------|
D|-2-----2-----2-----2-----2-----2-----2-----2-----|
A|-2-----2-----2-----2-----2-----2-----2-----2-----|
E|-0-----0-----0-----0-----0-----0-----0-----0-----|
-|                                                 |
e|-------------------------------------------------|
B|-------------------------------------------------|
G|-------------------------------------------------|
D|-2-----2-----2-----2-----2-----2-----2-----2-----|
A|-2-----2-----2-----2-----2-----2-----2-----2-----|
E|-0-----0-----0-----0-----0-----0-----0-----0-----|
-|                                                 |
e|-15----------------------------------------------|
B|------10-10^(12)---10-8-10^(12)---10-8-----------|
G|---------------------------------------9---------|
D|-------------------------------------------------|
A|-------------------------------------------------|
E|-------------------------------------------------|


outro:
(guitar 1:)
e|-------------------------------------------------------------------------|
B|-------------------------------------------------------------------------|
G|-------------------------------------------------------------------------|
D|---2---------------------------------------------------------------------|
A|---2--------222222222222222222222222222222222222222222222222222222222222-|
E|---0--------000000000000000000000000000000000000000000000000000000000000-|
-| (guitar 3:)                                                             |
e|---0-------/12-12121212121212-10------10---10--10--10--10--10--/-/-/-/-/-|
B|---0-------/12-12121212121212-10^(12)-(12)(12)(12)(12)(12)(12)/-/-/-/-/--|
G|-------------------------------------------------------------------------|
D|-------------------------------------------------------------------------|
A|-------------------------------------------------------------------------|
E|-------------------------------------------------------------------------|

e|-----------------|
B|-----------------|
G|-----------------|
D|---------2---2---|
A|---------2---2---|
E|---------0---0---|
-|                 |
e|-----------------|
B|-----------------|
G|---------9---9---|
D|---------9---9---|
A|---------7---7---|
E|-----------------|



Order:
main riff 1
verse 1
pre-chorus
bridge riff
main riff 2
verse 2
pre-chorus
bridge riff
guitar solo/(guitars 1 & 2 play their parts for the verse and pre-chorus)
bridge riff
main riff 2
verse 3
pre-chorus
bridge riff
main riff 1  
outro



************************************

| /   slide up
| \   slide down
| h   hammer-on
| p   pull-off
| ~   vibrato
| +   harmonic
| x   Mute note
| b   Bend
| pb  Pre-bend
| br  Bend release
| pbr Pre-bend release
| brb Bend release bend

************************************
comments
We did not receive enough feedback on this tab! Please rate:
print report bad tab
1 2 3 4 5
I want to post or [tab]
guest
You may want to rate the tab now too:
select rating
Please do not post tabs as comments. Select "correction" instead!