Oops, an error
Loading. Please wait.

Dmv Bass Tab

ver4
ver4

Intro

Whole song

More versions @911Tabs.com
1,180 views 3 this week
no commentswrite comment
1 2 3 4 5
please rate
Autoscroll
+/-
esc
set tempo
stop
Contributor
WARNING: You are trying to view
                                    content from Ultimate-Guitar.com
                                    in an unauthorized application,
                                    which is prohibited.

                                    Please use an official Ultimate
                                    Guitar Tabs application for iPhone,
                                    iPad or Android to access legitimate
                                    chords, guitar, bass, and drum tabs
                                    from Ultimate-Guitar.com database.

                                    Type "ultimate guitar tabs" in Apple
                                    App Store's or Android Market's
                                    search to find the application.
#----------------------------------PLEASE NOTE---------------------------------#
#This file is the author's own work and represents their interpretation of the #
#song. You may only use this file for private study, scholarship, or research. #
#------------------------------------------------------------------------------#

DMV (Bassline)
As recorded by Primus
(From the 1993 Album PORK SODA)

Transcribed by James Godbold
	



Gtr I (B E A D G) - 'Untitled'

   Intro
    Q=126
   4/4
    Gtr I
     S  S  S  S  S  S  S  S  E  E Q
||--------------19----------18-18----|
||o----18----------18----------------|
||--------17----------17-------------|
||o----------------------------------|
||--15-------15----------15----------|


  1.
   H                       Q     S  S S  S
|-------------19----------18-18-18-18---18---||
|----18----------18-------------17-17---17--o||
|-------17----------17-----------------------||
|-------------------------------16s15-------o||
|-15-------15----------15--------------------||
   S  S  S  S  S  S  S  S  E  E  S  S E


  2.
   H                       E  E  E  E   S  S  S S  S  S  S S  E  E E  E
|-------------19----------18-18-18----|-----------19---------18-18---18-|
|----18----------18-------------------|---18---------18-----------------|
|-------17----------17----------------|------17---------17--------------|
|-------------------------------------|---------------------------------|
|-15-------15----------15-------15\---|-3-------3----------3------------|
   S  S  S  S  S  S  S  S  Q     Q


  S  S  S S  S  S  S S  E  E Q    S  S  S S  S  S  S S  E  E S  S S  S
|-----------19---------18-18----|-----------19---------18-18---18---18-|
|---18---------18---------------|---18---------18--------------17---17-|
|------17---------17------------|------17---------17-------------------|
|-------------------------------|---------------------------------3----|
|-3-------3----------3----------|-3-------3----------3-----------------|


  S  S  S S  S  S  S S  E  E  Q
|-----------19---------18----------||
|---18---------18------------------||
|------17---------17---------------||
|----------------------------------||
|-3-------3----------3----10s19\---||


   Verse
     S  S  S  S  S  S  S  S  E  E E  E    S  S  S  S  S  S  S  S  E E Q
||--------------19----------18-18---18-|-------------19----------18------|
||o----18----------18------------------|----18----------18---------------|
||--------17----------17---------------|-------17----------17------------|
||o------------------------------------|---------------------------------|
||--15-------15----------15------------|-15-------15----------15---------|


   S  S  S  S  S  S  S  S  E  E E  E    S  S  S  S  S  S  S  S  E E Q
|-------------19----------18-18---18-|-------------19----------18------|
|----18----------18------------------|----18----------18---------------|
|-------17----------17---------------|-------17----------17------------|
|------------------------------------|---------------------------------|
|-15-------15----------15------------|-15-------15----------15---------|


   S  S  S  S  S  S  S  S  E  E E  E    S  S  S  S  S  S  S  S  E E Q
|-------------19----------18-18---18-|-------------19----------18--------|
|----18----------18------------------|----18----------18-----------------|
|-------17----------17---------------|-------17----------17--------------|
|------------------------------------|-----------------------------------|
|-15-------15----------15------------|-15-------15----------15-----------|


   S  S  S  S  S  S  S  S  E  E E  E    S  S  S  S  S  S  S  S  E E  Q
|-------------19----------18-18---18-|-------------19----------18--------|
|----18----------18------------------|----18----------18-----------------|
|-------17----------17---------------|-------17----------17--------------|
|------------------------------------|-----------------------------------|
|-15-------15----------15------------|-15-------15----------15------15\--|


  Q   E  E Q   E  E    Q   E  E Q   E  E
|----18-18----18-18--|----18-18----18-18-|
|----17-17----17-17--|----17-17----17-17-|
|----10-10----10-10\-|----10-10----10-10-|
|--------------------|-------------------|
|--------------------|-------------------|


  Q   E S S  E S  S  E  E    S S S  S  E  E  S S S  S  Q
|----18-x-x-18-x-18--------|-x-x-x-18--------x-x-x-18------|
|----17-x-x-17-x-17--------|-x-x-x-17--------x-x-x-17------|
|----10-------------10-11\-|----------10-11\---------------|
|--------------------------|-------------------------------|
|--------------------------|--------------------------15\--|


  1.
   S  S  S  S  S  S  S  S  E  E Q     S  S  S  S  S  S  S  S  E  E Q
|-------------19----------18-18----|-------------19----------18-18----|
|----18----------18----------------|----18----------18----------------|
|-------17----------17-------------|-------17----------17-------------|
|----------------------------------|----------------------------------|
|-15-------15----------15----------|-15-------15----------15----------|


   S  S  S  S  S  S  S  S  E  E Q     S  S  S  S  S  S  S  S  E  E Q
|-------------19----------18-18----|-------------19----------18-18-------||
|----18----------18----------------|----18----------18------------------o||
|-------17----------17-------------|-------17----------17----------------||
|----------------------------------|------------------------------------o||
|-15-------15----------15----------|-15-------15----------15-------------||


  2.
  S S S  S E E S S S  S E E   S S S  S E E S S S  S E E
|-x-x-x-18-----x-x-x-18-----|-x-x-x-18-----x-x-x-18-----|
|-x-x-x-17-----x-x-x-17-----|-x-x-x-17-----x-x-x-17-----|
|---------------------------|---------------------------|
|----------3-3----------3---|----------3-3----------3---|
|-------------------------3-|-------------------------3-|


  S S S  S E E S S S  S E E    S  S  S  S E E  S  S  E Q
|-x-x-x-18-----x-x-x-18-----|-17-17-17-17-----17-17-17-----||
|-x-x-x-17-----x-x-x-17-----|-16-16-16-16-----16-16-16-----||
|---------------------------|------------------------------||
|----------3------------3---|-------------3----------------||
|------------3------------3-|---------------3----------9\--||


 Interlude 1
  E E E. S E E S S S S   E E E. S E E Q
|-x------------x-x-x-x-|-x---------------|
|-x------------x-x-x-x-|-x---------------|
|-x------------x-x-x-x-|-x---------------|
|-x------------x-x-x-x-|-x---------------|
|-x---3--x-3-3-x-x-x-x-|-x---3--x-3------|


  E S S E. S E E S S E   S S E E S S E E S S E
|-x-x-x----------x-x-x-|-x-x---x-x-x-x-x-x-x-x--|
|-x-x-x----------x-x-x-|-x-x---x-x-x-x-x-x-x-x--|
|-x-x-x----------x-x-x-|-x-x---x-x-x-x-x-x-x-x--|
|-x-x-x----------x-x-x-|-x-x---x-x-x-x-x-x-x-x--|
|-x-x-x-3--x-3-3-x-x-x-|-x-x---x-x-x-x-x-x-x-x--|


   S  S  S  S  S  S  S  S  E  E E  E    S  S  S  S  S  S  S  S  E E Q
|-------------19----------18-18---18-|-------------19----------18------|
|----18----------18------------------|----18----------18---------------|
|-------17----------17---------------|-------17----------17------------|
|------------------------------------|---------------------------------|
|-15-------15----------15------------|-15-------15----------15---------|


   S  S  S  S  S  S  S  S  E  E E  E    S  S  S  S  S  S  S  S  E E Q
|-------------19----------18-18---18-|-------------19----------18--------|
|----18----------18------------------|----18----------18-----------------|
|-------17----------17---------------|-------17----------17--------------|
|------------------------------------|-----------------------------------|
|-15-------15----------15------------|-15-------15----------15-----------|


   S  S  S  S  S  S  S  S  E  E E  E    S  S  S  S  S  S  S  S  E E Q
|-------------19----------18-18---18-|-------------19----------18------|
|----18----------18------------------|----18----------18---------------|
|-------17----------17---------------|-------17----------17------------|
|------------------------------------|---------------------------------|
|-15-------15----------15------------|-15-------15----------15---------|


   S  S  S  S  S  S  S  S  E  E E  E    S  S  S  S  S  S  S  S  E E Q
|-------------19----------18-18---18-|-------------19----------18--------||
|----18----------18------------------|----18----------18-----------------||
|-------17----------17---------------|-------17----------17--------------||
|------------------------------------|-----------------------------------||
|-15-------15----------15------------|-15-------15----------15-----------||


   Verse
    S S E S S E E E E E   S S E S S E E E E E  4x
||--x-x-x---x-x-x-x---x-|-x-x-x---x-x-x-----x--||
||o---------------------|---------------------o||
||----------------------|----------------------||
||o---------------------|---------------------o||
||--3-------------------|-3--------------------||
    W                     W


  Q   E  E Q   E  E    Q   E  E Q   E  E
|----18-18----18-18--|----18-18----18-18-|
|----17-17----17-17--|----17-17----17-17-|
|----10-10----10-10\-|----10-10----10-10-|
|--------------------|-------------------|
|--------------------|-------------------|


  Q   E S S  E S  S  E  E    S S S  S  E  E  S S S  S  Q
|----18-x-x-18-x-18--------|-x-x-x-18--------x-x-x-18------|
|----17-x-x-17-x-17--------|-x-x-x-17--------x-x-x-17------|
|----10-------------10-11\-|----------10-11\---------------|
|--------------------------|-------------------------------|
|--------------------------|--------------------------15\--|


  S S S  S E E S S S  S E E   S S S  S E E S S S  S E E
|-x-x-x-18-----x-x-x-18-----|-x-x-x-18-----x-x-x-18-----|
|-x-x-x-17-----x-x-x-17-----|-x-x-x-17-----x-x-x-17-----|
|---------------------------|---------------------------|
|----------3-3----------3---|----------3-3----------3---|
|-------------------------3-|-------------------------3-|


  S S S  S E E S S S  S E E    S  S  S  S E E  S  S  E Q
|-x-x-x-18-----x-x-x-18-----|-17-17-17-17-----17-17-17-----||
|-x-x-x-17-----x-x-x-17-----|-16-16-16-16-----16-16-16-----||
|---------------------------|------------------------------||
|----------3------------3---|-------------3----------------||
|------------3------------3-|---------------3----------9\--||


   S  S  S  S  S  S  S  S  E  E E  E    S  S  S  S  S  S  S  S  E E Q
|-------------19----------18-18---18-|-------------19----------18------|
|----18----------18------------------|----18----------18---------------|
|-------17----------17---------------|-------17----------17------------|
|------------------------------------|---------------------------------|
|-15-------15----------15------------|-15-------15----------15---------|


   S  S  S  S  S  S  S  S  E  E E  E    S  S  S  S  S  S  S  S  E E Q
|-------------19----------18-18---18-|-------------19----------18--------||
|----18----------18------------------|----18----------18-----------------||
|-------17----------17---------------|-------17----------17--------------||
|------------------------------------|-----------------------------------||
|-15-------15----------15------------|-15-------15----------15-----------||


 Interlude 2
   S  S  S  S  S  S  S  S  E  E E  E    S  S  S  S  S  S  S  S  E E Q
|-------------19----------18-18---18-|-------------19----------18------|
|----18----------18------------------|----18----------18---------------|
|-------17----------17---------------|-------17----------17------------|
|------------------------------------|---------------------------------|
|-15-------15----------15------------|-15-------15----------15---------|


   S  S  S  S  S  S  S  S  E  E E  E    S  S  S  S  S  S  S  S  E E Q
|-------------19----------18-18---18-|-------------19----------18--------|
|----18----------18------------------|----18----------18-----------------|
|-------17----------17---------------|-------17----------17--------------|
|------------------------------------|-----------------------------------|
|-15-------15----------15------------|-15-------15----------15-----------|


   S  S  S  S  S  S  S  S  E  E E  E    S  S  S  S  S  S  S  S  E E Q
|-------------19----------18-18---18-|-------------19----------18------|
|----18----------18------------------|----18----------18---------------|
|-------17----------17---------------|-------17----------17------------|
|------------------------------------|---------------------------------|
|-15-------15----------15------------|-15-------15----------15---------|


   S  S  S  S  S  S  S  S  E  E E  E    S  S  S  S  S  S  S  S  E E Q
|-------------19----------18-18---18-|-------------19----------18--------||
|----18----------18------------------|----18----------18-----------------||
|-------17----------17---------------|-------17----------17--------------||
|------------------------------------|-----------------------------------||
|-15-------15----------15------------|-15-------15----------15-----------||


 Verse
   S  S  S  S  S  S  S  S  E  E E  E    S  S  S  S  S  S  S  S  E E Q
|-------------19----------18-18---18-|-------------19----------18------|
|----18----------18------------------|----18----------18---------------|
|-------17----------17---------------|-------17----------17------------|
|------------------------------------|---------------------------------|
|-15-------15----------15------------|-15-------15----------15---------|


   S  S  S  S  S  S  S  S  E  E E  E    S  S  S  S  S  S  S  S  E E Q
|-------------19----------18-18---18-|-------------19----------18--------|
|----18----------18------------------|----18----------18-----------------|
|-------17----------17---------------|-------17----------17--------------|
|------------------------------------|-----------------------------------|
|-15-------15----------15------------|-15-------15----------15-----------|


   S  S  S  S  S  S  S  S  E  E E  E    S  S  S  S  S  S  S  S  E E Q
|-------------19----------18-18---18-|-------------19----------18------|
|----18----------18------------------|----18----------18---------------|
|-------17----------17---------------|-------17----------17------------|
|------------------------------------|---------------------------------|
|-15-------15----------15------------|-15-------15----------15---------|


   S  S  S  S  S  S  S  S  E  E E  E    S  S  S  S  S  S  S  S  E E Q
|-------------19----------18-18---18-|-------------19----------18--------|
|----18----------18------------------|----18----------18-----------------|
|-------17----------17---------------|-------17----------17--------------|
|------------------------------------|-----------------------------------|
|-15-------15----------15------------|-15-------15----------15-----------|


  Q   E  E Q   E  E    Q   E  E Q   E  E
|----18-18----18-18--|----18-18----18-18-|
|----17-17----17-17--|----17-17----17-17-|
|----10-10----10-10\-|----10-10----10-10-|
|--------------------|-------------------|
|--------------------|-------------------|


  Q   E S S  E S  S  E  E    S S S  S  E  E  S S S  S  Q
|----18-x-x-18-x-18--------|-x-x-x-18--------x-x-x-18------|
|----17-x-x-17-x-17--------|-x-x-x-17--------x-x-x-17------|
|----10-------------10-11\-|----------10-11\---------------|
|--------------------------|-------------------------------|
|--------------------------|--------------------------15\--|


  S S S  S E E S S S  S E E   S S S  S E E S S S  S E E
|-x-x-x-18-----x-x-x-18-----|-x-x-x-18-----x-x-x-18-----|
|-x-x-x-17-----x-x-x-17-----|-x-x-x-17-----x-x-x-17-----|
|---------------------------|---------------------------|
|----------3-3----------3---|----------3-3----------3---|
|-------------------------3-|-------------------------3-|


  S S S  S E E S S S  S E E    S  S  S  S E E  S  S  E Q
|-x-x-x-18-----x-x-x-18-----|-17-17-17-17-----17-17-17-----||
|-x-x-x-17-----x-x-x-17-----|-16-16-16-16-----16-16-16-----||
|---------------------------|------------------------------||
|----------3------------3---|-------------3----------------||
|------------3------------3-|---------------3----------9\--||


      |-3-|                               |-3-|
    E S S S  S  S S S  E  S  S S S  E   E S S S  S  S S S  E  E  S  S  E
||----x-----12s13---x-12-12s13---x-12-|---x-----12s13---x-12-12-13-15-17-|
||o-----x---13s14---x-13-13s14---x-13-|-----x---13s14---x-13-13-14-16-18-|
||--------x-13s14---x-13-13s14---x-13-|-------x-13s14---x-13-13-14-16-18-|
||o-----------------------------------|----------------------------------|
||--5---------------------------------|-5--------------------------------|


    |-3-|                               |-3-|
  E S S S  S  S S S  E  S  S S S  E   E S S S  S  S S S E   E S S E
|---x-----12s13---x-12-12s13---x-12-|---x-----12s13---x----/x-------|
|-----x---13s14---x-13-13s14---x-13-|-----x---13s14---x-------------|
|-------x-13s14---x-13-13s14---x-13-|-------x-13s14---x-------x-x-x-|
|-----------------------------------|-------------------------------|
|-5---------------------------------|-5-----------------x/----------|


    |-3-|                               |-3-|
  E S S S  S  S S S  E  S  S S S  E   E S S S  S  S S S  S  S E  Q
|---x-----12s13---x-12-12s13---x-12-|---x-----12s13---x-14s15---18/--|
|-----x---13s14---x-13-13s14---x-13-|-----x---13s14---x-15s16---19/--|
|-------x-13s14---x-13-13s14---x-13-|-------x-13s14---x-15s16---19/--|
|-----------------------------------|--------------------------------|
|-5---------------------------------|-5------------------------------|


    |-3-|                               |-3-|
  E S S S  S  S S S  E  S  S S S  E   E S S S  S  S S S  E E +S  S E
|---x-----12s13---x-12-12s13---x-12-|---x-----12s13---x-14------------||
|-----x---13s14---x-13-13s14---x-13-|-----x---13s14---x-15-----------o||
|-------x-13s14---x-13-13s14---x-13-|-------x-13s14---x-15------------||
|-----------------------------------|--------------------------------o||
|-5---------------------------------|-5--------------------5-(5)-5-5--||


    E S S  S  S S S  E  S  S S S  E
||----x-x-17s18---x-17-17s18---x-17-|
||o---x-x-18s19---x-18-18s19---x-18-|
||----------------x-----------------|
||o-0-----17s18-----17-17s18---x-17-|
||----------------------------------|


 1.                                 2.
  E S S  S E  S  e  e  S  S S S     E S S  S  S S S  e  e  S  S  E
|---x-x-17---17-17-17-17-20------||---x-x-17s18---x-18-18S22-22-21-|
|---x-x-18---18-18-18-18-21-----o||---x-x-18s19---x-19-19S23-23-22-|
|--------------------------------||---------------x----------------|
|-0----------17-17-17-17-20---0-o||-0-----17s18-----18-18S22-22-21-|
|--------------------------------||--------------------------------|


    |-3-|                               |-3-|
  E S S S  S  S S S  E  S  S S S  E   E S S S  S  S S S  E  E  S  S  E
|---x-----12s13---x-12-12s13---x-12-|---x-----12s13---x-12-12-13-15-17-|
|-----x---13s14---x-13-13s14---x-13-|-----x---13s14---x-13-13-14-16-18-|
|-------x-13s14---x-13-13s14---x-13-|-------x-13s14---x-13-13-14-16-18-|
|-----------------------------------|----------------------------------|
|-5---------------------------------|-5--------------------------------|


    |-3-|                               |-3-|
  E S S S  S  S S S  E  S  S S S  E   E S S S  S  S S S E   E S S E
|---x-----12s13---x-12-12s13---x-12-|---x-----12s13---x----/x-------|
|-----x---13s14---x-13-13s14---x-13-|-----x---13s14---x-------------|
|-------x-13s14---x-13-13s14---x-13-|-------x-13s14---x-------x-x-x-|
|-----------------------------------|-------------------------------|
|-5---------------------------------|-5-----------------x/----------|


    |-3-|                               |-3-|
  E S S S  S  S S S  E  S  S S S  E   E S S S  S  S S S  S  S E  Q
|---x-----12s13---x-12-12s13---x-12-|---x-----12s13---x-14s15---18/--|
|-----x---13s14---x-13-13s14---x-13-|-----x---13s14---x-15s16---19/--|
|-------x-13s14---x-13-13s14---x-13-|-------x-13s14---x-15s16---19/--|
|-----------------------------------|--------------------------------|
|-5---------------------------------|-5------------------------------|


    |-3-|                               |-3-|
  E S S S  S  S S S  E  S  S S S  E   E S S S  S  S S S  E E +S  S E
|---x-----12s13---x-12-12s13---x-12-|---x-----12s13---x-14-----------|
|-----x---13s14---x-13-13s14---x-13-|-----x---13s14---x-15-----------|
|-------x-13s14---x-13-13s14---x-13-|-------x-13s14---x-15-----------|
|-----------------------------------|--------------------------------|
|-5---------------------------------|-5--------------------5-(5)-5-5-|


    E S S  S  S S S  E  S  S S S  E
||----x-x-17s18---x-17-17s18---x-17-|
||o---x-x-18s19---x-18-18s19---x-18-|
||----------------x-----------------|
||o-0-----17s18-----17-17s18---x-17-|
||----------------------------------|


 1.                                 2.
  E S S  S E  S  e  e  S  S S S     E S S  S  S S S  e  e  S  S  E
|---x-x-17---17-17-17-17-20------||---x-x-17s18---x-18-18S22-22-21-|
|---x-x-18---18-18-18-18-21-----o||---x-x-18s19---x-19-19S23-23-22-|
|--------------------------------||---------------x----------------|
|-0----------17-17-17-17-20---0-o||-0-----17s18-----18-18S22-22-21-|
|--------------------------------||--------------------------------|


      |-3-|                               |-3-|
    E S S S  S  S S S  E  S  S S S  E   E S S S  S  S S S  E  E  S  S  E
||----x-----12s13---x-12-12s13---x-12-|---x-----12s13---x-12-12-13-15-17-|
||o-----x---13s14---x-13-13s14---x-13-|-----x---13s14---x-13-13-14-16-18-|
||--------x-13s14---x-13-13s14---x-13-|-------x-13s14---x-13-13-14-16-18-|
||o-----------------------------------|----------------------------------|
||--5---------------------------------|-5--------------------------------|


    |-3-|                               |-3-|
  E S S S  S  S S S  E  S  S S S  E   E S S S  S  S S S E   E S S E
|---x-----12s13---x-12-12s13---x-12-|---x-----12s13---x----/x-------|
|-----x---13s14---x-13-13s14---x-13-|-----x---13s14---x-------------|
|-------x-13s14---x-13-13s14---x-13-|-------x-13s14---x-------x-x-x-|
|-----------------------------------|-------------------------------|
|-5---------------------------------|-5-----------------x/----------|


    |-3-|                               |-3-|
  E S S S  S  S S S  E  S  S S S  E   E S S S  S  S S S  S  S E  Q
|---x-----12s13---x-12-12s13---x-12-|---x-----12s13---x-14s15---18/--|
|-----x---13s14---x-13-13s14---x-13-|-----x---13s14---x-15s16---19/--|
|-------x-13s14---x-13-13s14---x-13-|-------x-13s14---x-15s16---19/--|
|-----------------------------------|--------------------------------|
|-5---------------------------------|-5------------------------------|


    |-3-|                               |-3-|
  E S S S  S  S S S  E  S  S S S  E   E S S S  S  S S S  E E +S  S E
|---x-----12s13---x-12-12s13---x-12-|---x-----12s13---x-14------------||
|-----x---13s14---x-13-13s14---x-13-|-----x---13s14---x-15-----------o||
|-------x-13s14---x-13-13s14---x-13-|-------x-13s14---x-15------------||
|-----------------------------------|--------------------------------o||
|-5---------------------------------|-5--------------------5-(5)-5-5--||



Duration Legend
---------------
W - whole; H - half; Q - quarter; E - 8th; S - 16th; T - 32nd; X - 64th; a - acciaccatura
+ - note tied to previous; . - note dotted; .. - note double dotted
Uncapitalized letters represent notes that are staccato (1/2 duration)
Irregular groupings are notated above the duration line
Duration letters will always appear directly above the note/fret number it represents the
duration for.  Duration letters with no fret number below them represent rests.  Multi-
bar rests are notated in the form Wxn, where n is the number of bars to rest for.  Low
melody durations appear below the staff

Tablature Legend
----------------
 h   - hammer-on
 p   - pull-off
 b   - bend
 pb  - pre-bend
 r   - bend release (if no number after the r, then release immediately)
 /\  - slide into or out of (from/to "nowhere")
 s   - legato slide
 S   - shift slide
 - natural harmonic
[n]  - artificial harmonic
n(n) - tapped harmonic
 ~   - vibrato
 tr  - trill
 T   - tap
 TP  - trem. picking
 PM  - palm muting
\n/  - tremolo bar dip; n = amount to dip
 \n  - tremolo bar down
 n/  - tremolo bar up
/n\  - tremolo bar inverted dip
 =   - hold bend; also acts as connecting device for hammers/pulls
 <> - volume swell (louder/softer)
 x   - on rhythm slash represents muted slash
 o   - on rhythm slash represents single note slash

Misc Legend
-----------
 |  - bar
||  - double bar
||o - repeat start
o|| - repeat end
*|  - double bar (ending)
 :  - bar (freetime)
 $  - Segno
 &  - Coda
Tempo markers -  = BPM(8/16=s8/s16), where s8 = swing 8ths, s16 = swing 16ths

comments
We did not receive enough feedback on this tab! Please rate:
1 2 3 4 5
I want to post or [tab]
guest
You may want to rate the tab now too:
select rating
Please do not post tabs as comments. Select "correction" instead!