Oops, an error
Loading. Please wait.

Pork Soda Tab

ver1
ver1

Album

Whole song

More versions @911Tabs.com
3,262 views 3 this week
no commentswrite comment
1 2 3 4 5
excellent!
x 1
Autoscroll
+/-
esc
set tempo
stop
Contributor
NEW! There's an official Ultimate Guitar app which is ideal
for learning songs when you're away from computer. Get the app
WARNING: You are trying to view
                                    content from Ultimate-Guitar.com
                                    in an unauthorized application,
                                    which is prohibited.

                                    Please use an official Ultimate
                                    Guitar Tabs application for iPhone,
                                    iPad or Android to access legitimate
                                    chords, guitar, bass, and drum tabs
                                    from Ultimate-Guitar.com database.

                                    Type "ultimate guitar tabs" in Apple
                                    App Store's or Android Market's
                                    search to find the application.
Pork Soda (Album)
by Primus
Date:5/31/05 10:00 P.m
Made by Rbm90120
[========================================================================]
This is the Only Primus album so far tabbed.I have'nt tabbed an album in
a while. I've done all of the Dead Kennedy albums so far and working on
sending all the primus ones. Some song I could'nt find for guitar so i
just put in the bass and some I coulnt find periiod Alot of the songs on
this album pretty much sound similar. Unlike alot of other bands they have
three members and the bass is like the lead guitar/bass. The bass player
tried out for /METALLICA\ after the bass player died also. Well hope you
like this album.
[========================================================================]
Song				| Tabbed By
1.Pork Chop's Little Ditty	:primusdude123------|
2.My Name Is Mud		:corneliethepoptart |
3.Welcome to this World		:Sgt_Baker          |
4.Bob				:CAM                |
5.DMV				:Taborama           |
6.Ol' Diamondback Sturgeon(bass):Taborama           |
7.Nature Boy			:Unknown            |
8.Wounded Knee			:Cant Find          |Same Song
9.Pork Soda (song)(bass)	:Clark 626          |Except other
10.The Pressman			:Unknown            |one is extended
11.Mr. Krinkle	(bass)		:Unknown            |
12.Air is Getting Slippy(bass)	:Christopher Preston|
13.Hamburger Train		:Rich Christiansen  |
14.Pork Chop's Little Ditty	:Primusdude123------|
15.Hail Santa			:Cant Find
__________________________________________________________________________

----------------------------------------------------------------------------
Pork Chop's Little Ditty
----------------------------------------------------------------------------
Tuning: Standard E (E,A,D,G,B,E)

This is actually played with a banjo (Larry usually plays a six-string), but
guitar can sound just like it...

E|--------16-16-16--------------------------------|
B|-----16----------18-16-----16--18--16-16--------|
G|--17-------------------17-----------------------|
D|------------------------------------------------|
A|------------------------------------------------|
E|------------------------------------------------|

E|--------16-16-16--------------------------------|
B|-----16----------18-16--------------------------|
G|--17-------------------17-----------------------|
D|------------------------------------------------|
A|------------------------------------------------|
E|------------------------------------------------|

E|--------16-16-16---------------------------------------------------------16--16---|
B|-----16----------18-16-----16--18--16--16--16-----18--16--------------------------|
G|--17-------------------17----------------------17---------17--15------------------|
D|------------------------------------------------------------------18--18----------|
A|----------------------------------------------------------------------------------|
E|----------------------------------------------------------------------------------|


E|------------16----------------------------------|
B|------16-18-------------------------------------|
G|--17--------------------------------------------|
D|------------------------------------------------|
A|------------------------------------------------|
E|------------------------------------------------|

Then from there, it kicks into My Name is Mud

----------------------------------------------------------------------------
My Name is Mud
----------------------------------------------------------------------------
Tablature Explanation
*-dist.
h-hammer on
)-bend up
(-bend down
=-tremolo picking
v-vibrato

Bass first, then guitar.
Tuning: (B,E,A,D,G,C) (E,A,D,G,B,e)

Intro       Bass fig. 1------------------------------------------------------------|
E|---------|--------------/3--------------/3--|--------------/3--------------------|
B|---10\---|--1h3-3--1h3-3----1h3-3--1h3-3----|--1h3-3--1h3-3---1h3-3--1h3-3-0*----|

E|--------------/3------------------|---------------3---x---x---x-----------|
B|--1h3-3--1h3-3---1h3-3--1h3-3-0*--|--1h3-3--1h3-3---3---3---3---0-5--x\1--|

Guitar (heavy distortion) (w/Bass fig.1 4 times)
D|---------1/2bend---|--------------full----|-----------------------|
A|---------)()-------|----------)hold-------|--(---)-----------3----|
E|--2-----2-------2--|--2---2--2--------2---|-----2---2--2--2----2--|

  Bass fig. 2-----------------------------------------------------------|
D|--------------------------------------------|        |--7h10----------|
A|------------------/10------------------/10--|        |--------7h10----|
E|--8h10-10--8h10-10-----8h10-10--8h10-10-----| x2then |----------------|

D|--------------------------)grad.bend|-hold-full----------------------|
A|----3---------3----------3----------|--------------3-----------------|

w/Bass fig.2 (x2)
D|bend.down---4---4--|-----------------|
A|--(3---------------|--3-----(3)/-----|
E|-------------------|--2-----(2)/-----|
let ring-------------------------------|
"My Name is Mud.__(w/ Bass fig. 1 4 times)

Verse 1 w/Bass fig. 1 (17 times)

Guitar Chorus thing (light dist. and wah as filter)(w/Bass fig. 1 x4)
Note: all bends in the next 4 measures are 1/2
e|----------)(-------0----)(------|------------)(-----------------------|
B|-----0--12)(-------0---2-----4--|------0---12)(---------0-------------|
G|-----0--12------)---------------|------0---12-------)---0--7-7-7-7-0--|
D|--5------------5)---------------|--5---------------5)-----------------|
A|--4------------4----------------|--4---------------4------------------|

e|-----------)(-------------------||-----------)---------------|
B|-----0---12)(----------0-----0--||-----0---12)------0--------|
G|-----0---12--------)---0-----0--||-----0---12-------0----)(--|
D|--5---------------5)------------||--5-----------5-------9----|
A|--4---------------4-------------||--4-----------4------------|

Guitar Solo 1 (w/Leslie effect) (w/Bass fig. 2 x12)
Note: All bends in the next 9 measures are 1/2
G|---)v---------------------|-------------------------------------|
D|--9--------9\/9-----------|-------------------------------------|
A|-----------=--=---9-------|----)v------)------------------------|
E|-----------=--=---=---9\--|--/2----2/14----14v--14--12--14--14--|
             =  =   =

B|------------------------------)-------|-------)-----------------|
G|---------------------17--17-17-17--17-|-17--17)--17--17-17------|
D|-------------16----------------16--16-|-16--16---16--16-16------|
A|----)(--15------15--------------------|-------------------------|
E|--14----------------------------------|---------------------x\--|
(Leslie off w/heavy dist.)
e|-----------------------------|------14--15----15----15----14--|
B|--10-9----------------10-----|-------------12----12----12-----|
G|-------9--10-11----------11--|--11--11--------------------11--|
D|-------------==--------------|--==--==--------------------==--|
               ==                 ==  ==                    ==

e|--15---14----15-----16---------|-----------------------------|
B|--------------------------/14--|-/14----16--16---------------|
G|--12---11----12-----13----/15--|-/15--------17---------------|
D|--==---==----==-----==-----==--|--==--------==---------------|
A|--==---==----==-----==-----==--|--==--------==---------------|
E|--==---==----==-----==-----==--|--==--------==------0---x\2--|
    ==   ==    ==     ==     ==     ==        ==

A|-------)(-------|-------)full--|------3-----|--3-------|
E|--2---2------2--|---0--2-------|---0-----2--|-------2--|
                                               let ring--|
(guitar out)
Verse 2 (w/Bass fig. 1 x17)

Chorus (w/light dist. and wah as filter)(w/Bass fig. 1 x7)
Note: next 3 measures all bends are 1/2
                                                      My Name is Mud._
e|-----------)(--------------)(--|-----------)(-------------------|
B|-----0---12)(---------0---8)(--|-----0---12)(-------0-----------|
G|-----0---12--------)--0---8----|-----0---12------)--0-----------|
D|--5---------------5)-----------|--5-------------5)--------------|
A|--4---------------4------------|--4-------------4---------------|
                                  Rhy. Fig. 1---------------------|
Rhy. Fig. 1 x1 then
G|--0--0--|

Bass (w/Rhy. Fig. 1 x7)                   Substitute Rhy. Fill 1
M-M-M-M-M-M-M-Mud------------------------------------|                  My Name is Mud._
E|--------------/3--------3h4h5-4h5h6-6-X-X-5h6h7----|
B|--1h3-3--1h3-3----1h3-3----------------------------|

A|------------------/10------------------(9)\--|-----------------------------------|
E|--8h10-10--8h10-10-----8h10-10--8h10-10------|--------------/3-------------(2)/--|x3
B|---------------------------------------------|--1h3-3--1h3-3---1h3-3--1h3-3------|

Rhy. Fill 1                      trem. bar(pull up 1/2)
                            Harm.-----------|
e|------------)(1/2---------7--7------------|
B|-----0----12)(------------7--7------------|
G|-----0----12--------)1/2--7--7------------|
D|--5----------------5)---------------------|
A|--4----------------4----------------------|

Bass fig. 2 x1
                                            w/dist.------|
A|------------------/10----------------------------------|
E|--8h10-10--8h10-10-----8h10-10--8h10-10----------------|
B|------------------------------------------0------------|

Guitar Solo 2 (w/Leslie effect) (w/Bass fig. 2 x4)
G|-----5v-------0-------|----------6---------------|
D|--4---------------4v--|---4--0-5---0-0-5-5-0-----|
A|----------------------|----------------------0-4-|
                                     Harm.7
B|-----------------------4-0-----7--|--7------------4-------7--7--------|
G|---------------6---0-3-----0-6----|-------6-6-0-3---3-0-6------6---0--|
D|---------0-5-5--------------------|-----0------------------------8----|
A|-0-4-0-0--------------------------|-----------------------------------|

w/Bass Fig. 1 x8      Harm.5
B|--4-------------------------------------------|------------------------------------|
G|----3-0-6---0--0--0--5--0-0-0--0-0------------|------------------------------------|
D|----------------------------------------------|------------------------------------|
A|------------------------------------4---4--4--|------------------------------------|
E|------------------------------------0---0--0--|--2--2--2/14--14-0-14-14-0-0-14-14--|

G|-------------------------------------11-11-11--|
D|----------------------------10-10-10-----------|
A|-----------------------9-----------------------|
E|--14-0-14-14-0-14-14-0-------------------------|

                      1/2      Full
B|--------------------)--------)(--)---12v--|
G|--11--11--11---11-11-11-11-11--11---------|
D|------10----------------------------------|

    Full----------------------------------------------|
e|-------------------14-14-------14-14-14-------------|
B|----)-----------12-------12-12----------------------|
G|--11---11v------------------------------11-11-11----|

                            Full----hold----gradual-------------|release
B|----------------------------)---------------------------------|
G|--11---11-11-11-11-11--11-11-11-11-11---11--11--11--11--11----|

                      release
B|--------------------(--Harm.4---|
G|--11--11--11--11--11\--=--------|
D|------------------==---4--------|
                    ==   =

(w/Bass Fig. 2 x2)
G|--------------|--5---------------------|
D|------4/------|--7---------------------|
A|------==------|--=---------------------|
E|------==------|--=-----------(15)\-----|
        ==         =

Outro (w/Bass Fig. 1 x9)
C|-------------------------------5----|
G|-------------------------------5----|
D|-------------------------------5----|
A|-------------------------------5----|
E|--------------/3--------------------|
B|--1h3-3--1h3-3----1h3-3--1h3-3------|

I know this tab is totally correct because I got it from the official
Primus anthology tab book.  I got sick of seeing all of the incorrect
bass tabs, and no one seemed to even try to get the guitar.  E-mail me
if you want any different tabs by Primus. corneliusthepoptart@yahoo.com
Right now I only have A-N, but I'm going to get O-Z.  A-N has Bob, DMV,
Eleven, Fish On, Groundhog's Day, John the Fisherman, My Name is Mud,
Nature Boy, Here Come the Bastards, Jerry Was a Race Car Driver, and
Mr. Krinkle.  Although you probably won't be able to play any of it.
Most of the songs are played on a six-string fretless.

Lyrics:
My Name is Mud, not to be confused with Bill or Jack or Pete or Dennis,
My Name is Mud, it's always been, 'cause I'm the most boring sonsabitch
you've ever seen, I dress in blue, yes navy blue, from head to toe I'm
rather drab, except my patent shoes, I make 'em shine, well most the
time, 'cept today my feet were trodden on by this friend of mine, six
foot two and rude as hell, I gotta get in the ground before he starts
to smell, My Name is Mud
My Name is Mud, but call me Alowishus Devadander Abercrombie, that's
long for Mud, so I've been told, told that by this sonsabitch that lies
before me bloated, blue and cold, I've got my pride, I drink my wine, I
drink only the finest 'cept I haven't earned a dime in several months,
or were it years, the breath on that fat bastard could bring any man to
tears, we had our words, a common spat, so I kissed him upside the
cranium with an aluminium baseball bat, My Name is Mud
----------------------------------------------------------------------------
Welcome to This World
----------------------------------------------------------------------------

Mmkay i like figured this out on a crappy squier
guitar, and i have both the bass and the guitar
sort of figured out
BTW: dont try to play this unless you know what youre
doing or you are familiar with the song

Intro (GUitar):
E:---------------------------------------------|
B:---------------------------------------------|
G:---------------------------------------------|
D:---------------------------------------------|
A:--9-9--99-10--9---9--8-----------------------|
E:---------------------------------------------|


Intro (6 string mahogony fretless bass)
:---------------------------------------------|
:---------------------------------------------|
:---------------------------------------------|
:---------------------------------------------|
:-1/12--12-12-12-12--11-11-11-12--------------|
:---------------------------------------------|

:---------------------------------------------|
:---------------------------------------------|
:---------------------------------------------|
:---------------------------------------------|
:---12-12-12-12--11-11-11-12------------------|
:---------------------------------------------|

:-------------------------------------------------|
:-------------------------------------------------|
:-------------------------------------------------|
:-------------------------------------------------|
:---12-12-12-12--11-11-11---12-12-12-12--11-11-11-|
:-------------------------------------------------|

:---------------------------------------------|
:---------------------------------------------|
:---------------------------------------------|
:---------------------------------------------|
:---12-12-12-12--11-11-11---12-12-12-11-------|
:---------------------------------------------|

Main Riff (for Both?)
-------8--9-9--8--7----------------|
-----------------------------------|
------6--7----6--5-----------------|
-----------------------------------|
-----------------------------------|

I got the main riff from some other guy, so it
might sound different or not go with mine at all

SGT_Baker@hotmail.com if you want to give me some
cash so i can buy a CT bass thanks

----------------------------------------------------------------------------
Bob
----------------------------------------------------------------------------

Here's a great song for ya. I've broken it up into sections
so you can play along with the song to figure out the verse
and chorus pattern, etc.


h =hammer on
p =pull off
b =bend string up
r =release bend
/ =slide up
\ =slide down
v =vibrato
x =muted string strike
w =whammy


Intro riff:                                        v
e--------------------------10--------------------------------|
B--6--0h6p0----------------10---6--0h6p0---------------------|
G-----------7--0h7p0-------10------------7--0h7p0------------|
D--------------------9---0------------------------9----------|
A----------------------8----------------------------8--------|
E------------------------------------------------------------|


e--------------------------10--------------------------------|
B--6--0h6p0----------------10---6--0h6p0---------------------|
G-----------7--0h7p0-------10------------7-0h7p0---<12>------|
D--------------------9---0-----------------------9-----------|
A----------------------8-------------------------------------|
E------------------------------------------------------------|


Repeat this riff as necessary.
Verse:
e----------10--------------------x--x--x-x-x--10-------------|
B--------9----9------10----------x--x--x-x-x--10-------------|
G--/7-----------7/10-10----------x--x--x-x-x--10-------------|
D--0-----------------------------x--x--x-x-x-----------------|
A------------------------------------------------------------|
E------------------------------------------------------------|


Play Intro riff, then verse, then using whammy, play this:
Chorus:
e--------------------------------------------------------17--|
B--/15--15--15--15--15--15--15--15--15--15--15--15-15----15--|
G---------13--13--13--13--13--13--13--13--13--13------13-----|
D------------------------------------------------------------|
A------------------------------------------------------------|
E------------------------------------------------------------|


Play Intro riff, then verse, then chorus.
Use a crybaby for the solo, a delay pedal sounds good with it

Solo:
e------------------------------------------------------8-7---|
B-----------------------------------7-6--6h7h9-10------------|
G-----------------------------4-6h7------------11-9h10-------|
D--12w------6/8-8-6w--6-5h6-8--------------------------------|
A------14w---------------------------------------------------|
E------------------------------------------------------------|


e--8-10h11-11h13-13p11p10h11-/16-16-16-14---12-12\10---------|
B-------------------------------------------13-13\11--13-13--|
G------------------------------------------------------------|
D------------------------------------------------------------|
A------------------------------------------------------------|
E------------------------------------------------------------|


e----------------------------------------------------12h13p12-|
B--13p11------------------------------------13-15-15----------|
G--------11-13----13-15p13----13/15-15-15-15------------------|
D--------------14----------16---------------------------------|
A-------------------------------------------------------------|
E-------------------------------------------------------------|


e--13-15p12-15-18p15-20br--22--------------------------------|
B--------------------------21--------------------------------|
G------------------------------------------------------------|
D------------------------------------------------------------|
A------------------------------------------------------------|
E------------------------------------------------------------|


Verse, intro riff a few times. The few last intro riffs are
a little different:

e--------------------------10--------------------------------|
B--6--0h6p0----------------10---6--0h6p0---------------------|
G-----------7--0h7p0-------10------------7--0h7p0------------|
D--------------------9---0------------------------9----------|
A----------------------8----------------------------8--------|
E------------------------------------------------------------|


e------------------------10-----------------------------------|
B--6-0h6p0---------------10-----------------------------------|
G----------7-0h7p0-------10-11--11-11-11-11/12-12-12/13-13-13-|
D------------------9---0----10--10-10-10-10/11-11-11/12-12-12-|
A--------------------8------9---9--9--9---9/10-10-10/11-11-11-|
E-------------------------------------------------------------|


That's it.

Comments? groundwurk@hotmail.com
----------------------------------------------------------------------------
DMV
----------------------------------------------------------------------------
Normal tuning (E, A, D, G, B, e).

After the bass intro, play this 4 times:
Fig A:
|--------------------------|
|7------\6---\-------------|
|7------\6---\-------------|
|--------------------------|
|--------------------------|
|--------------------------|

Then this 4 times:
Fig B:
|10-10-10-10-10-10-10-10-10-10-10-10-10-10-10-10-|10------|
|-9--9--9--9--9--9--9--9--9--9--9--9--9--9--9--9-|-9------|
|------------------------------------------------|--------|
|------------------------------------------------|--------|
|------------------------------------------------|--------|
|------------------------------------------------|--------|

Fig C:
Keep bending this note for 4 bars:
|-------------------------------------------------------|
|-------------------------------------------------------|
|-------------------------------------------------------|
|-------------------------------------------------------|
|--------4-b(5)-r(4)-b(5)-r(4)-b(5)-etc.----------------|
|-------------------------------------------------------|
b = bend the string so it sounds like the fret in brackets.
r = release the bend.

Play figure A one time, then this:
|----------------|----------------|--------------|
|7---------------|----------------|--------------|
|7---------7-6-5-|6-7-8-7-6-5-6-7-|6-------------|
|----------------|----------------|--------5\----|
|----------------|----------------|--------------|
|----------------|----------------|--------------|

Play figure B four times.

Keep bending figure C for eight bars.

|----------------|----------------|----------------|----------------|
|------7-6-------|----------7-6---|------------7-6-|7-8-8-7-6-------|
|----7-------6---|--------7-----6-|--------7-------|------------8---|
|6---------------|5---6-----------|5---6-----------|----------5---5-|
|----------------|----------------|----------------|----------------|
|----------------|----------------|----------------|----------------|

Play figure A four times.

|----------------|----|----------------|----------------|
|------------7-6-|----|------------7-6-|7---8-9-8-7-6---|
|7---------------|6---|7---------------|--------------6-|
|----------------|----|----------------|----------------|
|----------------|----|----------------|----------------|
|----------------|----|----------------|----------------|

Play figure B four times.

Keep bending figure C for eight bars (with crescendo).

|-----|-----|-------|----------------|----|----------------|
|-----|-----|-------|----------------|----|----------------|
|(7)--|(7)--|(7)----|----8-7-6-5-----|----|--7-8-9-8-7---7-|
|-----|-----|-------|------------5-6-|6---|------------5---|
|-----|-----|-------|----------------|----|----------------|
|-----|-----|-------|----------------|----|----------------|

|----------------|------|---------------|----|------------|
|----------------|------|---------------|----|------------|
|----------------|(7)---|(7)-----7-8-8-7|7---|7---8-8-8\--|
|6---5-4---------|------|---------------|----|------------|
|--------5-------|------|---------------|----|------------|
|----------------|------|---------------|----|------------|

Play figure B four times.

Keep bending figure C for eight bars.

----------------------------------------------------------------------------
Ol' Diamondback Stergen
----------------------------------------------------------------------------

Six-string fretless

Riff a:
c|--5h0-0-4h0-0---7------------------5h0-0-4h0-0---7---------|
g|--------------0--------------------------------0-----------|
d|-----------------------------------------------------------|
a|-----------------------------------------------------------|
e|-----------------------------------------------------------|
b|-----------------------------------------------------------|

variations:
|-5h0-0-4h0-0-5--7--------|----5h0-4h0----7--------|
|-------------------------|--0-------------0-------|
|-------------------------|------------------------|
|-------------------------|------------------------|
|-------------------------|------------------------|
|-------------------------|------------------------|

0:27
|--577577577577577/9-7----5-7777------------------|
|-----------------------0-------------------------|
|-------------------------------------------------|
|-------------------------------------------------|
|-------------------------------------------------|
|-------------------------------------------------|


riff b (go with vocals)

|--11-11-11-11-11-11--9--9--9--9--9--9--12-12-12-12-12---------------------|
|------------------------------------------------------12-12-12-12-12------|
|--------------------------------------------------------------------------|
|--------------------------------------------------------------------------|
|--------------------------------------------------------------------------|
|--------------------------------------------------------------------------|

|--11-11-11-11-11-11-9--9--9--9--9--9--9---12/5/7-------|
|-------------------------------------------------------|
|-------------------------------------------------------|
|-------------------------------------------------------|
|-------------------------------------------------------|
|-------------------------------------------------------|

|--11-11-11-11-11-11--9--9--9--9--9--9--12-12-12-12-12-----------------------------|
|---------------------------------------------------------12-12-12-12-12-----------|
|----------------------------------------------------------------------------------|
|----------------------------------------------------------------------------------|
|----------------------------------------------------------------------------------|
|----------------------------------------------------------------------------------|

|-7/5-5-5-5-5-5-5-5-4-4-4-4-5-5-5-5-7----5-7-5-7-5-4â€"4444/7--------------------------|
|--------------------------------------------------------------------------------------|
|--------------------------------------------------------------------------------------|
|--------------------------------------------------------------------------------------|
|--------------------------------------------------------------------------------------|
|--------------------------------------------------------------------------------------|

solo:

|--5h0-0-4h0-0---5-5h7----5-7-5-4--------------111111--------------------------------|
|----------------------0----------------121212-----------10-9------12---10-----------|
|------------------------------------------------------------------------------------|
|------------------------------------------------------------------------------------|
|------------------------------------------------------------------------------------|
|------------------------------------------------------------------------------------|

|-------------------------------------------------------------------------------------|
|-101010121212-9----101010-9----101010-9-9----101010-9-9--101010-9-9-10-12-10-12------|
|-------------------------------------------------------------------------------------|
|-------------------------------------------------------------------------------------|
|-------------------------------------------------------------------------------------|
|-------------------------------------------------------------------------------------|

|----------------------------------------------------------------------|
|-101010-9-10-12-10----12-10-9---12-10-9---12-10-9-----101010-101010-9-|
|----------------------------------------------------------------------|
|----------------------------------------------------------------------|
|----------------------------------------------------------------------|
|----------------------------------------------------------------------|

fast bit (triplets)
|--------------------------------------------------------|
|-10109101091010910109101091010910109--12--12------------|
|--------------------------------------------------------|
|--------------------------------------------------------|
|--------------------------------------------------------|
|--------------------------------------------------------|

|------------------------9-9-11--11-11-12---141211-111111-141211-111111-12119-999-12119-999|
|-9-10-9-10-12-10--------------------------------------------------------------------------|
|------------------------------------------------------------------------------------------|
|------------------------------------------------------------------------------------------|
|------------------------------------------------------------------------------------------|
|------------------------------------------------------------------------------------------|

|-/7----/7----/7---/7-------triplet harmonics on 7 for however long-----------------------|
|---------------------------------------------------------------------------------/7------|
|-----------------------------------------------------------------------------------------|
|-----------------------------------------------------------------------------------------|
|-----------------------------------------------------------------------------------------|
|-----------------------------------------------------------------------------------------|

----------------------------------------------------------------------------
Nature Boy
----------------------------------------------------------------------------

Another fun song to play. Here's the basic structure for it.
There are parts when the volume is turned up after the
strings are hit. This will be marked as  v>.
Use a crybaby for the intro.


h =hammer on
p =pull off
/ =slide up
 =slide down
w =whammy


Intro:
e------------------------------------------------------------|
B------------------------------------------------------------|
G------------------------------------------------------------|
D------------------------------------------------------------|
A--7-6------------------------4/7-7-6------------------------|
E-------6h7h9-7-6--2h4/7-7-6-----------6/9-7-6--2h3h4/7-6----|

e------------------------------------------------------------|
B------------------------------------------------------------|
G------------------------------------------------------------|
D------------------------------------------------------------|
A--4-4-4-4/7-6-----------------------------------------------|
E------------------------------------------------------------|


Chorus:
e-------------------------------------------------------------|
B--------------------------------------------11---------------|
G--8-7-73-3---8-7-73-3---8-7-73-3---8-7-7/8-------------------|
D--6-5-51-1---6-5-71-1---6-5-51-1---6-5-5/8-------------------|
A-------------------------------------------------------------|
E-------------------------------------------------------------|


Bridge#1:
e----------------------------------------------------|--------|
B----------------------------------------------------|--------|
G--9-8--------------------------------------------8--|--------|
D-------8-8/11-9-8---86-6-6-6/9-8---/13-12---------|-5h8p5----|
A---------------------------------------------4/7-6--|--------|h6
E----------------------------------------------------|--------|

Play Chorus.

Bridge#2:
e----------------------------11------------------------------|
B-------------------------12-12-10---------------------------|
G--9-8-----------8w-8w/12------------------------------------|
D------------------------------------------------------------|
A-------4/6--6/10--------------------------------------------|
E------------------------------------------------------------|

e------------------------------------------------------------|
B--9-9-9-10-10-10-9-9-9-10-10-10-9-10-10-10-12-12-12-12-12---|
G------------------------------------------------------------|
D------------------------------------------------------------|
A------------------------------------------------------------|
E------------------------------------------------------------|

e------------------------------------------------------------|
B--12-12-12-12-9---------------------------------------------|
G----------------9-8--9-8------------------------------------|
D---------------------8-8------------------------------------|
A--------------------------7---6-----------------------------|
E------------------------------------------------------------|

e------------------------------------------------------------|
B-------------------8-8-11-11-10-10-9-9---9h10----10-11------|
G--8-8-9-9-8-8--8-9---------------------9-------8----8-------|
D------------------------------------------------------------|
A------------------------------------------------------------|
E------------------------------------------------------------|

Play chorus and bridge#1.

The song then enters a faster, heavier section before the solo:

           v>
e-----g-n-----------------------------------------------------|
B-----u-o--8--8-8-8-8-8---------------------------------------|
G--8--i-i--8--------------------------------------------------|
D--8--t-s--5--------------------------------------------------|
A--6--a-e-----------------------------------------------------|
E-----r-s-----------------------------------------------------|

Solo:
e--------------------12w-11w/17w-16w-22bw-21-21-21-21---------|
B-------------------------------------------------------------|
G--128w--8w--10w/12-------------------------------------------|
D-------------------------------------------------------------|
A-------------------------------------------------------------|
E-------------------------------------------------------------|


e--21p19h21p19-17w-19w------------15-15w---------------------|
B------------------20w--18-18-19w----------------------------|
G------------------------------------------------------------|
D------------------------------------------------------------|
A------------------------------------------------------------|
E------------------------------------------------------------|


e--18w-16-22bw-------17w----22w-21-19-19-18-18-16-16-14-14w--|
B--------------17-17-----16----------------------------------|
G------------------------------------------------------------|
D------------------------------------------------------------|
A------------------------------------------------------------|
E------------------------------------------------------------|


e--12---------------------------------------------------------|
B--12---------------------------------------------------------|
G-----11-9-8w-------------------------------------------------|
D-------------------------------------------------------------|
A---------------------------------------6-6-5-4---------------|
E-------------------------------------------------------------|


Repeat this riff as necessary.
Fast part:
e------------------------------------------------------------|
B--8-8-8-8-8/9-8-8-8-8-8/9-8-8-8-8-8/9-8-8-8-8-8-------------|
G--8-8-8-8-8/9-8-8-8-8-8/9-8-8-8-8-8/9-8-8-8-8-8-------------|
D--8-8-8-8-8/9-8-8-8-8-8/9-8-8-8-8-8/9-8-8-8-8-8-------------|
A--6-6-6-6-6/7-6-6-6-6-6/7-6-6-6-6-6/7-6-6-6-6-6-------------|
E------------------------------------------------5-----------|


Ending:
e--10w----------------11w-------11w-----------------10w----------------------|
B--11w-------------------------------9-8--9-8--9-8-8-------------------------|
G--12w----------12h13-----12h13------8-7--8-7--8-7---------------------------|
D--12w--13-12w-----------------------6-5--6-5--6-5-------8-------------------|
A--10w---------------------------------------------------61------------------|
E--10w-----------------------------------------------------------------------|
-----------------------------------------------------------------------------|
Wounded Knee
----------------------------------------------------------------------------

Cant Find If you have it E-mail me @ rbm90120@aol.com

----------------------------------------------------------------------------
Pork Soda
----------------------------------------------------------------------------

played on an upright. way easy song


G--------|
D--------|
A--------|
E-1/16\1-|

G--------|
D--------|
A-1/16\1-|
E--------|

----------------------------------------------------------------------------
The Pressman
--------------------------------------------------------------------------

Chorus:
e|-------------------------------------------------------|
B|-------------------------------------------------------|
G|--12--12--12/15--15-15-15\13-12--12-12/15-/18----------|
D|-------------------------------------------------------|
A|--10--10--10/13--13-13-13\11-10--10-10/13-/16--16\0/5--|
E|-------------------------------------------------------|

e|---------------------------------------------------------|
B|---------------------------------------------------------|
G|------------5-4------------5-4------------5-4------------|
D|--5--5-6-5--5-4--5--5-6-5--5-4--5--5-6-5--5-4--5--5-6-5--|
A|--5--5-6-5--3-2--5--5-6-5--3-2--5--5-6-5--3-2--5--5-6-5--|
E|--3--3-4-3-------3--3-4-3-------3--3-4-3-------3--3-4-3--|

1st solo:
e|--------------------------------------|
B|--------------------------------------|
G|--------------------------0~----------|
D|----------------------------0~--------|
A|-------------3~---3~-------------6p5--|
E|--3----3-3-4~---4~---3-3--------------|


Chorus:
e|-------------------------------------------------------|
B|-------------------------------------------------------|
G|--12--12--12/15--15-15-15\13-12--12-12/15-/18----------|
D|-------------------------------------------------------|
A|--10--10--10/13--13-13-13\11-10--10-10/13-/16--16\0/5--|
E|-------------------------------------------------------|

e|---------------------------------------------------------|
B|---------------------------------------------------------|
G|------------5-4------------5-4------------5-4------------|
D|--5--5-6-5--5-4--5--5-6-5--5-4--5--5-6-5--5-4--5--5-6-5--|
A|--5--5-6-5--3-2--5--5-6-5--3-2--5--5-6-5--3-2--5--5-6-5--|
E|--3--3-4-3-------3--3-4-3-------3--3-4-3-------3--3-4-3--|

2nd solo:
e|-------10b--10---------------------------|
B|--8------------8---7-5---5h6p5--3\2--/3--|
G|-----------------------------------------|
D|-----------------------------------------|
A|-----------------------------------------|
E|-----------------------------------------|


wah & delay
e|----------------------------------------------------------------------|
B|----------------------------------------------------------------------|
G|-------------------------------------------------<5>-----------0------|
D|--<5>-<5>-<5>-<5>------------<4>---------5b-5-5-------------------0---|
A|-------------------5b-5-4-3-----------5-----------------0-0-0---------|
E|---------------------------------3b------------------3----------------|


Chorus:
e|-------------------------------------------------------|
B|-------------------------------------------------------|
G|--12--12--12/15--15-15-15\13-12--12-12/15-/18----------|
D|-------------------------------------------------------|
A|--10--10--10/13--13-13-13\11-10--10-10/13-/16--16\0/5--|
E|-------------------------------------------------------|

e|---------------------------------------------------------|
B|---------------------------------------------------------|
G|------------5-4------------5-4------------5-4------------|
D|--5--5-6-5--5-4--5--5-6-5--5-4--5--5-6-5--5-4--5--5-6-5--|
A|--5--5-6-5--3-2--5--5-6-5--3-2--5--5-6-5--3-2--5--5-6-5--|
E|--3--3-4-3-------3--3-4-3-------3--3-4-3-------3--3-4-3--|


3rd solo:
e|---------------------------------------|
B|---------------------------------------|
G|---------------------------------------|
D|---------------------------------------|
A|--\\-5---/5h6h7h8-8-7-7-7b-7-5h7p5-4---|
E|--\\-3---------------------------------|

e|-----------------------------------------------15-\-8-7-4h7p4-3---------------------|
B|------------------------9-9-9p8-11h12-12-15b15~---\-------------4-4h5h6-------------|
G|--/10-7-10-7h10p7-6/7/9~------------------------------------------------6-----------|
D|--------------------------------------------------------------------------7\--------|
A|-----------------------------------------------------------------------------5------|
E|--------------------------------------------------------------------------------3---|


Chorus:
e|-------------------------------------------------------|
B|-------------------------------------------------------|
G|--12--12--12/15--15-15-15\13-12--12-12/15-/18----------|
D|-------------------------------------------------------|
A|--10--10--10/13--13-13-13\11-10--10-10/13-/16--16\0/5--|
E|-------------------------------------------------------|

e|---------------------------------------------------------|
B|---------------------------------------------------------|
G|------------5-4------------5-4------------5-4------------|
D|--5--5-6-5--5-4--5--5-6-5--5-4--5--5-6-5--5-4--5--5-6-5--|
A|--5--5-6-5--3-2--5--5-6-5--3-2--5--5-6-5--3-2--5--5-6-5--|
E|--3--3-4-3-------3--3-4-3-------3--3-4-3-------3--3-4-3--|

----------------------------------------------------------------------------
Mr. Krinkle
----------------------------------------------------------------------------

Words by Les Claypool

Music by Primus


Gtr I (E A D G) - 'Upright Bass'
Gtr II (E A D G) - 'Background Bow Noise'

 Intro
  Q=125
 4/4
  Gtr I
  H    Q  Q    e e e e e e e e   W          e e e e e e e e
|------------|-----------------|----------|-----------------|
|------------|-----------------|----------|-----------------|
|------------|-------1---------|----------|-------1---------|
|---------1S=|=3-1-3---3-1-2-3-|-1S=======|=3-1-3---3-1-2-3-|


  H    Q  Q    e e e e e e e e   W
|------------|-----------------|-------|
|------------|-----------------|-------|
|------------|-------1---------|-------|
|---------1S=|=3-1-3---3-1-2-3-|-1S====|


    e e e e e e q    e e e e e q.    3x  e e e e e e q    e e H.
||-----------------|-----------------||-----------------|-----------||
||o----------------|----------------o||-----------------|-----------||
||o-------1--------|-------1--------o||--------1--------|-----------||
||--3-1-3---3-1----|-3-1-3---3-------||-/3-1-3---3-1----|-3-1-1S====||


   Verse
    e e e e e e q    e e e e e e e e      e e e e e e q     e e e e H
||-----------------|------------------||-----------------|---------------|
||o----------------|-----------------o||-----------------|---------------|
||o-------1--------|-------1---------o||--------1--------|--------1------|
||--3-1-3---3-1----|-3-1-3---x-x-x-x--||-/3-1-3---3-1----|-/3-1-3---1----|


  +W           +Q   Q  H      +W           e e e e e e q    e e e e e q.
|------------|--------------|------------|----------------|----------------|
|------------|--------------|------------|----------------|----------------|
|------------|------1-------|------------|-------1--------|-------1--------|
|-(1)--------|-(1)-----3----|-(3)--------|-3-1-3---3-1----|-3-1-3---3------|


   e e e e e e q    e e e e e e e e     e e e e e e q    e e e e e q.
|-----------------|-----------------||-----------------|-----------------||
|-----------------|-----------------||o----------------|----------------o||
|--------1--------|-------1-2-3-2---||o-------1--------|-------1--------o||
|-/3-1-3---3-1----|-3-1-3-----------||--3-1-3---3-1----|-3-1-3---3-------||


   Verse
    $
    e e e e e e q    e e e e e e e e      e e e e e e q     e e e e H
||-----------------|------------------||-----------------|---------------|
||o----------------|-----------------o||-----------------|---------------|
||o-------1--------|-------1---------o||--------1--------|--------1------|
||--3-1-3---3-1----|-3-1-3---x-x-x-x--||-/3-1-3---3-1----|-/3-1-3---1----|


                                                        To Coda
  +W           +Q   Q  H      +W           +Q   Q  H      +W
|------------|--------------|------------|--------------|----------||
|------------|--------------|------------|--------------|----------||
|------------|------1-------|------------|------1-------|----------||
|-(1)--------|-(1)-----3----|-(3)--------|-(3)-----1----|-(1)\-----||


   Chorus
   4/4
    Q  E E Q  E E   Q  E E Q  E E  3x W
||----------------|----------------||----------|
||o---------------|---------------o||----------|
||o---------------|---------------o||----------|
||-----x-x----x-x-|----x-x----x-x--||-1--------|


  +H.      Q    W          +H.      +Q
|-------------|----------|------------------||
|-------------|----------|------------------||
|----------1--|----------|------------------||
|-(1)---------|-3--------|-(3)------(3)\----||


   Guitar Solo
    e e e e e e e e   W             e e e e e e e e   H    Q  Q
||------------------|-----------||------------------|--------------|
||o-----------------|----------o||------------------|--------------|
||o-------1---------|----------o||--------1---------|--------------|
||--3-1-3---3-1-2-3-|-----------||-/3-1-3---3-1-2-3-|---------1S===|


                                Chorus
          D.S. al Coda       &
  e e e e e e e e   W            Q  E E Q  E E   Q  E E Q  E E  4x
|-----------------|----------||----------------|----------------||
|-----------------|----------||o---------------|---------------o||
|-------1---------|----------||o---------------|---------------o||
|-3-1-3---3-1-2-3-|----------||-----x-x----x-x-|----x-x----x-x--||


   Guitar Solo 2
                    1.,2.,3.            4.
    e e e e e e q     e e e e e q.    4x e e e e e e e e    e e e e e e q
||-----------------|------------------||-----------------|------------------|
||o----------------|-----------------o||-----------------|------------------|
||o-------1--------|--------1--------o||-------1-2-3-2---|--------1---------|
||--3-1-3---3-1----|-/3-1-3---3-------||-3-1-3---------1-|-/3-1-3---3-1-----|


                                     1.,2.               3.
   e e e e h         e e e e e e q     e e e e e q.    3x e e e e e e e e
|----------------||-----------------|------------------||-----------------|
|----------------||o----------------|-----------------o||-----------------|
|--------1-------||o-------1--------|--------1--------o||-------1-2-3-2---|
|-/3-1-3---3\----||--3-1-3---3-1----|-/3-1-3---3-------||-3-1-3---------1-|


  W          +H.      Q    W
|----------|-------------|----------|
|----------|-------------|----------|
|----------|----------1--|----------|
|-1--------|-(1)---------|-3--------|


                                 \2____/
  +H.      Q    W          +Q   +Q    +Q.   +E
|-------------|----------|-----------------------||
|-------------|----------|-----------------------||
|----------1--|----------|-----------------------||
|-(3)---------|-1--------|-(1)--(1)---(1)---(1)--||


   Chorus
    Q  E E Q  E E   Q  E E Q  E E  4x Q  E E Q  E E   Q  E E Q  Q
||----------------|----------------||---------------|----------------||
||o---------------|---------------o||---------------|----------------||
||o---------------|---------------o||---------------|----------------||
||-----x-x----x-x-|----x-x----x-x--||----x-x----x-x-|----x-x----1S===||


   Outro
    e e e e e e q     e e e e e q.    3x  e e e e e e q     e e e e e e e E
||-----------------|------------------||-----------------|-------------------|
||o----------------|-----------------o||-----------------|-------------------|
||o-------1--------|--------1--------o||--------1--------|--------1-2-3-2----|
||--3-1-3---3-1----|-/3-1-3---3-------||-/3-1-3---3-1----|-/3-1-3------------|


   e e e e e e q     e e e e e q.      e e e e e e q    e e e e e e e E
|-----------------|-----------------|-----------------|-----------------|
|-----------------|-----------------|-----------------|-----------------|
|--------1--------|--------1--------|--------1--------|-------1-2-3-2---|
|-/3-1-3---3-1----|-/3-1-3---3------|-/3-1-3---3-1----|-3-1-3-----------|


     e e e e e e Q      e e e e e Q.
||-------------------|-------------------|
||o------------------|-------------------|
||o--------1---------|--------1----------|
||--/3-1-3---3-1-----|-/3-1-3---3--------|
|
|   Gtr II
|    e e e e e e e e    e e e e e e  e e
||---x-x-x-x-x-x-x-x-|--x-x-x-x-x-x--x-x-|
||o--x-x-x-x-x-x-x-x-|--x-x-x-x-x-x--x-x-|
||o--x-x-x-x-x-x-x-x-|--x-x-x-x-x-x--x-x-|
||---x-x-x-x-x-x-x-x-|--x-x-x-x-x-x--x-x-|


   e e e e e e Q      e e e e e e e E   8x
|------------------|--------------------||
|------------------|-------------------o||
|--------1---------|--------1-2-3-2----o||
|-/3-1-3---3-1-----|-/3-1-3-------------||
|
|  e e e e e e e e    e e e e e e e e   8x
|--x-x-x-x-x-x-x-x-|--x-x-x-x-x-x-x-x---||
|--x-x-x-x-x-x-x-x-|--x-x-x-x-x-x-x-x--o||
|--x-x-x-x-x-x-x-x-|--x-x-x-x-x-x-x-x--o||
|--x-x-x-x-x-x-x-x-|--x-x-x-x-x-x-x-x---||


Duration Legend
---------------
W - whole; H - half; Q - quarter; E - 8th; S - 16th; T - 32nd; X - 64th; a - acciaccatura
+ - note tied to previous; . - note dotted; .. - note double dotted
Uncapitalized letters represent notes that are staccato (1/2 duration)
Irregular groupings are notated above the duration line
Duration letters will always appear directly above the note/fret number it represents the
duration for.  Duration letters with no fret number below them represent rests.  Multi-
bar rests are notated in the form Wxn, where n is the number of bars to rest for.  Low
melody durations appear below the staff

Tablature Legend
----------------
 h   - hammer-on
 p   - pull-off
 b   - bend
 pb  - pre-bend
 r   - bend release (if no number after the r, then release immediately)
 /\  - slide into or out of (from/to "nowhere")
 s   - legato slide
 S   - shift slide
  - natural harmonic
[n]  - artificial harmonic
n(n) - tapped harmonic
 ~   - vibrato
 tr  - trill
 T   - tap
 TP  - trem. picking
 PM  - palm muting
\n/  - tremolo bar dip; n = amount to dip
 \n  - tremolo bar down
 n/  - tremolo bar up
/n\  - tremolo bar inverted dip
 =   - hold bend; also acts as connecting device for hammers/pulls
 <>  - volume swell (louder/softer)
 x   - on rhythm slash represents muted slash
 o   - on rhythm slash represents single note slash

Misc Legend
-----------
 |  - bar
||  - double bar
||o - repeat start
o|| - repeat end
*|  - double bar (ending)
 :  - bar (freetime)
 $  - Segno
 &  - Coda
Tempo markers -  = BPM(8/16=s8/s16), where s8 = swing 8ths, s16 = swing 16ths
----------------------------------------------------------------------------
The Air is Getting Slippy
----------------------------------------------------------------------------

Tabbed by Christopher Preston

	Played on a stand-up electric bass, and sometimes an acoustic stand
up.  I play It on an acoustic frettless bass guitar, and it sounds perfect.

Intro:

|-----------|----------------|
|-7-6-5-4-3-|*------4-------*|
|-----------|*-6-/6---234---*|
|-----------|----------------|

Chorus:

|----------------------|
|-/8--4--6--4--3--4--3-|
|----------------------|
|----------------------|


__________________________________________________
--------------------------------------------------
"The Air Is Getting Slippery" from Woodstock '94
__________________________________________________
--------------------------------------------------
Tabbed by Christopher Preston

	At Woodstock '94, Les did it a little different...

Intro:

|-------------|
|*------4----*|
|*-X-/6------*|
|----------6--|

Chorus:

|----------------------|
|-/8--4--6--4--3--4--3-|
|----------------------|
|----------------------|


----------------------------------------------------------------------------
Hamburger Train
----------------------------------------------------------------------------

Hamburger Train

by Primus

Originally tabbed by: John Becker (prison_bass_player@yahoo.com)
John Becker's original tab of this song was very helpful to me in learning
the basic groove of this tune. Nevertheless, I found that much could be
added to what he had in his original tablature. Below you will find my
additions to John's tab. You can find his original all over the net,
namely at http://www.ram.org/music/primus/tabs/hamburger_train.btab.html .
This song has such a fun beat because of its non-standard meter. Most
songs are 4/4, waltzes are 3/4, and so on. Other meters are 2/4, 6/8, etc.
Hamburger Train is great because it seems to be 4/4 juxtaposed with 2/4.
In other words, one measure is 4/4 and the next measure is 2/4. Then 4/4
and 2/4, etc. Tap your foot along to the song and you will hopefully pick
up the rhythm.
Learn the simplified version of the groove before you go for all of the
clicks, slaps, mutes, pops, etc. Then, move on to the advanced groove.
Once you've got the advanced groove down, you're on your own for
deciphering the remainder of the song.
Simplified (Notice the dropped D tuning)

G---------------------------------------------------------------------------|
D---------------------------------------------------------------------------|
A---------------------------------------------------------------------------|
D--x------7-------12-----9\-----------x------7------12-----12h14------------|

Advanced

G---------------------------------------------------------------------------|
D---------------------------------------------------------------------------|
A---------------------------------------------------------------------------|
D--x-h7-7-7-------12---x---9\-------- x-h7-7-7------12--x--12h14------------|

John's Original Tabs:

G---------------------------------------------------------------------------|
D---------------------------------------------------------------------------|
A---------------------------------------------------------------------------|
D----x-7-7--------x-12-----x-12\-----x-7-7-------x-12------x-13h14----------|

Alternate

G---------------------------------------------------------------------------|
D---------------------------------------------------------------------------|
A-----t-----------------------------------------t---------------------------|
D---777-7-------x-12--------x-12\-----777-7-------x-12------x-13h14---------|

Alternate 2

G----------------------12-12----------------------------12-------------|
D----------------------12-12----------------------------12-------------|
A----------------------------------------------------------------------|
D----x-7-7--------x------------12\-----x-7-7-------x-------x-13h14-----|

Sometimes a mixture of the two.

Riff 2:

This is the only other riff in the song that I know.

G----------------0---------------------0----|-||---------------|
D-------------------------------------------*|-||--------------|
A----------------------------t---------------*|-||-------------|
D--00-0-0-0------0-0-000-0-0--------|-||----0---4h5------------| (maybe 5h6)

----------------------------------------------------------------------------
Pork Chop's Little Ditty
----------------------------------------------------------------------------
Tuning: Standard E (E,A,D,G,B,E)

This is actually played with a banjo (Larry usually plays a six-string), but
guitar can sound just like it...

E|--------16-16-16--------------------------------|
B|-----16----------18-16-----16--18--16-16--------|
G|--17-------------------17-----------------------|
D|------------------------------------------------|
A|------------------------------------------------|
E|------------------------------------------------|

E|--------16-16-16--------------------------------|
B|-----16----------18-16--------------------------|
G|--17-------------------17-----------------------|
D|------------------------------------------------|
A|------------------------------------------------|
E|------------------------------------------------|

E|--------16-16-16---------------------------------------------------------16--16---|
B|-----16----------18-16-----16--18--16--16--16-----18--16--------------------------|
G|--17-------------------17----------------------17---------17--15------------------|
D|------------------------------------------------------------------18--18----------|
A|----------------------------------------------------------------------------------|
E|----------------------------------------------------------------------------------|


E|------------16-------------------------------------------------------------|
B|------16-18----------------------------------------------------------------|
G|--17-----------------------------------------------------------------------|
D|---------------------------------------------------------------------------|
A|---------------------------------------------------------------------------|
E|---------------------------------------------------------------------------|
-----------------------------------------------------------------------------|
Hail Santa
----------------------------------------------------------------------------
Cant find if you have it e-mail me at rbm90120
comments
We did not receive enough feedback on this tab! Please rate:
print report bad tab
1 2 3 4 5
I want to post or [tab]
guest
You may want to rate the tab now too:
select rating
Please do not post tabs as comments. Select "correction" instead!