Oops, an error
Loading. Please wait.

A Fruitless End Ever Tab

297 views 1 this week
4 commentsread comments
1 2 3 4 5
accurate
x 3
Autoscroll
+/-
esc
set tempo
stop
WARNING: You are trying to view
                                    content from Ultimate-Guitar.com
                                    in an unauthorized application,
                                    which is prohibited.

                                    Please use an official Ultimate
                                    Guitar Tabs application for iPhone,
                                    iPad or Android to access legitimate
                                    chords, guitar, bass, and drum tabs
                                    from Ultimate-Guitar.com database.

                                    Type "ultimate guitar tabs" in Apple
                                    App Store's or Android Market's
                                    search to find the application.
Artist: Project 86
Song: A Fruitless End Ever
Album: Songs To Burn Your Bridges By
Copyright: Tooth & Nail Records, Team Black Recordings (2004)

I've done 2 tabs, one for Oblivion and one for Your Heroes are Dead. I was 95% sure on 
but I'm not so sure with this

one, but it should help you get an idea of what the song is like.

1. Intro riff...the main riff...the pre-chorus and post-chorus riff. It's played alot. 
simple. It's played 2 times, then

there is a open palm mute/harmonic, then it's played as Andrew comes in with the vocals.

e)----------------------|
B)----------------------|
G)----------------------|
D)--0--2--3--5--8--7--0-|
A)--0--2--3--5--8--7--0-|
D)--0--2--3--5--8--7--0-|

2. The Verse. I'm pretty sure the notes are right, but the guitar sounds different after 
octaves. If anyone has any clue

on the effect that is used to get the sound, feel free to let me know.

e)------------------------------------------------------------------|
B)------------------------------------------------------------------|
G)--7-7-7-7-7-7-7-7--5-5-5-5-5-5-5-5--7-7-7-7-7-7-7-7---------------|
D)--x-x-x-x-x-x-x-x--x-x-x-x-x-x-x-x--x-x-x-x-x-x-x-x---------------|
A)--5-5-5-5-5-5-5-5--3-3-3-3-3-3-3-3--5-5-5-5-5-5-5-5---3-5-6-5-3-5-|
D)------------------------------------------------------------------|


3. The Chorus

e)----------------------------------------------------------------------|
B)----------------------------------------------------------------------|
G)----------------------------------------------------------------------|
D)--0-0-0-0-3-3-3-3-3-3-3-3-5-5-3-3---0-0-0-0-3-3-3-3-3-3-3-3-5-5-5-5---|
A)--0-0-0-0-1-1-1-1-3-3-3-3-3-3-1-1---0-0-0-0-1-1-1-1-3-3-3-3-3-3-3-3---|
D)--0-0-0-0---------3-3-3-3-----------0-0-0-0---------3-3-3-3-----------|


4a. The Bridge thing. Another piece in question. Parenthesis = Palm Mute. In old school 
fashion, he slowly lets off on

the palm mute as it progresses.

e)---------------------------------------|
B)---------------------------------------|
G)-------------------------------5-5-5-5-|
D)-------------------------------x-x-x-x-|
A)--(5-5-3-3--5-5-3-3--5-5-3-3)--3-3-3-3-|
D)---------------------------------------|

4b. The hammer on is played several times...too many to tab.

e)-------------------------------------------------------------|
B)-------------------------------------------------------------|
G)-----------14-14-14-14-14-14-14-14--15-15-15-15--17-17-17-17-|
D)-----------x--x--x--x--x--x--x--x---x--x--x--x---x--x--x--x--|
A)--12h13----12-12-12-12-12-12-12-12--13-13-13-13--15-15-15-15-|
D)-------------------------------------------------------------|


5. There is a little piece that is played before the last chorus. The main riff is 
like 3 times, only on the low D

string, and then this is played:

e)----------------------------------|
B)----------------------------------|
G)----------------------------------|
D)--3-3-3-3-3-3-5-5-----------------|
A)--3-3-3-3-1-1-3-3-----------------|
D)--3-3-3-3-------------------------|


I think that's it.
comments
We did not receive enough feedback on this tab! Please rate:
print report bad tab
1 2 3 4 5
4 comments total. Showing first comments.
0 reply
DoZeR211 wrote on November 7 2004, 12:00 am

I think it's pretty good. exept I think the bridge should be:
---------------------------------------
---------------------------------------
---------------------------------5-5-5-
---------------------------------3-3-3-
--(5-5-3-3--5-5-3-3--5-5-3-3-5)--------
---------------------------------------
any thats just what I think. beside that its an awesome tab

0 reply
jaewalkin wrote on January 7 2005, 12:00 am

i think there are two things i would change to your tab, though i've only checked the intro/verse/chorus i think the intro is

D-0-0-0-2-2-2-3-3-3-5-5-5-8-8-7-7

I think he's just playing the dropped D. and on the chorus i think it's

d-0-0-0-0-10-10-10-10
a-0-0-0-0-8 -8 -8 -8
D-0-0-0-0-8 -8 -8 -8

0 reply
jaewalkin wrote on January 7 2005, 12:00 am

i think there are two things i would change to your tab, though i've only checked the intro/verse/chorus i think the intro is

D-0-0-0-2-2-2-3-3-3-5-5-5-8-8-7-7

I think he's just playing the dropped D. and on the chorus i think it's

d-0-0-0-0-10-10-10-10
a-0-0-0-0-8 -8 -8 -8
D-0-0-0-0-8 -8 -8 -8

I want to post or [tab]
guest
You may want to rate the tab now too:
select rating
Please do not post tabs as comments. Select "correction" instead!