Oops, an error
Loading. Please wait.

And The Rest Will Follow Tab

1,004 views 1 this week
3 commentsread comments
1 2 3 4 5
excellent!
x 5
Autoscroll
+/-
esc
set tempo
stop
Contributor
Hey! There's an official Ultimate Guitar app which is ideal
for learning songs when you're away from computer. Get the app
WARNING: You are trying to view
                                    content from Ultimate-Guitar.com
                                    in an unauthorized application,
                                    which is prohibited.

                                    Please use an official Ultimate
                                    Guitar Tabs application for iPhone,
                                    iPad or Android to access legitimate
                                    chords, guitar, bass, and drum tabs
                                    from Ultimate-Guitar.com database.

                                    Type "ultimate guitar tabs" in Apple
                                    App Store's or Android Market's
                                    search to find the application.
Alrighty...

...And The Rest Will Follow. Amazing album. Now the only parts
I don’t have in this album tab is the solo in My Will Be a Dead
Man and a tab for ...And The Rest Will Follow (the song), so if
you came here for those, sorry.

Now, I'll be putting "TIPS:" throughout the tab. Watch for these,
cause they include how to play certain parts, how many times to
hit strings, or other important information.

As for different clean and distortion guitars. I will only be listing
it when a song has both a clean AND a distortion guitar. And I will
only list it when you switch from one to the other. In other words
it will only be listed when you need to switch from a clean guitar to
a distortion guitar, or vice versa, so watch for it.

Also, an easy way to find a certain song within this tab is to
hold CTRL and push "F",then type the name of the song. Nice
shortcut for this.

So, the track listing and tunings are as follows:

1. Sincerely Ichabod. (C#)
2. All of Me. (C#)
3. Doomsday Stomp. (Drop D)
4. Something We Cant Be. (Drop D)
5. Subject To Change. (Drop D)
6. Necktie Remedy. (Drop D)
7. My Will Be A Dead Man. (Drop D)
8. From December. (C#)
9. The Hand, The Furnace, The Straight Face. (Drop D)
10. ...And The Rest Will Follow. (n/a)
11. Cavity King. (Drop D)
12. Wordsmith Legacy. (Drop D)

Let's get this show on the road, shall we?

-----------------------------------------------------------------------------
                              Sincerely, Ichabod.
                                   Tuning C#
-----------------------------------------------------------------------------

Intro 1:

D#|----------------------------------|
A#|----------------------------------|
F#|----------------------------------|
C#|-0-0-0--0-0-0--3*--0-0-0--0-0-0---|
G#|-0-0-0--0-0-0--3*--0-0-0--0-0-0---|
C#|-0-0-0--0-0-0--3*--0-0-0--0-0-0---|
pm  . . .  . . .      . . .  . . .


Intro 2:

D#|----------------------------------------------------|
A#|-10-10-10-10-10-10-10-10---10-10-10-10-10-10-10-10--|
F#|-12-12-12-12-12-12-12-12---11-11-11-11-11-11-11-11--|
C#|----------------------------------------------------|
G#|----------------------------------------------------|
C#|----------------------------------------------------|

D#|----------------------------------------------------|
A#|-10-10-10-10-10-10-10-10---10-10-10-10-10-10-10-10--|
F#|-10-10-10-10-10-10-10-10---9--9--9--9--9--9--9--9---|
C#|----------------------------------------------------|
G#|----------------------------------------------------|
C#|----------------------------------------------------|

D#|----------------------------------------------------|
A#|-10-10-10-10-10-10-10-10---10-10-10-10-10-10-10-10--|
F#|-12-12-12-12-12-12-14-14---11-11-11-11-11-11-11-11--|
C#|----------------------------------------------------|
G#|----------------------------------------------------|
C#|----------------------------------------------------|

D#|----------------------------------------------------|
A#|-10-10-10-10-10-10-10-10---10-10-10-10-10b----------|
F#|-10-10-10-10-10-10-10-10---9--9--9--9--9-b----------|
C#|----------------------------------------------------|
G#|----------------------------------------------------|
C#|----------------------------------------------------|


Verse 1:

D#|----------------------------------|
A#|----------------------------------|
F#|----------------------------------|
C#|-0-0-0--0-0-0--3*--0-0-0--0-0-0---|
G#|-0-0-0--0-0-0--3*--0-0-0--0-0-0---|
C#|-0-0-0--0-0-0--3*--0-0-0--0-0-0---|
pm  . . .  . . .      . . .


Pre-Chorus 1:

D#|---------------------------------------------|
A#|---------------------------------------------|
F#|---------------------------------------------|
C#|-10--5--8--3--6------------------------------|
G#|-10--5--8--3--6------------------------------|
C#|-10--5--8--3--6--00-00-00-3p0-3p0-00-00-00---|


D#|------------------------------------------------------------------------|
A#|------------------------------------------------------------------------|
F#|------------------------------------------------------------------------|
C#|-10--5--8--3--6---------------------------------------------------------|
G#|-10--5--8--3--6---------------------------------------------------------|
C#|-10--5--8--3--6--00-00-00-3p0-3p0-00-00-00---00-00-00-3p0-3p0-00-00-00--|

Verse 2:

D#|-----------------------------------------|
A#|-----------------------------------------|
F#|-----------------------------------------|
C#|-6\---3-0---6\---0-0-0---0-0-0---0-0-0---|
G#|-6\---3-0---6\---0-0-0---0-0-0---0-0-0---|
C#|-6\---3-0---6\---0-0-0---0-0-0---0-0-0---|
pm                  . . .   . . .   . . .


Pre-Chorus 2:

D#|---------------------------------------------|
A#|---------------------------------------------|
F#|---------------------------------------------|
C#|-10--5--8--3--6------------------------------|
G#|-10--5--8--3--6------------------------------|
C#|-10--5--8--3--6--00-00-00-3p0-3p0-00-00-00---|


D#|-------------------------------------------------------------------------|
A#|-------------------------------------------------------------------------|
F#|-------------------------------------------------------------------------|
C#|-10--5--8--3--6----------------------------------------------------------|
G#|-10--5--8--3--6--------------------------------------------------------0-|
C#|-10--5--8--3--6--00-00-00-3p0-3p0-00-00-00---00-00-00-3p0-3p0-00-00-00-0-|

Chorus 1:

D#|------------------------------------------------------------------|
A#|------------------------------------------------------------------|
F#|------------------------------------------------------------------|
C#|-023--------------------------------------------------------------|
G#|-023--------------------------------------------------------------|
C#|-023--6-00-00-0-00-000-6----00-00-0-00-000-3----00-00-0-00-000-6--|

D#|-----------------------------------------------------------------|
A#|-----------------------------------------------------------------|
F#|-----------------------------------------------------------------|
C#|-------------------023-------------------------------------------|
G#|-------------------023-------------------------------------------|
C#|-00-00-0-00--------023--6-00-00-0-00-000-6----00-00-0-00-000-3---|


D#|-----------------------------------------------------------------|
A#|-----------------------------------------------------------------|
F#|-----------------------------------------------------------------|
C#|--------------------------------------6\---3-0---6\----0000000---|
G#|--------------------------------------6\---3-0---6\----0000000---|
C#|-00-00-0-00-000----6-00-00-0-00-000---6\---3-0---6\----0000000---|

Bridge 1:

D#|----------------------------------------------------|
A#|-10-10-10-10-10-10-10-10---10-10-10-10-10-10-10-10--|
F#|-12-12-12-12-12-12-12-12---11-11-11-11-11-11-11-11--|
C#|----------------------------------------------------|
G#|----------------------------------------------------|
C#|----------------------------------------------------|

D#|----------------------------------------------------|
A#|-10-10-10-10-10-10-10-10---10-10-10-10-10-10-10-10--|
F#|-10-10-10-10-10-10-10-10---9--9--9--9--9--9--9--9---|
C#|----------------------------------------------------|
G#|----------------------------------------------------|
C#|----------------------------------------------------|

D#|----------------------------------------------------|
A#|-10-10-10-10-10-10-10-10---10-10-10-10-10-10-10-10--|
F#|-12-12-12-12-12-12-14-14---11-11-11-11-11-11-11-11--|
C#|----------------------------------------------------|
G#|----------------------------------------------------|
C#|----------------------------------------------------|

D#|----------------------------------------------------|
A#|-10-10-10-10-10-10-10-10---10-10-10-10-10-10-10-10--|
F#|-10-10-10-10-10-10-10-10---9--9--9--9--9--9--9--9---|
C#|----------------------------------------------------|
G#|----------------------------------------------------|
C#|----------------------------------------------------|

D#|----------------------------------------------------|
A#|-10-10-10-10-10-10-10-10---10-10-10-10-10-10-10-10--|
F#|-12-12-12-12-12-12-12-12---11-11-11-11-11-11-11-11--|
C#|----------------------------------------------------|
G#|----------------------------------------------------|
C#|----------------------------------------------------|

D#|----------------------------------------------------|
A#|-10-10-10-10-10-10-10-10---10-10-10-10-10-10-10-10--|
F#|-10-10-10-10-10-10-10-10---9--9--9--9--9--9--9--9---|
C#|----------------------------------------------------|
G#|----------------------------------------------------|
C#|----------------------------------------------------|

D#|----------------------------------------------------|
A#|-10-10-10-10-10-10-10-10---10-10-10-10-10-10-10-10--|
F#|-12-12-12-12-12-12-12-12---11-11-11-11-11-11-11-11--|
C#|----------------------------------------------------|
G#|----------------------------------------------------|
C#|----------------------------------------------------|

D#|----------------------------------------------------|
A#|-10-10-10-10-10-10-10-10---10-10-10-10-10-10-10-10--|
F#|-10-10-10-10-10-10-10-10---9--9--9--9--9--9--9--9---|
C#|----------------------------------------------------|
G#|----------------------------------------------------|
C#|----------------------------------------------------|


Pre-Chorus 3:

D#|------------------|
A#|------------------|
F#|------------------|
C#|-10--5--8--3--6---|
G#|-10--5--8--3--6---|
C#|-10--5--8--3--6---|


D#|-------------------------------------------------------------------------|
A#|-------------------------------------------------------------------------|
F#|-------------------------------------------------------------------------|
C#|-10--5--8--3--6----------------------------------------------------------|
G#|-10--5--8--3--6--------------------------------------------------------0-|
C#|-10--5--8--3--6--00-00-00-3p0-3p0-00-00-00---00-00-00-3p0-3p0-00-00-00-0-|


Chorus 2:

D#|------------------------------------------------------------------|
A#|------------------------------------------------------------------|
F#|------------------------------------------------------------------|
C#|-023--------------------------------------------------------------|
G#|-023--------------------------------------------------------------|
C#|-023--6-00-00-0-00-000-6----00-00-0-00-000-3----00-00-0-00-000-6--|

D#|-----------------------------------------------------------------|
A#|-----------------------------------------------------------------|
F#|-----------------------------------------------------------------|
C#|-------------------023-------------------------------------------|
G#|-------------------023-------------------------------------------|
C#|-00-00-0-00--------023--6-00-00-0-00-000-6----00-00-0-00-000-3---|


D#|-----------------------------------------------------------------|
A#|-----------------------------------------------------------------|
F#|-----------------------------------------------------------------|
C#|-----------------------------------------------------------------|
G#|-----------------------------------------------------------------|
C#|-00-00-0-00-000----6-00-00-0-00-023------------------------------|

Bridge 2a:

D#|------------------------------------------------------|
A#|------------------------------------------------------|
F#|------------------------------------------------------|
C#|-6~~~~--3~~--5~~--0~~~~------6~~~~--3~~--5~~--0~~~~---|
G#|-6~~~~--3~~--5~~--0~~~~------6~~~~--3~~--5~~--0~~~~---|
C#|-6~~~~--3~~--5~~--0~~~~------6~~~~--3~~--5~~--0~~~~---|

D#|------------------------------------------------------|
A#|------------------------------------------------------|
F#|------------------------------------------------------|
C#|-6~~~~--3~~--5~~--0~~~~------6~~~~--3~~--5~~----------|
G#|-6~~~~--3~~--5~~--0~~~~------6~~~~--3~~--5~~----------|
C#|-6~~~~--3~~--5~~--0~~~~------6~~~~--3~~--5~~----------|

D#|-------------------------------------------------------------------|
A#|-------------------------------------------------------------------|
F#|-------------*Gradually-bend-the-top-string-on-the-12th-fret-------|
C#|-------------------------------------------------------------------|
G#|-------------------------------------------------------------------|
C#|-00000000-00000000/12-12-12-12-12-12-12-12---12-12-12-12-12-12-12--|

Bridge 2b:

D#|-------------------------------------------------------------|
A#|-10-10-10-10-10-10-10-10------10-10-10-10-10-10-10-10--------|
F#|-13-13-13-13-13-13-13-13------14-14-14-14-14-14-14-14--------|
C#|-------------------------------------------------------------|
G#|-------------------------------------------------------------|
C#|--------------------------------------------------------6\---|

D#|---------------------|
A#|---------------------|
F#|---------------------|
C#|-000--000--000--000--|
G#|-000--000--000--000--|
C#|-000--000--000--000--|

D#|-------------------------------------------------------------|
A#|-10-10-10-10-10-10-10-10------10-10-10-10-10-10-10-10--------|
F#|-13-13-13-13-13-13-13-13------14-14-14-14-14-14-14-14--------|
C#|-------------------------------------------------------------|
G#|-------------------------------------------------------------|
C#|-------------------------------------------------------12\---|

D#|---------------------|
A#|---------------------|
F#|---------------------|
C#|-000--000--000--000--|
G#|-000--000--000--000--|
C#|-000--000--000--000--|

D#|-------------------------------------------------------------|
A#|-10-10-10-10-10-10-10-10------10-10-10-10-10-10-10-10--------|
F#|-13-13-13-13-13-13-13-13------14-14-14-14-14-14-14-14--------|
C#|-------------------------------------------------------------|
G#|-------------------------------------------------------------|
C#|-------------------------------------------------------/12b--|

D#|--------------------------------------------|
A#|--------------------------------------------|
F#|--------------------------------------------|
C#|-000--000--000--000-----000--000--000--000--|
G#|-000--000--000--000-----000--000--000--000--|
C#|-000--000--000--000-----000--000--000--000--|


Chorus 3:

D#|------------------------------------------------------------------|
A#|------------------------------------------------------------------|
F#|------------------------------------------------------------------|
C#|-023--6-00-00-0-00-000-6----00-00-0-00-000-3----00-00-0-00-000-6--|
G#|-023--6-00-00-0-00-000-6----00-00-0-00-000-3----00-00-0-00-000-6--|
C#|-023--6-00-00-0-00-000-6----00-00-0-00-000-3----00-00-0-00-000-6--|

D#|-----------------------------------------------------------------|
A#|-----------------------------------------------------------------|
F#|-----------------------------------------------------------------|
C#|-00-00-0-00--------023--6-00-00-0-00-000-6----00-00-0-00-000-3---|
G#|-00-00-0-00--------023--6-00-00-0-00-000-6----00-00-0-00-000-3---|
C#|-00-00-0-00--------023--6-00-00-0-00-000-6----00-00-0-00-000-3---|


D#|-----------------------------------------------------------------|
A#|-----------------------------------------------------------------|
F#|-----------------------------------------------------------------|
C#|-00-00-0-00-000----6-00-00-0-00----------------------------------|
G#|-00-00-0-00-000----6-00-00-0-00----------------------------------|
C#|-00-00-0-00-000----6-00-00-0-00----------------------------------|


-----------------------------------------------------------------------------
                                All of Me
                                Tuning: C#
-----------------------------------------------------------------------------

Intro:

D#|--------|
A#|-6--8\--|
F#|-5--7\--|
C#|-3--5\--|
G#|--------|
C#|--------|

D#|--------------------------------------------------------------------|
A#|----------------------------------------------------------6--8\-----|
F#|------5----------5-----------------------5----------5-----5--7\-----|
C#|-3h5--3-----3h5--3-----3h5-3h5------3h5--3-----3h5--3-----3--5\-----|
G#|---------3----------3-----------------------3----------3------------|
C#|--------------------------------------------------------------------|

D#|--------------------------------------------------------------------|
A#|----------------------------------------------------------6--8\-----|
F#|------5----------5-----------------------5----------5-----5--7\-----|
C#|-3h5--3-----3h5--3-----3h5-3h5------3h5--3-----3h5--3-----3--5\-----|
G#|---------3----------3-----------------------3----------3------------|
C#|--------------------------------------------------------------------|

Verse 1:

D#|-----------------------------------------------------------------------|
A#|-----------------------------------------------------------------------|
F#|-----------------------------------------------------------------------|
C#|----------------------------------------------------------------3--5\--|
G#|-----1----------1-------1h3p1-----------1-------------1----------------|
C#|-3h5---5--0-3h5---5---0-------5-----3h5----5----0-3h5----5---0---------|

D#|-----------------------------------------------------------------------|
A#|-----------------------------------------------------------------------|
F#|-----------------------------------------------------------------------|
C#|----------------------------------------------------------------3--5\--|
G#|-----1----------1-------1h3p1-----------1-------------1----------------|
C#|-3h5---5--0-3h5---5---0-------5-----3h5----5----0-3h5----5---0---------|

Pre-Chorus 1:

D#|--------------------------------------------------------------------|
A#|----------------------------------------------------------6--8\-----|
F#|------5----------5-----------------------5----------5-----5--7\-----|
C#|-3h5--3-----3h5--3-----3h5-3h5------3h5--3-----3h5--3-----3--5\-----|
G#|---------3----------3-----------------------3----------3------------|
C#|--------------------------------------------------------------------|

D#|--------------------------------------------------------------------|
A#|----------------------------------------------------------6--8\-----|
F#|------5----------5-----------------------5----------5-----5--7\-----|
C#|-3h5--3-----3h5--3-----3h5-3h5------3h5--3-----3h5--3-----3--5\-----|
G#|---------3----------3-----------------------3----------3------------|
C#|--------------------------------------------------------------------|

Chorus 1:

D#|----------------------------66655565----------- |
A#|--8b--8b-8b-8b-8b--66666666-------------|------ |
F#|----------------------------------------|    -- |
C#|----------------------------------------|    -- |
G#|----------------------------------------|    -- |
C#|----------------------------------------|    -- |
                                     *Plays together.
D#|----------------------------------------|    -------- |
A#|----------------------------------------|    -------- |
F#|-------------------55---5-7-7\----------|     |------ |
C#|-55--55--5-58-8-8--55-5-5-7-7\-0303075--|     |    -- |
G#|-55--55--5-58-8-8--33-5-3-5-5\-0303075--|-----|    -- |
C#|-55--55--5-58-8-8-----5--------0303075--|          -- |
                                                       |
                                                       |X2
                                                       |
                                                       |
D#|----------------------------66668888----|          -- |
A#|--8b--8b-8b-8b-8b--66666666-------------|-----|    -- |
F#|----------------------------------------|     |    -- |
C#|----------------------------------------|     |------ |
G#|----------------------------------------|    -------- |
C#|----------------------------------------|    -------- |
                                     *Plays together.
D#|----------------------------------------|    -- |
A#|----------------------------------------|    -- |
F#|-------------------55---5-7-7\----------|    -- |
C#|-55--55--5-58-8-8--55-5-5-7-7\-0303075--|    -- |
G#|-55--55--5-58-8-8--33-5-3-5-5\-0303075--|------ |
C#|-55--55--5-58-8-8-----5--------0303075--------- |


D#|--------------------------------------------------------------------|
A#|--------------------------------------------------------------------|
F#|--------------------------------------------------------------------|
C#|-3-5b----3-5-------------------------3-5b----3-5--------------------|
G#|-3-5b----3-5-------------------------3-5b----3-5--------------------|
C#|-3-5b----3-5-5*-5*-5*-5*-5*-x--------3-5b----3-5-5*-5*-5*-5*-5*-5*--|

Verse 2:

D#|--------|
A#|-6--8\--|
F#|-5--7\--|
C#|-3--5\--|
G#|--------|
C#|--------|

D#|-----------------------------------------------------------------------|
A#|-----------------------------------------------------------------------|
F#|-----------------------------------------------------------------------|
C#|----------------------------------------------------------------3--5\--|
G#|-----1----------1-------1h3p1-----------1-------------1----------------|
C#|-3h5---5--0-3h5---5---0-------5-----3h5----5----0-3h5----5---0---------|

D#|-----------------------------------------------------------------------|
A#|-----------------------------------------------------------------------|
F#|-----------------------------------------------------------------------|
C#|----------------------------------------------------------------3--5\--|
G#|-----1----------1-------1h3p1-----------1-------------1----------------|
C#|-3h5---5--0-3h5---5---0-------5-----3h5----5----0-3h5----5---0---------|

Pre-Chorus 2:

D#|--------------------------------------------------------------------|
A#|----------------------------------------------------------6--8\-----|
F#|------5----------5-----------------------5----------5-----5--7\-----|
C#|-3h5--3-----3h5--3-----3h5-3h5------3h5--3-----3h5--3-----3--5\-----|
G#|---------3----------3-----------------------3----------3------------|
C#|--------------------------------------------------------------------|

D#|--------------------------------------------------------------------|
A#|----------------------------------------------------------6--8\-----|
F#|------5----------5-----------------------5----------5-----5--7\-----|
C#|-3h5--3-----3h5--3-----3h5-3h5------3h5--3-----3h5--3-----3--5\-----|
G#|---------3----------3-----------------------3----------3------------|
C#|--------------------------------------------------------------------|

Chorus 2:

D#|----------------------------66655565----------- |
A#|--8b--8b-8b-8b-8b--66666666-------------|------ |
F#|----------------------------------------|    -- |
C#|----------------------------------------|    -- |
G#|----------------------------------------|    -- |
C#|----------------------------------------|    -- |
                                     *Plays together.
D#|----------------------------------------|    -------- |
A#|----------------------------------------|    -------- |
F#|-------------------55---5-7-7\----------|     |------ |
C#|-55--55--5-58-8-8--55-5-5-7-7\-0303075--|     |    -- |
G#|-55--55--5-58-8-8--33-5-3-5-5\-0303075--|-----|    -- |
C#|-55--55--5-58-8-8-----5--------0303075--|          -- |
                                                       |
                                                       |X2
                                                       |
                                                       |
D#|----------------------------66668888----|          -- |
A#|--8b--8b-8b-8b-8b--66666666-------------|-----|    -- |
F#|----------------------------------------|     |    -- |
C#|----------------------------------------|     |------ |
G#|----------------------------------------|    -------- |
C#|----------------------------------------|    -------- |
                                     *Plays together.
D#|----------------------------------------|    -- |
A#|----------------------------------------|    -- |
F#|-------------------55---5-7-7\----------|    -- |
C#|-55--55--5-58-8-8--55-5-5-7-7\-0303075--|    -- |
G#|-55--55--5-58-8-8--33-5-3-5-5\-0303075--|------ |
C#|-55--55--5-58-8-8-----5--------0303075--------- |


D#|--------------------------------------------------------------------|
A#|--------------------------------------------------------------------|
F#|--------------------------------------------------------------------|
C#|-3-5b----3-5-------------------------3-5b----3-5--------------------|
G#|-3-5b----3-5-------------------------3-5b----3-5--------------------|
C#|-3-5b----3-5-5*-5*-5*-5*-5*-x--------3-5b----3-5-5*-5*-5*-5*-5*-5*--|


D#|-----------------------------------------------------------------------|
A#|-----------------------------------------------------------------------|
F#|--------------------------------------------------------------------3--|
C#|-3-5b-5\------------------------------------------------------------3--|
G#|-3-5b-5\------------------------------------------------------------1--|
C#|-3-5b-5\---------------------------------------------------------------|
                   *ABOVE AND BELOW PEICES PLAY TOGETHER*
D#|-----------------------------------------------------------------------|
A#|-----------------------------------------------------------------------|
F#|-----------------------------------------------------------------------|
C#|-----------------------------------------------------------------------|
G#|-----------------------------------------------------------------------|
C#|-3h5-x-x-x-x-x-x---3h5-x-x-x-x-x-x---3h5-x-x-x-x-x-x---3h5-x-x-3h5-----|


D#|-------------------------------------------------------|
A#|-------------------------------------------------------|
F#|-------------------------------------------------------|
C#|-3-5-------------------------3-5-----------------------|
G#|-3-5-------------------------3-5-----------------------|
C#|-3-5-5*-5*-5*-5*-5*-x--------3-5-5*-5*-5*-5*-5*-5*-----|
                    *ABOVE AND BELOW PEICES PLAY TOGETHER*
D#|-------------------------------------------------------------|
A#|-------------------------------------------------------------|
F#|-------------------------------------------------------------|
C#|-------------------------------------------------------------|
G#|-------------------------------------------------------------|
C#|-3h5---x-x-x-x-x-x-----------3h5-x-x-x-x-x-x-----------------|

D#|-------------------------------------------------------|
A#|-------------------------------------------------------|
F#|-------------------------------------------------------|
C#|-3-5-------------------------3-5-----------------------|
G#|-3-5-------------------------3-5-----------------------|
C#|-3-5-5*-5*-5*-5*-5*-x--------3-5-5*-5*-5*-5*-5*-5*-----|
                    *ABOVE AND BELOW PEICES PLAY TOGETHER*
D#|-------------------------------------------------------------|
A#|-------------------------------------------------------------|
F#|---------------------------------------------------------3---|
C#|-----------------------------------------------3h5---3h5-3---|
G#|-----------------------------------------------3h5---3h5-1---|
C#|-3h5---x-x-x-x-x-x-----------3h5-x-x-x-x-x-x---3h5---3h5-----|

Bridge:
(Solo)

TIP: Those are ones, not elevens.
D#|--------------------------------------------|
A#|-33333333---33333333---11111111---11114411--|
F#|--------------------------------------------|
C#|--------------------------------------------|
G#|--------------------------------------------|
C#|--------------------------------------------|

D#|--------------------------------------------|
A#|-33333333---33333333---11111111---11111111/-|
F#|--------------------------------------------|
C#|--------------------------------------------|
G#|--------------------------------------------|
C#|--------------------------------------------|

D#|-10-10-10-10-10-10-10-10---10-10-10-10-10-10-10-10--|
A#|----------------------------------------------------|
F#|----------------------------------------------------|
C#|----------------------------------------------------|
G#|----------------------------------------------------|
C#|----------------------------------------------------|

D#|-8-8-8-8-8-8-8-8---8-8-8-8-11-11-8-8--|
A#|--------------------------------------|
F#|--------------------------------------|
C#|--------------------------------------|
G#|--------------------------------------|
C#|--------------------------------------|


D#|-10-10-10-10-10-10-10-10---10-10-10-10-10-10-10-10--|
A#|----------------------------------------------------|
F#|----------------------------------------------------|
C#|----------------------------------------------------|
G#|----------------------------------------------------|
C#|----------------------------------------------------|

D#|-8-8-8-8-8-8-8-8---8-8-8-8-8-8-8-8----|
A#|--------------------------------------|
F#|--------------------------------------|
C#|--------------------------------------|
G#|--------------------------------------|
C#|--------------------------------------|

D#|----------------------------------------|
A#|--8b--8b-8b-8b-8b------8b--8b-8b-8b-8b--|
F#|----------------------------------------|
C#|----------------------------------------|
G#|----------------------------------------|
C#|----------------------------------------|

Chorus 3:

D#|----------------------------66655565----------- |
A#|--8b--8b-8b-8b-8b--66666666-------------|------ |
F#|----------------------------------------|    -- |
C#|----------------------------------------|    -- |
G#|----------------------------------------|    -- |
C#|----------------------------------------|    -- |
                                     *Plays together.
D#|----------------------------------------|    -------- |
A#|----------------------------------------|    -------- |
F#|-------------------55---5-7-7\----------|     |------ |
C#|-55--55--5-58-8-8--55-5-5-7-7\-0303075--|     |    -- |
G#|-55--55--5-58-8-8--33-5-3-5-5\-0303075--|-----|    -- |
C#|-55--55--5-58-8-8-----5--------0303075--|          -- |
                                                       |
                                                       |X2
                                                       |
                                                       |
D#|----------------------------66668888----|          -- |
A#|--8b--8b-8b-8b-8b--66666666-------------|-----|    -- |
F#|----------------------------------------|     |    -- |
C#|----------------------------------------|     |------ |
G#|----------------------------------------|    -------- |
C#|----------------------------------------|    -------- |
                                     *Plays together.
D#|----------------------------------------|    -- |
A#|----------------------------------------|    -- |
F#|-------------------55---5-7-7\----------|    -- |
C#|-55--55--5-58-8-8--55-5-5-7-7\-0303075--|    -- |
G#|-55--55--5-58-8-8--33-5-3-5-5\-0303075--|------ |
C#|-55--55--5-58-8-8-----5--------0303075--------- |


D#|--------------------------------------------------------------------|
A#|--------------------------------------------------------------------|
F#|--------------------------------------------------------------------|
C#|-3-5b----3-5-------------------------3-5b----3-5--------------------|
G#|-3-5b----3-5-------------------------3-5b----3-5--------------------|
C#|-3-5b----3-5-5*-5*-5*-5*-5*-x--------3-5b----3-5-5*-5*-5*-5*-5*-5*--|

D#|--------------------------------------------------------------------|
A#|--------------------------------------------------------------------|
F#|--------------------------------------------------------------------|
C#|-3-5b----3-5-------------------------3-5b----3-5--------------------|
G#|-3-5b----3-5-------------------------3-5b----3-5--------------------|
C#|-3-5b----3-5-5*-5*-5*-5*-5*-x--------3-5b----3-5-5*-5*-5*-5*-5*-5*--|

D#|---------|
A#|---------|
F#|---------|
C#|-3-5b-\--|
G#|-3-5b-\--|
C#|-3-5b-\--|


-----------------------------------------------------------------------------
                               Doomsday Stomp
                               Tuning: Drop D
-----------------------------------------------------------------------------

Intro:
(Acoustic)
E|--------------------------|
B|--------------------------|
G|--------------------------|
D|--------------------------|
A|--------------------------|
D|-0~~~---------------------|


E|----------------------------------------------|
B|----------------------------------------------|
G|----------------------------------------------|
D|--------10--------------------10--------------|
A|----12--------------------12---------12--11---|
D|-0----------0--10--12--0----------0-----------|


E|----------------------------------------------|
B|----------------------------------------------|
G|----------------------------------------------|
D|--------10--------------------10--------------|
A|----12--------------------12------------------|
D|-0----------0--10--12--0----------0-----------|


(Distortion)
E|----------------------------------------------|
B|----------------------------------------------|
G|----------------------------------------------|
D|-------------------------------------7--6-----|
A|-------------------------------------7--6-----|
D|-------------------------------------7--6-----|

(Distortion)
E|----------------------------------------------------- |
B|----------------------------------------------------- |
G|----------------------------------------------|------ |
D|--------10--------------------10--------------|    -- |
A|----12--------------------12---------12--11---|    -- |
D|-0----------0--10--12--0----------0-----------|    -- |
                                            *Plays together
(Distortion)                                          |
E|----------------------------------------------|    --- |
B|----------------------------------------------|    --- | X4
G|----------------------------------------------|    --- |
D|-0~~~-----------------0~~~-----------7--6-----|------- |
A|-0~~~-----------------0~~~-----------7--6------------- |
D|-0~~~-----------------0~~~-----------7--6------------- |


(Distortion)
E|----------------------------------------------------- |
B|----------------------------------------------------- |
G|----------------------------------------------|------ |
D|--------10--------------------10--------------|    -- |
A|----12--------------------12---------12--11---|    -- |
D|-0----------0--10--12--0----------0-----------|    -- |
                                            *Plays together
(Distortion)                                          |
E|----------------------------------------------|    --- |
B|----------------------------------------------|    --- | X2
G|----------------------------------------------|    --- |
D|-0~~~-----------------------------------------|------- |
A|-0~~~------------------------------------------------- |
D|-0~~~------------------------------------------------- |


Verse 1:
E|---------------------------------------------------------------|
B|---------------------------------------------------------------|
G|----14-14-14-14------------8--------14-14-14-14------------10--|
D|-0~-------------0-10-12--0-------0~-------------0-10-12--0-----|
A|-0~-12-12-12-12-0-10-12--0-6-----0~-12-12-12-12-0-10-12--0--8--|
D|-0~-------------0-10-12--0-------0~-------------0-10-12--0-----|

E|-------------------------------|
B|-------------------------------|
G|----14-14-14-14------------8---|
D|-0~-------------0-10-12--0-----|
A|-0~-12-12-12-12-0-10-12--0-6---|
D|-0~-------------0-10-12--0-----|

Pre-Chorus 1:

E|----------------------------------------------------------|
B|----------------------------------------------------------|
G|----14-14-14-14--10-10-10-12-15~--15~--15~--15~-17-19~~~--|
D|--0--------------------------14~-------14~----------------|
A|--0-12-12-12-12--8--8--8--10-13~--13~--13~--13~-15-17~~~--|
D|--0-------------------------------------------------------|

Chorus 1:

E|----------------------------------------------------------------|
B|----------------------------------------------------------------|
G|---------14-14-14------------------------14-14-14---------------|
D|--0-0-0--x--x--x---8-8-8-8-8-8----0-0-0--x--x--x---8-8-8-3x-3---|
A|--0-0-0--12-12-12--8-8-8-8-8-8----0-0-0--12-12-12--8-8-8-3x-3---|
D|--0-0-0------------8-8-8-8-8-8----0-0-0------------8-8-8-3x-3---|

E|---------------------------------------------------------|
B|---------------------------------------------------------|
G|---------14-14-14----------------------------------------|
D|--0-0-0--x--x--x---8-8-8-8-8-8--3-3-3-3-3-3-5-5-5-5-76---|
A|--0-0-0--12-12-12--8-8-8-8-8-8--3-3-3-3-3-3-5-5-5-5-76---|
D|--0-0-0------------8-8-8-8-8-8--3-3-3-3-3-3-5-5-5-5-76---|

(Distortion)
E|----------------------------------------------------- |
B|----------------------------------------------------- |
G|----------------------------------------------|------ |
D|--------10--------------------10--------------|    -- |
A|----12--------------------12---------12--11---|    -- |
D|-0----------0--10--12--0----------0-----------|    -- |
                                            *Plays together
(Distortion)                                          |
E|----------------------------------------------|    --- |
B|----------------------------------------------|    --- | X4
G|----------------------------------------------|    --- |
D|-0~~~-----------------0~~~-----------7--6-----|------- |
A|-0~~~-----------------0~~~-----------7--6------------- |
D|-0~~~-----------------0~~~-----------7--6------------- |

Verse 2:
E|---------------------------------------------------------------|
B|---------------------------------------------------------------|
G|----14-14-14-14------------8--------14-14-14-14------------10--|
D|-0~-------------0-10-12--0-------0~-------------0-10-12--0-----|
A|-0~-12-12-12-12-0-10-12--0-6-----0~-12-12-12-12-0-10-12--0--8--|
D|-0~-------------0-10-12--0-------0~-------------0-10-12--0-----|

E|-------------------------------|
B|-------------------------------|
G|----14-14-14-14------------8---|
D|-0~-------------0-10-12--0-----|
A|-0~-12-12-12-12-0-10-12--0-6---|
D|-0~-------------0-10-12--0-----|

Pre-Chorus 2:

E|-----------------------------------------------------|
B|-----------------------------------------------------|
G|----14-14-14-14--10-10-10-12-15~--15~--15~--15~-17---|
D|--0--------------------------14~-------14~-----------|
A|--0-12-12-12-12--8--8--8--10-13~--13~--13~--13~-15---|
D|--0--------------------------------------------------|

Chorus 2:

E|----------------------------------------------------------------|
B|----------------------------------------------------------------|
G|---------14-14-14------------------------14-14-14---------------|
D|--0-0-0--x--x--x---8-8-8-8-8-8----0-0-0--x--x--x---8-8-8-3x-3---|
A|--0-0-0--12-12-12--8-8-8-8-8-8----0-0-0--12-12-12--8-8-8-3x-3---|
D|--0-0-0------------8-8-8-8-8-8----0-0-0------------8-8-8-3x-3---|

E|---------------------------------------------------------|
B|---------------------------------------------------------|
G|---------14-14-14----------------------------------------|
D|--0-0-0--x--x--x---8-8-8-8-8-8--3-3-3-3-3-3-5-5-5-5-76---|
A|--0-0-0--12-12-12--8-8-8-8-8-8--3-3-3-3-3-3-5-5-5-5-76---|
D|--0-0-0------------8-8-8-8-8-8--3-3-3-3-3-3-5-5-5-5-76---|

(Distortion)
E|----------------------------------------------------- |
B|----------------------------------------------------- |
G|----------------------------------------------|------ |
D|--------10--------------------10--------------|    -- |
A|----12--------------------12---------12--11---|    -- |
D|-0----------0--10--12--0----------0-----------|    -- |
                                            *Plays together
(Distortion)                                          |
E|----------------------------------------------|    --- |
B|----------------------------------------------|    --- | X4
G|----------------------------------------------|    --- |
D|-0~~~-----------------0~~~-----------7--6-----|------- |
A|-0~~~-----------------0~~~-----------7--6------------- |
D|-0~~~-----------------0~~~-----------7--6------------- |

Bridge:

E|----------------------------------------------|
B|----------------------------------------------|
G|----------------------------------------------|
D|--------10--------------------10--------------| X6
A|----12--------------------12---------12--11---|
D|-0----------0--10--12--0----------0-----------|

E|----------------------------------------------|
B|----------------------------------------------|
G|----------------------------------------------|
D|--------10---------10---------10---------10---|
A|----12---------12---------12---------12-------|
D|-0----------0----------0----------0-----------|

E|----------------------------------------------|
B|----------------------------------------------|
G|----------------------------------------------|
D|--------12---------12---------12---------12---| X4
A|----12---------12---------12---------12-------|
D|-0----------0----------0----------0-----------|

E|---------------------------------|
B|---------------------------------|
G|---------------------------------|
D|--0-0-0-0-0-0/12-12-12-12-12-12--|
A|--0-0-0-0-0-0/12-12-12-12-12-12--|
D|--0-0-0-0-0-0/12-12-12-12-12-12--|

Chorus 2:

E|----------------------------------------------------------------|
B|----------------------------------------------------------------|
G|---------14-14-14------------------------14-14-14---------------|
D|--0-0-0--x--x--x---8-8-8-8-8-8----0-0-0--x--x--x---8-8-8-33-33--|
A|--0-0-0--12-12-12--8-8-8-8-8-8----0-0-0--12-12-12--8-8-8-33-33--|
D|--0-0-0------------8-8-8-8-8-8----0-0-0------------8-8-8-33-33--|

E|---------------------------------------------------------|
B|---------------------------------------------------------|
G|---------14-14-14----------------------------------------|
D|--0-0-0--x--x--x---8-8-8-8-8-8--3-3-3-3-3-3-5-5-5-5-76---|
A|--0-0-0--12-12-12--8-8-8-8-8-8--3-3-3-3-3-3-5-5-5-5-76---|
D|--0-0-0------------8-8-8-8-8-8--3-3-3-3-3-3-5-5-5-5-76---|


Chorus 2:

E|----------------------------------------------------------------|
B|----------------------------------------------------------------|
G|---------14-14-14------------------------14-14-14---------------|
D|--0-0-0--x--x--x---8-8-8-8-8-8----0-0-0--x--x--x---8-8-8-3-3-3--|
A|--0-0-0--12-12-12--8-8-8-8-8-8----0-0-0--12-12-12--8-8-8-3-3-3--|
D|--0-0-0------------8-8-8-8-8-8----0-0-0------------8-8-8-3-3-3--|

E|---------------------------------------------------------|
B|---------------------------------------------------------|
G|---------14-14-14----------------------------------------|
D|--0-0-0--x--x--x---8-8-8-8-8-8--3-3-3-3-3-3-5-5-5-5-76---|
A|--0-0-0--12-12-12--8-8-8-8-8-8--3-3-3-3-3-3-5-5-5-5-76---|
D|--0-0-0------------8-8-8-8-8-8--3-3-3-3-3-3-5-5-5-5-76---|

(Distortion)
E|----------------------------------------------------- |
B|----------------------------------------------------- |
G|----------------------------------------------|------ |
D|--------10--------------------10--------------|    -- |
A|----12--------------------12---------12--11---|    -- |
D|-0----------0--10--12--0----------0-----------|    -- |
                                            *Plays together
(Distortion)                                          |
E|----------------------------------------------|    --- |
B|----------------------------------------------|    --- | X2
G|----------------------------------------------|    --- |
D|-0~~~-----------------0~~~-----------7--6-----|------- |
A|-0~~~-----------------0~~~-----------7--6------------- |
D|-0~~~-----------------0~~~-----------7--6------------- |

Outro:

E|----------------------------------------------|
B|----------------------------------------------|
G|----------------------------------------------|
D|--------10---------10---------10---------10---|
A|----12---------12---------12---------12-------|
D|-0----------0----------0----------0-----------|

E|----------------------------------------------|
B|----------------------------------------------|
G|----------------------------------------------|
D|--------12---------12---------12-----7--6-----|
A|----12---------12---------12---------7--6-----|
D|-0----------0----------0----------0--7--6-----|


-----------------------------------------------------------------------------
                             Something We Can't Be
                                Tuning: Drop D
-----------------------------------------------------------------------------

Intro:

(Slight Distortion)
E|-----------------------------------------------------------------|
B|-----------------------------------------------------------------|
G|-----------------------------------------------------------------|
D|-----------------------------------------------------------------|
A|-----------------------------------------------------------------|
D|-4~~--4\2-2~~-4/7-7~~-6~-7~-----4~~--4\2-2~~-4/9-9~~-9\7-7--6~---|

Intro 2:

E|-----------------------------------------------------------|
B|-----------------------------------------------------------|
G|-----------------------------------------------------------|
D|-4xx4x4xx4xxxx44x4x2x2xx7x6---4xx4x4xx4xxxx44x4x2x2xx7x6---|
A|-4xx4x4xx4xxxx44x4x2x2xx7x6---4xx4x4xx4xxxx44x4x2x2xx7x6---|
D|-4xx4x4xx4xxxx44x4x2x2xx7x6---4xx4x4xx4xxxx44x4x2x2xx7x6---|

Verse 1:

E|-----------------------------------------------------------|
B|-----------------------------------------------------------|
G|-----------------------------------------------------------|
D|-4xx4x4xx4xxxx44x4x2x2xx7x6---4xx4x4xx4xxxx44x4x2x2xx7x6---|
A|-4xx4x4xx4xxxx44x4x2x2xx7x6---4xx4x4xx4xxxx44x4x2x2xx7x6---|
D|-4xx4x4xx4xxxx44x4x2x2xx7x6---4xx4x4xx4xxxx44x4x2x2xx7x6---|


E|-----------------------------|
B|-----------------------------|
G|-----------------------------|
D|-----------------------------|
A|-----------------------------|
D|-4xx4x4xx4xxxx44x4x4x4xxxxx--|


E|-----------------------------------------------------------|
B|-----------------------------------------------------------|
G|-----------------------------------------------------------|
D|-4xx4x4xx4xxxx44x4x2x2xx7x6---4xx4x4xx4xxxx44x4x2x2xx7x6---|
A|-4xx4x4xx4xxxx44x4x2x2xx7x6---4xx4x4xx4xxxx44x4x2x2xx7x6---|
D|-4xx4x4xx4xxxx44x4x2x2xx7x6---4xx4x4xx4xxxx44x4x2x2xx7x6---|

E|-----------------------------------------------------------|
B|-----------------------------------------------------------|
G|-----------------------------------------------------------|
D|-4xx4x4xx4xxxx44x4x2x2xx7x6---4xx4x4xx4xxxx44x4x2x2xx7x6---|
A|-4xx4x4xx4xxxx44x4x2x2xx7x6---4xx4x4xx4xxxx44x4x2x2xx7x6---|
D|-4xx4x4xx4xxxx44x4x2x2xx7x6---4xx4x4xx4xxxx44x4x2x2xx7x6---|

Pre-Chorus 1:
(Clean)

E|-------------------------|
B|-------------------------|
G|-------------------------|
D|--4~~~----7~~~----9~~~---|
A|-(4)~~---(7)~~---(9)~~---|
D|-(4)~~---(7)~~---(9)~~---|

Chorus 1:
(Clean)

TIP: The chorus is very hard to here, but something I learned awhile ago
is to put the CD in a discman and pull the headphones out a certain
amount...if you pull it out at the right spot, you can here only the
insturments (depending on how the song was recorded)...thatès how I
was able to tab out the chorus. Itès basically the little bridge
peice in the song right before the 3rd chorus.
E|---------------------------------------|
B|---------------------------------------|
G|---------------------------------------|
D|-2-4-7-4---2-4-7-4---2-4-7-4---2-7-2---|
A|-2-4-7-4---2-4-7-4---2-4-7-4---2-7-2---|
D|-2-4-7-4---2-4-7-4---2-4-7-4---2-7-2---|

E|---------------------------------------|
B|---------------------------------------|
G|---------------------------------------|
D|-2-4-7-4---2-4-7-4---2-4-7-4---2-7-2---|
A|-2-4-7-4---2-4-7-4---2-4-7-4---2-7-2---|
D|-2-4-7-4---2-4-7-4---2-4-7-4---2-7-2---|

After-Chorus 1:
(Distortion)

E|-----------------------|
B|-----------------------|
G|-6~~~~~~--6~~~~~~------|
D|-4~~~~~~--4~~~~~~-444--|
A|-4~~~~~~--4~~~~~~-444--|
D|-4~~~~~~--4~~~~~~-444--|

Verse 2:

E|-----------------------------------------------------------|
B|-----------------------------------------------------------|
G|-----------------------------------------------------------|
D|-4xx4x4xx4xxxx44x4x2x2xx7x6---4xx4x4xx4xxxx44x4x2x2xx7x6---|
A|-4xx4x4xx4xxxx44x4x2x2xx7x6---4xx4x4xx4xxxx44x4x2x2xx7x6---|
D|-4xx4x4xx4xxxx44x4x2x2xx7x6---4xx4x4xx4xxxx44x4x2x2xx7x6---|

E|-----------------------------------------------------------|
B|-----------------------------------------------------------|
G|-----------------------------------------------------------|
D|-4xx4x4xx4xxxx44x4x2x2xx7x6---4xx4x4xx4xxxx44x4x2x2xx7x6---|
A|-4xx4x4xx4xxxx44x4x2x2xx7x6---4xx4x4xx4xxxx44x4x2x2xx7x6---|
D|-4xx4x4xx4xxxx44x4x2x2xx7x6---4xx4x4xx4xxxx44x4x2x2xx7x6---|

Pre-Chorus 2:
(Clean)

E|-------------------------|
B|-------------------------|
G|-------------------------|
D|--4~~~----7~~~----9~~~---|
A|-(4)~~---(7)~~---(9)~~---|
D|-(4)~~---(7)~~---(9)~~---|

Chorus 2:
(Distortion)

E|---------------------------------------|
B|---------------------------------------|
G|---------------------------------------|
D|-2-4-7-4---2-4-7-4---2-4-7-4---2-7-2---|
A|-2-4-7-4---2-4-7-4---2-4-7-4---2-7-2---|
D|-2-4-7-4---2-4-7-4---2-4-7-4---2-7-2---|


E|------------------------------------------------------------|
B|------------------------------------------------------------|
G|------------------------------------------------------------|
D|-2-4-7-4---2-4-7-4---2-4-7-4---2-7-2------------------------|
A|-2-4-7-4---2-4-7-4---2-4-7-4---2-7-2---9p7-9p7-9p7-9p7-9p7--|
D|-2-4-7-4---2-4-7-4---2-4-7-4---2-7-2------------------------|

Bridge:
(Clean)

E|------------------------------------------|
B|------------------------------------------|
G|------------------------------------------|
D|-2-4-7-4----2-4-7-4----2-4-7-4----2-4\----|
A|---------------------------------------4--|
D|------------------------------------------|

Chorus 3:
(Distortion)

E|------------------------------------------------------------|
B|------------------------------------------------------------|
G|------------------------------------------------------------|
D|-2-4-7-4---2-4-7-4---2-4-7-4---2-7-2------------------------|
A|-2-4-7-4---2-4-7-4---2-4-7-4---2-7-2---9p7-9p7-9p7-9p7-9p7--|
D|-2-4-7-4---2-4-7-4---2-4-7-4---2-7-2------------------------|


E|------------------------------------------------------------|
B|------------------------------------------------------------|
G|------------------------------------------------------------|
D|-2-4-7-4---2-4-7-4---2-4-7-4---2-7-2------------------------|
A|-2-4-7-4---2-4-7-4---2-4-7-4---2-7-2---9p7-9p7-9p7-9p7-9p7--|
D|-2-4-7-4---2-4-7-4---2-4-7-4---2-7-2------------------------|

Outro:

E|--------------------------------|
B|--------------------------------|
G|--------------------------------|
D|-4xx4x4xx4xxxx44x4x2x2xx7x6-4---|
A|-4xx4x4xx4xxxx44x4x2x2xx7x6-4---|
D|-4xx4x4xx4xxxx44x4x2x2xx7x6-4---|

-----------------------------------------------------------------------------
                                  Subject To Change
                                   Tuning: Drop D
-----------------------------------------------------------------------------

Verse 1a:
(Clean)

E|-----1-----1~~~-------1-----1~~~-------1-----|
B|-3-3---3---3~~~---3-3---3---3~~~---3-3---3---|
G|-----------2~~~-------------2~~~-------------|
D|-----------0~~~-------------0~~~-------------|
A|---------------------------------------------|
D|---------------------------------------------|

E|-1~~~---8~~~-8---6~~~-666---1~~~---8~~~-8---6~~~-88888888--|
B|-3~~~---10~~-10--8~~~-888---3~~~---10~~-10--8~~~-88888888--|
G|-2~~~---9~~~-9---7~~~-777---2~~~---9~~~-9---7~~~-99999999--|
D|-0~~~------------------------------------------------------|
A|-----------------------------------------------------------|
D|-----------------------------------------------------------|

Pre-Chorus 1:
(Distorion)

E|-1-x-x-1-x-x-x-x-x-1-----1---x-0------1-x-x-1-x-x-x-x-x-1-----1---x-0--|
B|-3-x-x-2-x-x-x-x-x-3-3-3-3-3-x-3------3-x-x-2-x-x-x-x-x-3-3-3-3-3-x-3--|
G|-2-x-x-3-x-x-x-x-x-2-2-2-2-2-x-2------2-x-x-3-x-x-x-x-x-2-2-2-2-2-x-2--|
D|-0-----0-----------0-0-0-0-0-x--------0-----0-----------0-0-0-0-0-x----|
A|-----------------------------------------------------------------------|
D|-----------------------------------------------------------------------|
pm   . .   . . . . .   . . . . . .        . .   . . . . .   . . . . . .


E|-----------------------------|
B|-----------------------------|
G|-----------------------------|
D|-----------------------------|
A|-----------------------------|
D|-0-12\--0-12\--0-12\--0-12\--|

Verse 1b:
(Clean)

E|-1~~~-------1-----|
B|-3~~~---3-3---3---|
G|-2~~~-------------|
D|-0~~~-------------|
A|------------------|
D|------------------|

E|-1~~~---8~~~-8---6~~~-666---1~~~---8~~~-8---6~~~-88888888--|
B|-3~~~---10~~-10--8~~~-888---3~~~---10~~-10--8~~~-88888888--|
G|-2~~~---9~~~-9---7~~~-777---2~~~---9~~~-9---7~~~-99999999--|
D|-0~~~------------------------------------------------------|
A|-----------------------------------------------------------|
D|-----------------------------------------------------------|

Pre-Chorus 1:
(Distortion)

E|-1-x-x-1-x-x-x-x-x-1-----1---x-0------1-x-x-1-x-x-x-x-x-1-----1---x-0--|
B|-3-x-x-2-x-x-x-x-x-3-3-3-3-3-x-3------3-x-x-2-x-x-x-x-x-3-3-3-3-3-x-3--|
G|-2-x-x-3-x-x-x-x-x-2-2-2-2-2-x-2------2-x-x-3-x-x-x-x-x-2-2-2-2-2-x-2--|
D|-0-----0-----------0-0-0-0-0-x--------0-----0-----------0-0-0-0-0-x----|
A|-----------------------------------------------------------------------|
D|-----------------------------------------------------------------------|
pm   . .   . . . . .   . . . . . .        . .   . . . . .   . . . . . .


E|-----------------------------|
B|-----------------------------|
G|-----------------------------|
D|-----------------------------|
A|-----------------------------|
D|-0-12\--0-12\--0-12\--0-12\--|


E|-----------------------------------------------------------|
B|-----------------------------------------------------------|
G|-----------------------------------------------------------|
D|-0------0------0------0-------0------0------0------0-------|
A|-0------0------0------0-------0------0------0------0-------|
D|-0-12\--0-12\--0-12\--0-12\---0-12\--0-12\--0-12\--0-12\---|

E|-----------------------------------------------------------|
B|-----------------------------------------------------------|
G|-----------------------------------------------------------|
D|-0------0------0------0-------0------0------0------0-----0-|
A|-0------0------0------0-------0------0------0------0-----0-|
D|-0-12\--0-12\--0-12\--0-12\---0-12\--0-12\--0-12\--0-12\-0-|


Chorus 1:
TIP: I know theres other tabs that say the slide is on the
15th fret, and I can understand that. Im not sure if it is
the 12th or 15th fret. But Im hearing the 12th, so try it...
if you think the 15th fret sounds better, then go for it!

E|---------------------------------------------------|
B|---------------------------------------------------|
G|-----------7------------8-----------10----------5--|
D|-0------0-----0------0-----0------0----------------|
A|-0------0--5--0------0--6--0------0-8-----------3--|
D|-0-12\--0-----0-12\--0-----0-12\--0----0-12\--0----|

E|---------------------------------------------------|
B|---------------------------------------------------|
G|-----------7------------8-----------10----------5--|
D|-0------0-----0------0-----0------0----------------|
A|-0------0--5--0------0--6--0------0-8-----------3--|
D|-0-12\--0-----0-12\--0-----0-12\--0----0-12\--0----|

Verse 2:
(Clean)

E|-1~~~--1~~~--1~~~---8~~~-8---6~~~-666---1~~~---8~~~-8---6~~~-88888888--|
B|-3~~~--3~~~--3~~~---10~~-10--8~~~-888---3~~~---10~~-10--8~~~-88888888--|
G|-2~~~--2~~~--2~~~---9~~~-9---7~~~-777---2~~~---9~~~-9---7~~~-99999999--|
D|-0~~~--0~~~--0~~~------------------------------------------------------|
A|-----------------------------------------------------------------------|
D|-----------------------------------------------------------------------|

Pre-Chorus 1:
(Distortion)

E|-1-x-x-1-x-x-x-x-x-1-----1---x-0------1-x-x-1-x-x-x-x-x-1-----1---x-0--|
B|-3-x-x-2-x-x-x-x-x-3-3-3-3-3-x-3------3-x-x-2-x-x-x-x-x-3-3-3-3-3-x-3--|
G|-2-x-x-3-x-x-x-x-x-2-2-2-2-2-x-2------2-x-x-3-x-x-x-x-x-2-2-2-2-2-x-2--|
D|-0-----0-----------0-0-0-0-0-x--------0-----0-----------0-0-0-0-0-x----|
A|-----------------------------------------------------------------------|
D|-----------------------------------------------------------------------|
pm   . .   . . . . .   . . . . . .        . .   . . . . .   . . . . . .


E|-----------------------------------------------------------|
B|-----------------------------------------------------------|
G|-----------------------------------------------------------|
D|-0------0------0------0-------0------0------0------0-------|
A|-0------0------0------0-------0------0------0------0-------|
D|-0-12\--0-12\--0-12\--0-12\---0-12\--0-12\--0-12\--0-12\---|

E|-----------------------------------------------------------|
B|-----------------------------------------------------------|
G|-----------------------------------------------------------|
D|-0------0------0------0-------0------0------0------0-----0-|
A|-0------0------0------0-------0------0------0------0-----0-|
D|-0-12\--0-12\--0-12\--0-12\---0-12\--0-12\--0-12\--0-12\-0-|


Chorus 2:

E|---------------------------------------------------|
B|---------------------------------------------------|
G|-----------7------------8-----------10----------5--|
D|-0------0-----0------0-----0------0----------------|
A|-0------0--5--0------0--6--0------0-8-----------3--|
D|-0-12\--0-----0-12\--0-----0-12\--0----0-12\--0----|

E|---------------------------------------------------|
B|---------------------------------------------------|
G|-----------7------------8-----------10----------5--|
D|-0------0-----0------0-----0------0----------------|
A|-0------0--5--0------0--6--0------0-8-----------3--|
D|-0-12\--0-----0-12\--0-----0-12\--0----0-12\--0----|

Bridge 1:

E|--------------------------------------------------------------|
B|--------------------------------------------------------------|
G|-7--5--7-----------------------------7--5--7------------------|
D|-7--5--7--0--5--5--8888-10-10-10-----7--5--7--0--5--5--88-33--|
A|-5--3--5--0--5--5--8888-10-10-10-----5--3--5--0--5--5--88-33--|
D|----------0--5--5--8888-10-10-10--------------0--5--5--88-33--|

E|--------------------------------------------------------------|
B|--------------------------------------------------------------|
G|-7--5--7-----------------------------7--5--7------------------|
D|-7--5--7--0--5--5--88-8-10-10-10-----7--5--7--0--5--5--88-833-|
A|-5--3--5--0--5--5--88-8-10-10-10-----5--3--5--0--5--5--88-833-|
D|----------0--5--5--88-8-10-10-10--------------0--5--5--88-833-|


E|-----------------------------|
B|-----------------------------|
G|----------8~~~\--------------|
D|-0~~~~~~----------0~~~~~~----|
A|-0~~~~~~--6~~~\---0~~~~~~----|
D|-0~~~~~~----------0~~~~~~----|

Bridge 2:
(Solo)

E|-----------------------------------------------1---1---1---|
B|-1h3p1-3-3---1h3p1-3-3--1h3p1-3----1h3p1-3-3---3-3-3-3-3---|
G|-----------------------------------------------------------|
D|-----------------------------------------------------------|
A|-----------------------------------------------------------|
D|-----------------------------------------------------------|

E|-----------------------------------------------1---1-------|
B|-1h3p1-3-3---1h3p1-3-3--1h3p1-3----1h3p1-3-3---3-3-3-------|
G|-----------------------------------------------------------|
D|-----------------------------------------------------------|
A|-----------------------------------------------------------|
D|-----------------------------------------------------------|

E|---------------------------------------------------------------------|
B|-15~~~-13h15-15-15--13h15p13---13h15-15-15---13h15-15-15---13h15p13--|
G|---------------------------------------------------------------------|
D|---------------------------------------------------------------------|
A|---------------------------------------------------------------------|
D|---------------------------------------------------------------------|

E|--------------------------------------------------------------------------|
B|-13h15-15-15--13h15-15-15--13h15-15---13h15-15-15---13h15-15b-15b-15b~~~--|
G|--------------------------------------------------------------------------|
D|--------------------------------------------------------------------------|
A|--------------------------------------------------------------------------|
D|--------------------------------------------------------------------------|

E|----------------|
B|----------------|
G|----------------|
D|----------------|
A|----------------|
D|-*pick scrape*--|

E|-----------------------------------------|
B|-----------------------------------------|
G|-----------------------------------------|
D|-00000000-333333333-888888888-555555555--|
A|-00000000-333333333-888888888-555555555--|
D|-00000000-333333333-888888888-555555555--|

E|-----------------------------------------|
B|-----------------------------------------|
G|-----------------------------------------|
D|-00000000-333333333-888888888-555--------|
A|-00000000-333333333-888888888-555-/13v---|
D|-00000000-333333333-888888888-555--------|

E|-----------------------------------------|
B|-----------------------------------------|
G|-----------------------------------------|
D|-00000000-333333333-888888888-555555555--|
A|-00000000-333333333-888888888-555555555--|
D|-00000000-333333333-888888888-555555555--|

E|-----------------------------------------|
B|-----------------------------------------|
G|-----------------------------------------|
D|-00000000-333333333-888888888-555--------|
A|-00000000-333333333-888888888-555-/13v---|
D|-00000000-333333333-888888888-555--------|

Chorus 3:

E|---------------------------------------------------|
B|---------------------------------------------------|
G|-----------7------------8-----------10----------5--|
D|-0------0-----0------0-----0------0----------------|
A|-0------0--5--0------0--6--0------0-8-----------3--|
D|-0-12\--0-----0-12\--0-----0-12\--0----0-12\--0----|

E|---------------------------------------------------|
B|---------------------------------------------------|
G|-----------7------------8-----------10----------5--|
D|-0------0-----0------0-----0------0----------------|
A|-0------0--5--0------0--6--0------0-8-----------3--|
D|-0-12\--0-----0-12\--0-----0-12\--0----0-12\--0----|

E|-----|
B|-----|
G|-----|
D|-0---|
A|-0---|
D|-0---|

-----------------------------------------------------------------------------
                                 Necktie Remedy
                                 Tuning: Drop D
-----------------------------------------------------------------------------

Intro 1:
TIP: Those are ones at the beginning. Not elevens!

(Distortion)
E|------------------------------------------------------------------------|
B|------------------------------------------------------------------------|
G|------------------------------------------------------------------------|
D|-6~~~--11-11-11-22-22-22-44-44-44------6~~~--11-11-11-22-22-22-44-44-44-|
A|-6~~~--11-11-11-22-22-22-44-44-44------6~~~--11-11-11-22-22-22-44-44-44-|
D|-6~~~--11-11-11-22-22-22-44-44-44------6~~~--11-11-11-22-22-22-44-44-44-|

Intro 2:
(Clean)

E|--------------------------------------------- |
B|--------------------------------------------- |
G|-------------------------------------|------- |
D|-6~~~-----1~~~-----2~~~-----4~~~-----|     -- |
A|-6~~~-----1~~~-----2~~~-----4~~~-----|     -- |
D|-6~~~-----1~~~-----2~~~-----4~~~-----|     -- |
(Clean)                             *Plays together.
E|-------------------------------------|     --- |
B|------------------------------7------|     --- |
G|---8-9-8----8-9-8----8-9-8------9-8--|     --- | X2
D|-------------------------------------|-------- |
A|---------------------------------------------- |
D|---------------------------------------------- |

Verse 1:
(Clean)

E|--------------------------7~-----------|
B|-9~--7~--------------9~----------------|
G|---------9~--8-9~-------------9~-8-9~--|
D|---------------------------------------| X2
A|---------------------------------------|
D|---------------------------------------|

TIP: This is played during the lyrics: "Necktie remedy, necktie remedy.
TIP: These are ones, not elevens.
E|--------------------|
B|--------------------|
G|--------------------|
D|-1--111-----1--111--|
A|-1--111-----1--111--|
D|-1--111-----1--111--|

Pre-Chorus 1:

E|----------------------------------------------------------|
B|----------------------------------------------------------|
G|----------------------------------------------------------|
D|-6~~~--1~~~--2~~~--4~~~-6~~~-----6~~~--1~~~--2~~~--4~~~---|
A|-6~~~--1~~~--2~~~--4~~~-6~~~-----6~~~--1~~~--2~~~--4~~~---|
D|-6~~~--1~~~--2~~~--4~~~-6~~~-----6~~~--1~~~--2~~~--4~~~---|

Chorus 1:
(Distortion)

E|--------------------------------------------------------------------------|
B|--------------------------------------------------------------------------|
G|--------------------------------------------------------------------------|
D|-6-66-666-1-11-111-2-22-222-4-44-444--6-66-666-1-11-111-2-22-222-4-44444--|
A|-6-66-666-1-11-111-2-22-222-4-44-444--6-66-666-1-11-111-2-22-222-4-44444--|
D|-6-66-666-1-11-111-2-22-222-4-44-444--6-66-666-1-11-111-2-22-222-4-44444--|

E|--------------------------------------------------|
B|--------------------------------------------------|
G|--------13---------13\11---------13---------9/11--|
D|-6-6-6--13--1-1-1--13\11--2-2-2--13--4-4-4--9/11--|
A|-6-6-6--11--1-1-1--11\9---2-2-2--11--4-4-4--7/9---|
D|-6-6-6------1-1-1---------2-2-2------4-4-4--------|

E|-------------------------------------------|
B|-------------------------------------------|
G|--------13---------13\11---------13--------|
D|-6-6-6--13--1-1-1--13\11--2-2-2--13--4~~~--|
A|-6-6-6--11--1-1-1--11\9---2-2-2--11--4~~~--|
D|-6-6-6------1-1-1---------2-2-2------4~~~--|

Verse 2:
(Clean)

E|--------------------------7~-----------|
B|-9~--7~--------------9~----------------|
G|---------9~--8-9~-------------9~-8-9~--|
D|---------------------------------------| X2
A|---------------------------------------|
D|---------------------------------------|

E|--------------------|
B|--------------------|
G|--------------------|
D|-1--111-----1--111--|
A|-1--111-----1--111--|
D|-1--111-----1--111--|

Pre-Chorus 2:

E|----------------------------------------------------------|
B|----------------------------------------------------------|
G|----------------------------------------------------------|
D|-6~~~--1~~~--2~~~--4~~~-6~~~-----6~~~--1~~~--2~~~--4~~~---|
A|-6~~~--1~~~--2~~~--4~~~-6~~~-----6~~~--1~~~--2~~~--4~~~---|
D|-6~~~--1~~~--2~~~--4~~~-6~~~-----6~~~--1~~~--2~~~--4~~~---|

Chorus 2:
(Distortion)

E|--------------------------------------------------------------------------|
B|--------------------------------------------------------------------------|
G|--------------------------------------------------------------------------|
D|-6-66-666-1-11-111-2-22-222-4-44-444--6-66-666-1-11-111-2-22-222-4-44444--|
A|-6-66-666-1-11-111-2-22-222-4-44-444--6-66-666-1-11-111-2-22-222-4-44444--|
D|-6-66-666-1-11-111-2-22-222-4-44-444--6-66-666-1-11-111-2-22-222-4-44444--|

E|--------------------------------------------------|
B|--------------------------------------------------|
G|--------13---------13\11---------13---------9/11--|
D|-6-6-6--13--1-1-1--13\11--2-2-2--13--4-4-4--9/11--|
A|-6-6-6--11--1-1-1--11\9---2-2-2--11--4-4-4--7/9---|
D|-6-6-6------1-1-1---------2-2-2------4-4-4--------|

E|-----------------------------------------------|
B|-----------------------------------------------|
G|--------13---------13\11---------13------------|
D|-6-6-6--13--1-1-1--13\11--2-2-2--13--44-44-44--|
A|-6-6-6--11--1-1-1--11\9---2-2-2--11--44-44-44--|
D|-6-6-6------1-1-1---------2-2-2------44-44-44--|

Bridge 1:

E|--------------------------------------------------------------------------|
B|--------------------------------------------------------------------------|
G|--------------------------------------------------------------------------|
D|-6~~~--11-11-11-22-22-22-44-44-44-----6~~~--11-11-11-22-22-22-44444444444-|
A|-6~~~--11-11-11-22-22-22-44-44-44-----6~~~--11-11-11-22-22-22-44444444444-|
D|-6~~~--11-11-11-22-22-22-44-44-44-----6~~~--11-11-11-22-22-22-44444444444-|

Bridge 2:

E|---------------------------------------------------|
B|---------------------------------------------------|
G|---------------------------------------------------|
D|-6-9-6-4-6----6-9-6-4-6----6-9-6-4-6----6-9-6-4-6--|
A|-6-9-6-4-6----6-9-6-4-6----6-9-6-4-6----6-9-6-4-6--| X2
D|-6-9-6-4-6----6-9-6-4-6----6-9-6-4-6----6-9-6-4-6--|

E|---------------------------------------------------------- |
B|---------------------------------------------------------- |
G|---------------------------------------------------|------ |
D|-6-9-6-4-6----6-9-6-4-6----6-9-6-4-6----6-9-6-4-6--|    -- |
A|-6-9-6-4-6----6-9-6-4-6----6-9-6-4-6----6-9-6-4-6--|    -- |
D|-6-9-6-4-6----6-9-6-4-6----6-9-6-4-6----6-9-6-4-6--|    -- |
                                               *Plays together
E|----------------------------------------------|         -- |
B|-9--Tremola effect---------7--Tremola effect--|         -- |
G|----------------------------------------------|         -- |
D|----------------------------------------------|----------- |
A|---------------------------------------------------------- |
D|---------------------------------------------------------- |

E|---------------------------------------------------------- |
B|---------------------------------------------------------- |
G|---------------------------------------------------|------ |
D|-6-9-6-4-6----6-9-6-4-6----6-9-6-4-6----6-9-6-4-6--|    -- |
A|-6-9-6-4-6----6-9-6-4-6----6-9-6-4-6----6-9-6-4-6--|    -- |
D|-6-9-6-4-6----6-9-6-4-6----6-9-6-4-6----6-9-6-4-6--|    -- |
                                               *Plays together
E|----------------------------------------------|         -- |
B|-12-Tremola effect---------5--Tremola effect--|         -- |
G|----------------------------------------------|         -- |
D|----------------------------------------------|----------- |
A|---------------------------------------------------------- |
D|---------------------------------------------------------- |

(Clean)
E|--------------------------------------------- |
B|--------------------------------------------- |
G|-------------------------------------|------- |
D|-6~~~-----1~~~-----2~~~-----4~~~-----|     -- |
A|-6~~~-----1~~~-----2~~~-----4~~~-----|     -- |
D|-6~~~-----1~~~-----2~~~-----4~~~-----|     -- |
(Clean)                             *Plays together.
E|-------------------------------------|     --- |
B|------------------------------7------|     --- |
G|---8-9-8----8-9-8----8-9-8------9-8--|     --- | X4
D|-------------------------------------|-------- |
A|---------------------------------------------- |
D|---------------------------------------------- |

Chorus 3:
(Distortion)

E|--------------------------------------------------------------------------|
B|--------------------------------------------------------------------------|
G|--------------------------------------------------------------------------|
D|-6-66-666-1-11-111-2-22-222-4-44-444--6-66-666-1-11-111-2-22-222-4-44444--|
A|-6-66-666-1-11-111-2-22-222-4-44-444--6-66-666-1-11-111-2-22-222-4-44444--|
D|-6-66-666-1-11-111-2-22-222-4-44-444--6-66-666-1-11-111-2-22-222-4-44444--|

TIP: Hit the octaves twice each.
E|------------------------------------------------|
B|------------------------------------------------|
G|--------13---------13---------13--16-15-16-15---|
D|-6-6-6--13--1-1-1--13--2-2-2--13----------------|
A|-6-6-6--11--1-1-1--11--2-2-2--11--14-13-14-13---|
D|-6-6-6------1-1-1------2-2-2--------------------|

E---------------------------------------|
B---------------------------------------|
G-16-15-16-15-16-15-13-11-9--8--6--4----|
D---------------------------------------|
A-14-13-14-13-14-13-11-9--7--6--4--2----|
D---------------------------------------|

E|----------------------------------|
B|----------------------------------|
G|--------13---------13---------13--|
D|-6-6-6--13--1-1-1--13--2-2-2--13--|
A|-6-6-6--11--1-1-1--11--2-2-2--11--|
D|-6-6-6------1-1-1------2-2-2------|

TIP: Hit the octaves twice each.
E--------------------------------------------------------|
B--------------------------------------------------------|
G-16-15-16-15-16-15-16-15-16-15-13-11-9--8--6--4---------|
D--------------------------------------------------6~~~--|
A-14-13-14-13-14-13-14-13-14-13-11-9--7--6--4--2---6~~~--|
D--------------------------------------------------6~~~--|

-----------------------------------------------------------------------------
                             My Will Be A Dead Man
                                Tuning: Drop D
-----------------------------------------------------------------------------

Intro:

E|----------------------------------|
B|----------------------------------|
G|----------------------------------|
D|-33---33-55-00-----33---33-55-00--|
A|-33---33-55-00-----33---33-55-00--|
D|-33---33-55-00-----33---33-55-00--|

Verse 1:

E|--------------------------------------------------|
B|--------------------------------------------------|
G|--------------------------------------------------|
D|-33---33-55-00----33---33-55-00----33---33-55-00--|
A|-33---33-55-00----33---33-55-00----33---33-55-00--|
D|-33---33-55-00----33---33-55-00----33---33-55-00--|

Chorus 1:

E|----------------------------------------------------------------------|
B|----------------------------------------------------------------------|
G|-10~~----10----5~~~--8--10---------7-----------------7----------------|
D|-10~~----10----5~~~--8--10--------------------------------------------|
A|-8~~~----8-----3~~~--6--8----------5-----------------5----------------|
D|-------0----0------------------0-0---0-0-0-6p0---0-0---0-0-6-5-3------|

E|----------------------------------------------------------------------|
B|----------------------------------------------------------------------|
G|-10~~----10----5~~~--8--10---------7-----------------7----------------|
D|-10~~----10----5~~~--8--10--------------------------------------------|
A|-8~~~----8-----3~~~--6--8----------5-----------------5----------------|
D|-------0----0------------------0-0---0-0-0-6p0---0-0---0-0-6-5-3------|

Verse 2:

E|--------------------------------------------------|
B|--------------------------------------------------|
G|--------------------------------------------------|
D|-33---33-55-00----33---33-55-00----33---33-55-00--|
A|-33---33-55-00----33---33-55-00----33---33-55-00--|
D|-33---33-55-00----33---33-55-00----33---33-55-00--|

Chorus 2:

E|----------------------------------------------------------------------|
B|----------------------------------------------------------------------|
G|-10~~----10----5~~~--8--10---------7-----------------7----------------|
D|-10~~----10----5~~~--8--10--------------------------------------------|
A|-8~~~----8-----3~~~--6--8----------5-----------------5----------------|
D|-------0----0------------------0-0---0-0-0-6p0---0-0---0-0-6-5-3------|

E|----------------------------------------------------------------------|
B|----------------------------------------------------------------------|
G|-10~~----10----5~~~--8--10---------7-----------------7----------------|
D|-10~~----10----5~~~--8--10---------------------------------6-5-3------|
A|-8~~~----8-----3~~~--6--8----------5-----------------5-----6-5-3------|
D|-------0----0------------------0-0---0-0-0-6p0---0-0---0-0-6-5-3------|

E|---------------------------------------------|
B|---------------------------------------------|
G|------7------------------7-------------------|
D|-0-0-----0-0-0------0-0-----0-0-6-5-3--------|
A|-0-0--5--0-0-0------0-0--5--0-0-6-5-3--------| X4
D|-0-0-----0-0-0-6p0--0-0-----0-0-6-5-3--------|

Like I said before, I dont have the solo of quiet piece here.
Theres another tab for this song on this website, where someone
has attempted it, so you can try it. Its hard to follow, but
it's worth a try, if you really care to learn it. Personally,
during the quiet part, I just play the top 3 strings open, and
let them fade out. Sounds good. But anyways, during the solo,
this is played:

Right before solo:

E|--------|
B|--------|
G|--------|
D|-6-5-3--|
A|-6-5-3--|
D|-6-5-3--|

Bridge:
(Solo)

E|-----------------------------------------------------|
B|-----------------------------------------------------|
G|-----------------------------------------------------|
D|-6-5-3-0~~~---6-5-3-0~~~---6-5-3-0~~~---6-5-3-0~~~---|
A|-6-5-3-0~~~---6-5-3-0~~~---6-5-3-0~~~---6-5-3-0~~~---|
D|-6-5-3-0~~~---6-5-3-0~~~---6-5-3-0~~~---6-5-3-0~~~---|

E|--------------------------------|
B|--------------------------------|
G|--------------------------------|
D|-6-5-3-0-3-------33---33-55-00--|
A|-6-5-3-0-3-------33---33-55-00--|
D|-6-5-3-0-3-------33---33-55-00--|


Chorus 3:

E|----------------------------------------------------------------------|
B|----------------------------------------------------------------------|
G|-10~~----10----5~~~--8--10---------7-----------------7----------------|
D|-10~~----10----5~~~--8--10--------------------------------------------|
A|-8~~~----8-----3~~~--6--8----------5-----------------5----------------|
D|-------0----0------------------0-0---0-0-0-6p0---0-0---0-0-6-5-3------|

E|----------------------------------------------------------------------|
B|----------------------------------------------------------------------|
G|-10~~----10----5~~~--8--10---------7-----------------7----------------|
D|-10~~----10----5~~~--8--10---------------------------------6-5-3------|
A|-8~~~----8-----3~~~--6--8----------5-----------------5-----6-5-3------|
D|-------0----0------------------0-0---0-0-0-6p0---0-0---0-0-6-5-3------|


E|---------------------------------------------|
B|---------------------------------------------|
G|------7------------------7-------------------|
D|-0-0-----0-0-0------0-0-----0-0-6-5-3--------|
A|-0-0--5--0-0-0------0-0--5--0-0-6-5-3--------| X4
D|-0-0-----0-0-0-6p0--0-0-----0-0-6-5-3--------|

-----------------------------------------------------------------------------
                                 From December
                                   Tuning: C#
-----------------------------------------------------------------------------

Intro:
(Clean)

D#|----------------------------------|
A#|----------------------------------|
F#|------------------------7-(5)-----|
C#|-------7-8-7--------7-8------(5)--| X2
G#|--5-8----------5-8----------------|
C#|----------------------------------|

Verse 1:

D#|-----------------------------------------------------------------------|
A#|-11-10-11-6-----11-10-11-8----------10-11-10----------10-11-10-11-10---|
F#|-------------------------------7-10--------------7-10------------------|
C#|-----------------------------------------------------------------------|
G#|-----------------------------------------------------------------------|
C#|-----------------------------------------------------------------------|

D#|-------------------------------------------------10---8----------------|
A#|-11-10-11-6-----11-10-11-8----------10-11-10-------------8-------------|
F#|-------------------------------7-10------------------------------------|
C#|-----------------------------------------------------------------------|
G#|-----------------------------------------------------------------------|
C#|-----------------------------------------------------------------------|

Pre-Chorus 1:

D#|-----------------------------|
A#|-11-10-11-6-----11-10-11-8---|
F#|-----------------------------|
C#|-----------------------------|
G#|-----------------------------|
C#|-----------------------------|

Chorus 1:
(Distortion)

D#|-----------------------------------------------------------|
A#|-----------------------------------------------------------|
F#|---------------------10-8----------------------------------|
C#|-0~~~---888888888-10-10-8-----0~~~-------------------------|
G#|-0~~~---888888888-10-8--6-----0~~~-------------------------| X2
C#|-0~~~---888888888-10----------0~~~----13-12-10-8-10-7-8-7--|

Verse 2:
(Clean)

D#|-----------------------------------------------------------------------|
A#|-11-10-11-6-----11-10-11-8----------10-11-10----------10-11-10-11-10---|
F#|-------------------------------7-10--------------7-10------------------|
C#|-----------------------------------------------------------------------|
G#|-----------------------------------------------------------------------|
C#|-----------------------------------------------------------------------|

D#|-------------------------------------------------10---8----------------|
A#|-11-10-11-6-----11-10-11-8----------10-11-10-------------8-------------|
F#|-------------------------------7-10------------------------------------|
C#|-----------------------------------------------------------------------|
G#|-----------------------------------------------------------------------|
C#|-----------------------------------------------------------------------|

Pre-Chorus 2:

D#|-----------------------------|
A#|-11-10-11-6-----11-10-11-8---|
F#|-----------------------------|
C#|-----------------------------|
G#|-----------------------------|
C#|-----------------------------|

Chorus 2:
(Distortion)

D#|-----------------------------------------------------------|
A#|-----------------------------------------------------------|
F#|---------------------10-8----------------------------------|
C#|-0~~~---888888888-10-10-8-----0~~~-------------------------|
G#|-0~~~---888888888-10-8--6-----0~~~-------------------------| X2
C#|-0~~~---888888888-10----------0~~~----13-12-10-8-10-7-8-7--|

Bridge:

D#|--------------------------------------------------------10---8--------|
A#|----10-11-10----------10-11-10-11-10---------10-11-10-------------8---|
F#|-10--------------7-10-------------------7-10--------------------------|
C#|----------------------------------------------------------------------|
G#|----------------------------------------------------------------------|
C#|----------------------------------------------------------------------|


Tremola Effect:
D#|-------------------------------------------------------- |
A#|-------------------------------------------------------- |
F#|-7--14--12~~--14-15-17-19~-19~-17~--15-14-15-14--|------ |
C#|-------------------------------------------------|    -- |
G#|-5--12--10~~--12-13-15-17~-17~-15~--13-12-13-12--|    -- |
C#|-------------------------------------------------|    -- |
(Both Distortion)                              *Plays together.
D#|-------------------------------------|                -- |
A#|-------------------------------------|                -- |
F#|-------------------------------------|                -- |
C#|-0~~~---8~~~-----------0~~~----8~~~--|                -- |
G#|-0~~~---8~~~-----------0~~~----8~~~--|------------------ |
C#|-0~~~---8~~~-----------0~~~----8~~~--------------------- |

Bridge 2:

D#|---------------------------------------------|
A#|---------------------------------------------|
F#|---------------------------------------------|
C#|-00-------00--00-5~~-88\-------88--88---7\---|
G#|-00-------00--00-5~~-88\-------88--88---7\---|
C#|-00-------00--00-5~~-88\-------88--88---7\---|

D#|---------------------------------------------|
A#|---------------------------------------------|
F#|---------------------------------------------|
C#|-00-------00--00-5~~-88\-------88--88---7----|
G#|-00-------00--00-5~~-88\-------88--88---7----|
C#|-00-------00--00-5~~-88\-------88--88---7----|


Chorus 2:

D#|------------------------------------------------------------------ |
A#|------------------------------------------------------------------ |
F#|---------------------10-8----------------------------------|------ |
C#|-0~~~---888888888-10-10-8-----0~~~-------------------------|    -- |
G#|-0~~~---888888888-10-8--6-----0~~~-------------------------|    -- |
C#|-0~~~---888888888-10----------0~~~----13-12-10-8-10-7-8-7--|    -- |
                                                *Plays together.    |
Tremola Effect:                                                     |
D#|-------------------------------------------------|       X2     -- |
A#|-------------------------------------------------|              -- |
F#|-7--14--12~~--14-15-17-19~-19~-17~--15-14-15-14--|              -- |
C#|-------------------------------------------------|---------------- |
G#|-5--12--10~~--12-13-15-17~-17~-15~--13-12-13-12------------------- |
C#|------------------------------------------------------------------ |

Outro:

D#|---------------------------------------------------- |
A#|---------------------------------------------------- |
F#|---------------------------------------------|------ |
C#|-00-------00--00-5~~-88\-------88--88---77\--|    -- |
G#|-00-------00--00-5~~-88\-------88--88---77\--|    -- |
C#|-00-------00--00-5~~-88\-------88--88---77\--|    -- |
                                             *Plays together.
(Tremola Effect)                                      |
D#|---------------------------------------------|    -- |
A#|---------------------------------------------|    -- |
F#|-7~~~~~~~~~~~~~~~~~~~~~--14~~~~~~--15~~-14~--|    -- |
C#|---------------------------------------------|------ |
G#|-5~~~~~~~~~~~~~~~~~~~~~--12~~~~~~--13~~-14~--------- |
C#|---------------------------------------------------- |

-----------------------------------------------------------------------------
                    The Hand, The Furnace, The Straight Face
                                  Tuning: Drop D
-----------------------------------------------------------------------------

Intro:
(Piano)

E|----------------------------------------------------|
B|----------------------------------------------------|
G|----------------------------------------------------|
D|-5--8--7--8--8--7--3--5--------5--8--7--8--8--7--3--|
A|----------------------------------------------------|
D|-5-----------------------------5--------------------|

Verse 1:
(Distortion Guitar)

E|-10-10-10-10-10-10-10-10-----10-10-10-10-10-10-10-----|
B|-7--7--7--7--7--7--7---7-----8--8--8--8--8--8--8------|
G|------------------------------------------------------|
D|------------------------------------------------------|
A|------------------------------------------------------|
D|------------------------------------------------------|

E|-----------------------------|
B|-----------------------------|
G|-----------------------------|
D|-555-888-0h5-55-00-33/10-10--|
A|-555-888-0h5-55-00-33/10-10--|
D|-555-888-0h5-55-00-33/10-10--|

E|-10-10-10-10-10-10-10-10-10-10-10-10-10-10-10---------|
B|-7--7--7--7--7--7--7---7/8--8--8--8--8--8--8----------|
G|------------------------------------------------------|
D|------------------------------------------------------|
A|------------------------------------------------------|
D|------------------------------------------------------|

E|----------------------------------|
B|----------------------------------|
G|----------------------------------|
D|------555-888-0h5-55-00-33/10-10--|
A|------555-888-0h5-55-00-33/10-10--|
D|-10\--555-888-0h5-55-00-33/10-10--|


E|-10-10-10-10-10-10-10-10-10-10-10-10-10-10------------|
B|-7--7--7--7--7--7--7---7/8--8--8--8--8--8-------------|
G|------------------------------------------------------|
D|------------------------------------------------------|
A|------------------------------------------------------|
D|------------------------------------------------------|

E|-----------------------------|
B|-----------------------------|
G|-----------------------------|
D|-555-888-0h5-55-00-33/10-10--|
A|-555-888-0h5-55-00-33/10-10--|
D|-555-888-0h5-55-00-33/10-10--|


E|-10-10-10-10-10-10-10-10-10-10-10-10-10-10\-----------|
B|-7--7--7--7--7--7--7---7/8--8--8--8--8--8\------------|
G|------------------------------------------------------|
D|------------------------------------------------------|
A|------------------------------------------------------|
D|------------------------------------------------------|

E|---------------------------------------------------------|
B|-----------------------------------------------88888888--|
G|-----------------------------------------------77777777--|
D|-555-888-0h5-55-00-33/10-10---55-888-0h5-55-00-----------|
A|-555-888-0h5-55-00-33/10-10---55-888-0h5-55-00-----------|
D|-555-888-0h5-55-00-33/10-10---55-888-0h5-55-00-----------|


E|---------------------------------------------------------|
B|-----------------------------------------------88888888--|
G|-----------------------------------------------77777777--|
D|-555-888-0h5-55-00-33/10-10---55-888-0h5-55-00-----------|
A|-555-888-0h5-55-00-33/10-10---55-888-0h5-55-00-----------|
D|-555-888-0h5-55-00-33/10-10---55-888-0h5-55-00-----------|

E|---------------------------------------------------------|
B|-----------------------------------------------88888888--|
G|-----------------------------------------------77777777--|
D|-555-888-0h5-55-00-33/10-10---55-888-0h5-55-00-----------|
A|-555-888-0h5-55-00-33/10-10---55-888-0h5-55-00-----------|
D|-555-888-0h5-55-00-33/10-10---55-888-0h5-55-00-----------|

E|---------------------------------------------------------|
B|---------------------------------------------------------|
G|---------------------------------------------------------|
D|-555-888-0h5-55-00-33/10-10---55-888-0h5-55-00-55555555--|
A|-555-888-0h5-55-00-33/10-10---55-888-0h5-55-00-55555555--|
D|-555-888-0h5-55-00-33/10-10---55-888-0h5-55-00-55555555--|
                                            pm   ........

Chorus 1:

E|------------------------------------------|
B|-8-888888-88888888--13-11-10-11--8888888--|
G|-7-777777-77777777---------------7777777--|
D|--------------------10-8--7--8------------|
A|------------------------------------------|
D|------------------------------------------|

E|------------------------------------------|
B|-8-888888-88888888--13-11-10-11--8888888--|
G|-7-777777-77777777---------------7777777--|
D|--------------------10-8--7--8------------|
A|------------------------------------------|
D|------------------------------------------|

E|------------------------------------------|
B|-8-888888-88888888--13-11-10-11--8888888--|
G|-7-777777-77777777---------------7777777--|
D|--------------------10-8--7--8------------|
A|------------------------------------------|
D|------------------------------------------|

E|------------------------------------------|
B|-8-888888-88888888--13-11-10-11--8888888--|
G|-7-777777-77777777---------------7777777--|
D|--------------------10-8--7--8------------|
A|------------------------------------------|
D|------------------------------------------|

E|-------------------------------------|
B|-8888888-88888888-88888888-88888888--|
G|-7777777-77777777-77777777-77777777--|
D|-------------*Bend*------------------|
A|-------------------------------------|
D|-------------------------------------|

Verse 2:

E|------------------------------------------|
B|------------------------------------------|
G|------------------------------------------|
D|-555-888-555-888-33-55---555-888-55-------|
A|-555-888-555-888-33-55---555-888-55-/13v--|
D|-555-888-555-888-33-55---555-888-55-------|

E|------------------------------------------|
B|------------------------------------------|
G|------------------------------------------|
D|-555-888-555-888-33-55---555-888-55-------|
A|-555-888-555-888-33-55---555-888-55-/13v--|
D|-555-888-555-888-33-55---555-888-55-------|

E|---------------------------------------------------------|
B|-----------------------------------------------88888888--|
G|-----------------------------------------------77777777--|
D|-555-888-0h5-55-00-33/10-10---55-888-0h5-55-00-----------|
A|-555-888-0h5-55-00-33/10-10---55-888-0h5-55-00-----------|
D|-555-888-0h5-55-00-33/10-10---55-888-0h5-55-00-----------|

E|---------------------------------------------------------|
B|---------------------------------------------------------|
G|---------------------------------------------------------|
D|-555-888-0h5-55-00-33/10-10---55-888-0h5-55-00-55555555--|
A|-555-888-0h5-55-00-33/10-10---55-888-0h5-55-00-55555555--|
D|-555-888-0h5-55-00-33/10-10---55-888-0h5-55-00-55555555--|
                                            pm   ........

Chorus 2:

E|------------------------------------------|
B|-8-888888-88888888--13-11-10-11--8888888--|
G|-7-777777-77777777---------------7777777--|
D|--------------------10-8--7--8------------|
A|------------------------------------------|
D|------------------------------------------|

E|------------------------------------------|
B|-8-888888-88888888--13-11-10-11--8888888--|
G|-7-777777-77777777---------------7777777--|
D|--------------------10-8--7--8------------|
A|------------------------------------------|
D|------------------------------------------|

E|------------------------------------------|
B|-8-888888-88888888--13-11-10-11--8888888--|
G|-7-777777-77777777---------------7777777--|
D|--------------------10-8--7--8------------|
A|------------------------------------------|
D|------------------------------------------|

E|--------------------------------------|
B|--------------------------------------|
G|----------------5-5-5-5-5-5-5-5-------|
D|-5-3-3-3-3-3-3-35-5-5-5-5-5-5-5-5~~~--|
A|-5-3-3-3-3-3-3-33-3-3-3-3-3-3-3-5~~~--|
D|-5-3-3-3-3-3-3-3----------------5~~~--|

Bridge:
(Piano)

E|---------------------------------------------------------|
B|---------------------------------------------------------|
G|----------------------------------------------------(7)--|
D|-5--8--7--8--8--7--3--5--------5--8--7--8--8--7--3-------|
A|---------------------------------------------------------|
D|-5-----------------------------5-------------------------|

E|---------------------------------------------------------|
B|---------------------------------------------------------|
G|----------------------------------------------------(7)--|
D|-5--8--7--8--8--7--3--5--------5--8--7--8--8--7--3-------|
A|---------------------------------------------------------|
D|-5-----------------------------5-------------------------|

Verse 3:

E|------------------------------------------|
B|------------------------------------------|
G|------------------------------------------|
D|-555-888-555-888-33-55---555-888-55-------|
A|-555-888-555-888-33-55---555-888-55-/13v--|
D|-555-888-555-888-33-55---555-888-55-------|

E|------------------------------------------|
B|------------------------------------------|
G|------------------------------------------|
D|-555-888-555-888-33-55---555-888-55-------|
A|-555-888-555-888-33-55---555-888-55-/13b--|
D|-555-888-555-888-33-55---555-888-55-------|

E|---------------------------------------------------------|
B|-----------------------------------------------88888888--|
G|-----------------------------------------------77777777--|
D|-555-888-0h5-55-00-33/10-10---55-888-0h5-55-00-----------|
A|-555-888-0h5-55-00-33/10-10---55-888-0h5-55-00-----------|
D|-555-888-0h5-55-00-33/10-10---55-888-0h5-55-00-----------|

E|---------------------------------------------------------|
B|---------------------------------------------------------|
G|---------------------------------------------------------|
D|-555-888-0h5-55-00-33/10-10---55-888--55555555-55555555--|
A|-555-888-0h5-55-00-33/10-10---55-888--55555555-55555555--|
D|-555-888-0h5-55-00-33/10-10---55-888--55555555-55555555--|
                                   pm   ........ ........

Chorus 2:

E|------------------------------------------|
B|-8-888888-88888888--13-11-10-11--8888888--|
G|-7-777777-77777777---------------7777777--|
D|--------------------10-8--7--8------------|
A|------------------------------------------|
D|------------------------------------------|

E|------------------------------------------|
B|-8-888888-88888888--13-11-10-11--8888888--|
G|-7-777777-77777777---------------7777777--|
D|--------------------10-8--7--8------------|
A|------------------------------------------|
D|------------------------------------------|

E|------------------------------------------|
B|-8-888888-88888888--13-11-10-11--8888888--|
G|-7-777777-77777777---------------7777777--|
D|--------------------10-8--7--8------------|
A|------------------------------------------|
D|------------------------------------------|

Outro:

E|---------------------------------------------------------|
B|-----------------------------------------------88888888--|
G|-----------------------------------------------77777777--|
D|-555-888-0h5-55-00-33/10-10---55-888-0h5-55-00-----------|
A|-555-888-0h5-55-00-33/10-10---55-888-0h5-55-00-----------|
D|-555-888-0h5-55-00-33/10-10---55-888-0h5-55-00-----------|


E|---------------------------------------------------------|
B|---------------------------------------------------------|
G|---------------------------------------------------------|
D|-555-888-0h5-55-00-33/10-10---55-888-0h5-55-00-----------|
A|-555-888-0h5-55-00-33/10-10---55-888-0h5-55-00-----------|
D|-555-888-0h5-55-00-33/10-10---55-888-0h5-55-00-----------|


E|-----------------------------------------|
B|-77777777-77777777-88888888-88888888-8\--|
G|-77777777-77777777-77777777-77777777-7\--|
D|-----------------------------------------|
A|-----------------------------------------|
D|-----------------------------------------|

-----------------------------------------------------------------------------
                                    Cavity King
                                   Tuning: Drop D
-----------------------------------------------------------------------------

Intro:
(Heavy distortion and some sort of wah-wah effect)

TIP: These chords will not sound good just by playing
them on an unplugged electric guitar. Plug in, turn
up your distortion, turn on the CD and youèll be amazed
at how perfect these chords sound with the CD.

They are hard to play, I know, but play the two bottom
strings on the tenth fret by barring you 4th finger across
them...youèll get the hang of it.

E|-0~~~~~~---10~~~~~~--10~~~~~-------------|
B|-10~~~~~---10~~~~~---10~~~~~---10~~~~~---|
G|-9~~~~~~---9~~~~~~---9~~~~~~---9~~~~~~---|
D|-7~~~~~~---7~~~~~~---8~~~~~~---7~~~~~~---|
A|-----------------------------------------|
D|-----------------------------------------|


Verse 1:

E|-0~~~~~~---10~~~~~~--10~~~~~-------------|
B|-10~~~~~---10~~~~~---10~~~~~---10~~~~~---|
G|-9~~~~~~---9~~~~~~---9~~~~~~---9~~~~~~---|
D|-7~~~~~~---7~~~~~~---8~~~~~~---7~~~~~~---| X2
A|-----------------------------------------|
D|-----------------------------------------|

Chorus 1:
(Distortion, verse effect off)

E|--------------------------------------------------------------------------|
B|--------------------------------------------------------------------------|
G|-7777-7777-10-10-10-10-12-12-12-12----------------------------------------|
D|--------------------------------------------------------------------------|
A|-5555-0000-8--8--8--8--10-10-10-10----------------------------------------|
D|------------------------------------8/10--00--10/12--00--8/10--00--7/8-00-|

E|--------------------------------------------------------------------------|
B|--------------------------------------------------------------------------|
G|-7777-7777-10-10-10-10-12-12-12-12----------------------------------------|
D|--------------------------------------------------------------------------|
A|-5555-0000-8--8--8--8--10-10-10-10----------------------------------------|
D|------------------------------------8/10--00--10/12--00--8/10--00--7/8-00-|

E|--------------------------------------------------------------------------|
B|--------------------------------------------------------------------------|
G|-7777-7777-10-10-10-10-12-12-12-12----------------------------------------|
D|--------------------------------------------------------------------------|
A|-5555-0000-8--8--8--8--10-10-10-10----------------------------------------|
D|------------------------------------8/10--00--10/12--00--8/10--00--7/8-00-|

E|--------------------------------------------------------------------------|
B|--------------------------------------------------------------------------|
G|-7777-7777-10-10-10-10-12-12-12-12----------------------------------------|
D|--------------------------------------------------------------------------|
A|-5555-0000-8--8--8--8--10-10-10-10----------------------------------------|
D|------------------------------------8/10--00--10/12--00--8/10--00--7/8-00-|

Verse 2:
(Heavy distortion and wah-wah effect)


E|-0~~~~~~---10~~~~~~--10~~~~~-------------|
B|-10~~~~~---10~~~~~---10~~~~~---10~~~~~---|
G|-9~~~~~~---9~~~~~~---9~~~~~~---9~~~~~~---|
D|-7~~~~~~---7~~~~~~---8~~~~~~---7~~~~~~---| X2
A|-----------------------------------------|
D|-----------------------------------------|

Chorus 2:
(Distortion, verse effect off)

E|--------------------------------------------------------------------------|
B|--------------------------------------------------------------------------|
G|-7777-7777-10-10-10-10-12-12-12-12----------------------------------------|
D|--------------------------------------------------------------------------|
A|-5555-0000-8--8--8--8--10-10-10-10----------------------------------------|
D|------------------------------------8/10--00--10/12--00--8/10--00--7/8-00-|

E|--------------------------------------------------------------------------|
B|--------------------------------------------------------------------------|
G|-7777-7777-10-10-10-10-12-12-12-12----------------------------------------|
D|--------------------------------------------------------------------------|
A|-5555-0000-8--8--8--8--10-10-10-10----------------------------------------|
D|------------------------------------8/10--00--10/12--00--8/10--00--7/8-00-|

E|--------------------------------------------------------------------------|
B|--------------------------------------------------------------------------|
G|-7777-7777-10-10-10-10-12-12-12-12----------------------------------------|
D|--------------------------------------------------------------------------|
A|-5555-0000-8--8--8--8--10-10-10-10----------------------------------------|
D|------------------------------------8/10--00--10/12--00--8/10--00--7/8-00-|

E|--------------------------------------------------------------------------|
B|--------------------------------------------------------------------------|
G|-7777-7777-10-10-10-10-12-12-12-12----------------------------------------|
D|--------------------------------------------------------------------------|
A|-5555-0000-8--8--8--8--10-10-10-10----------------------------------------|
D|------------------------------------8/10--00--10/12--00--8/10--00--7/8-00-|

E|------------------------------------|
B|------------------------------------|
G|------------------------------------|
D|------------------------------------|
A|------------------------------------|
D|-8/10--00--10/12--00--12/13--14/15--|

Bridge 1:

E|-----------------------------------------------|
B|-----------------------------------------------|
G|-----------------------------------------------|
D|-00000000-777777777-88888888-7777-10-10-10-10--|
A|-00000000-777777777-88888888-7777-10-10-10-10--|
D|-00000000-777777777-88888888-7777-10-10-10-10--|

E|-----------------------------------------------|
B|-----------------------------------------------|
G|-----------------------------------------------|
D|-00000000-777777777-88888888-7777-10-10-10-10--|
A|-00000000-777777777-88888888-7777-10-10-10-10--|
D|-00000000-777777777-88888888-7777-10-10-10-10--|

E|-----------------------------------------------------|
B|-----------------------------------------------------|
G|-----------------------------------------------------|
D|-10-10-10-10-10-10-10-10----10-10-10-10-10-10-10-10--|
A|-10-10-10-10-10-10-10-10----10-10-10-10-10-10-10-10--|
D|-10-10-10-10-10-10-10-10----10-10-10-10-10-10-10-10--|

Bridge 2:

E|----------------------------------------------------------------------|
B|----------------------------------------------------------------------|
G|----------12/14-14-14-14-14-14-14------------12/14-14-14-14-14-14-14--|
D|-0--0--0----------------------------7--7--7---------------------------|
A|-0--0--0--10/12-12-12-12-12-12-12---7--7--7--10/12-12-12-12-12-12-12--|
D|-0--0--0----------------------------7--7--7---------------------------|

E|--------------------------------------------------------------------|
B|--------------------------------------------------------------------|
G|----------12/14-14-14-14-14-14-14-----------------------------------|
D|-0--0--0----------------------------5--5--5--10/12-12-12-12-12-8-8--|
A|-0--0--0--10/12-12-12-12-12-12-12---5--5--5--10/12-12-12-12-12-8-8--|
D|-0--0--0----------------------------5--5--5--10/12-12-12-12-12-8-8--|

E|----------------------------------------------------------------------|
B|----------------------------------------------------------------------|
G|----------12/14-14-14-14-14-14-14------------12/14-14-14-14-14-14-14--|
D|-0--0--0----------------------------7--7--7---------------------------|
A|-0--0--0--10/12-12-12-12-12-12-12---7--7--7--10/12-12-12-12-12-12-12--|
D|-0--0--0----------------------------7--7--7---------------------------|

E|--------------------------------------------------------------------|
B|--------------------------------------------------------------------|
G|----------12/14-14-14-14-14-14-14-----------------------------------|
D|-0--0--0----------------------------5--5--5--10/12-12-12-12-12-8-8--|
A|-0--0--0--10/12-12-12-12-12-12-12---5--5--5--10/12-12-12-12-12-8-8--|
D|-0--0--0----------------------------5--5--5--10/12-12-12-12-12-8-8--|

Bridge 3:

E|---------------------------------------------------------------------|
B|---------------------------------------------------------------------|
G|-3-3-3-2-2-2-0-0-2-3-3-3-3-0-0-0----3-3-3-2-2-2-0-0-2-3-3-3-3-0-0-0--|
D|---------------------------------------------------------------------|
A|---------------------------------------------------------------------|
D|---------------------------------------------------------------------|
pm . . . . . . . . . . . . . . . .    . . . . . . . . . . . . . . . .

E|---------------------------------------------------------------------|
B|---------------------------------------------------------------------|
G|-0h2-2-2-2-0-0-0-0h3-3-3-3-0-0-0----0h2-2-2-2-0-0-0-0h3-3-3-3-0-0-0--|
D|---------------------------------------------------------------------|
A|---------------------------------------------------------------------|
D|---------------------------------------------------------------------|

E|-0~~~~~~---|
B|-0~~~~~~---|
G|-0~~~~~~---|
D|-----------|
A|-----------|
D|-----------|

Chorus 3:

E|--------------------------------------------------------------------------|
B|--------------------------------------------------------------------------|
G|-7777-7777-10-10-10-10-12-12-12-12----------------------------------------|
D|--------------------------------------------------------------------------|
A|-5555-0000-8--8--8--8--10-10-10-10----------------------------------------|
D|------------------------------------8/10--00--10/12--00--8/10--00--7/8-00-|

E|--------------------------------------------------------------------------|
B|--------------------------------------------------------------------------|
G|-7777-7777-10-10-10-10-12-12-12-12----------------------------------------|
D|--------------------------------------------------------------------------|
A|-5555-0000-8--8--8--8--10-10-10-10----------------------------------------|
D|------------------------------------8/10--00--10/12--00--8/10--00--7/8-00-|

E|--------------------------------------------------------------------------|
B|--------------------------------------------------------------------------|
G|-7777-7777-10-10-10-10-12-12-12-12----------------------------------------|
D|--------------------------------------------------------------------------|
A|-5555-0000-8--8--8--8--10-10-10-10----------------------------------------|
D|------------------------------------8/10--00--10/12--00--8/10--00--7/8-00-|

E|--------------------------------------------------------------------------|
B|--------------------------------------------------------------------------|
G|-7777-7777-10-10-10-10-12-12-12-12----------------------------------------|
D|--------------------------------------------------------------------------|
A|-5555-0000-8--8--8--8--10-10-10-10----------------------------------------|
D|------------------------------------8/10--00--10/12--00--8/10--00--7/8-00-|

E|------------------------------------|
B|------------------------------------|
G|------------------------------------|
D|------------------------------------|
A|------------------------------------|
D|-8/10--00--10/12--00--12/13--14/15--|

Bridge 1:

E|-----------------------------------------------|
B|-----------------------------------------------|
G|-----------------------------------------------|
D|-00000000-777777777-88888888-7777-10-10-10-10--|
A|-00000000-777777777-88888888-7777-10-10-10-10--|
D|-00000000-777777777-88888888-7777-10-10-10-10--|

E|---------------------------------------------|
B|---------------------------------------------|
G|---------------------------------------------|
D|-00000000-777777777-88888888-7777-0-10-0-12--|
A|-00000000-777777777-88888888-7777-0-10-0-12--|
D|-00000000-777777777-88888888-7777-0-10-0-12--|

Outro:

E|--------------------------------------------------------------------------|
B|--------------------------------------------------------------------------|
G|--------------------------------------------------------------------------|
D|--------------------------------------------------------------------------|
A|--------------------------------------------------------------------------|
D|-8/10--00--10/12--00--8/10--00-----8/10--00--10/12--00--8/10--00--7/8-00--|

E|--------------------------------------------------------------------------|
B|--------------------------------------------------------------------------|
G|--------------------------------------------------------------------------|
D|--------------------------------------------------------------------------|
A|--------------------------------------------------------------------------|
D|-8/10--00--10/12--00--8/10--00-----8/10--00--10/12--00--12/13--14/15\-----|

-----------------------------------------------------------------------------
                                     Wordsmith Legacy
                                      Tuning: Drop D
-----------------------------------------------------------------------------

Verse 1:

E|---------------------------------------|
B|---------------------------------------|
G|---------------------------------------|
D|-22-2222-22-55-33---22-2222-202-55-33--|
A|-22-2222-22-55-33---22-2222-202-55-33--|
D|-22-2222-22-55-33---22-2222-202-55-33--|

E|---------------------------------------|
B|---------------------------------------|
G|---------------------------------------|
D|-22-2222-22-55-33---22-2222-202-55-33--|
A|-22-2222-22-55-33---22-2222-202-55-33--|
D|-22-2222-22-55-33---22-2222-202-55-33--|

E|-----------------------------------------|
B|-----------------------------------------|
G|-----------------------------------------|
D|-2b~~~-----xxxxxxx----2b~~~-----xxxxxxx--|
A|-----------xxxxxxx--------------xxxxxxx--|
D|-----------xxxxxxx--------------xxxxxxx--|

Verse 2:

E|--------------------------------------------- |
B|--------------------------------------|------ |
G|--------------------------------------|    -- |
D|-22-------2222-----22-------55-33-----|    -- |
A|-22-------2222-----22-------55-33-----|    -- |
D|-22-------2222-----22-------55-33-----|    -- |
                                   *Plays together.
E|-00000000-00000000-00000000-00000000--|    -- |
B|-55555555-55555555-44444444-44444444--|    -- |
G|--------------------------------------|    -- |
D|--------------------------------------|    -- |
A|--------------------------------------|------ |
D|--------------------------------------|  ---- |
                                         X2 |
                                            |
E|--------------------------------------|  ---- |
B|--------------------------------------|------ |
G|--------------------------------------|    -- |
D|-22-------2222-----202-------55-33----|    -- |
A|-22-------2222-----202-------55-33----|    -- |
D|-22-------2222-----202-------55-33----|    -- |
                                     *Plays together.
E|-00000000-00000000-00000000-00000000--|    -- |
B|-55557777-88885555-44444444-44444444--|    -- |
G|--------------------------------------|    -- |
D|--------------------------------------|    -- |
A|--------------------------------------|------ |
D|--------------------------------------------- |


Bridge:

E|-----------------------------------------|
B|-----------------------------------------|
G|-----------------------------------------|
D|-----------------------------------------|
A|-----------------------------------------|
D|-14---5---8---10---------14---5---8---3--|


E|-----------------------------------------|
B|-----------------------------------------|
G|-----------------------------------------|
D|-14---5---8---10---------14---5---8---3--|
A|-14---5---8---10---------14---5---8---3--|
D|-14---5---8---10---------14---5---8---3--|

E|-----------------------------------------|
B|-----------------------------------------|
G|-----------------------------------------|
D|-14---5---8---10---------14---5---8---3--|
A|-14---5---8---10---------14---5---8---3--|
D|-14---5---8---10---------14---5---8---3--|

E|-----------------------------------------|
B|-----------------------------------------|
G|-----------------------------------------|
D|-14---5---8---10---------14---5---8---3--|
A|-14---5---8---10---------14---5---8---3--|
D|-14---5---8---10---------14---5---8---3--|

Verse 3:

E|--------------------------------------------- |
B|--------------------------------------|------ |
G|--------------------------------------|    -- |
D|-22-------2222-----22-------55-33-----|    -- |
A|-22-------2222-----22-------55-33-----|    -- |
D|-22-------2222-----22-------55-33-----|    -- |
                                   *Plays together.
E|-00000000-00000000-00000000-00000000--|    -- |
B|-55555555-55555555-44444444-44444444--|    -- |
G|--------------------------------------|    -- |
D|--------------------------------------|    -- |
A|--------------------------------------|------ |
D|--------------------------------------|  ---- |
                                         X2 |
                                            |
E|--------------------------------------|  ---- |
B|--------------------------------------|------ |
G|--------------------------------------|    -- |
D|-22-------2222-----202-------55-33----|    -- |
A|-22-------2222-----202-------55-33----|    -- |
D|-22-------2222-----202-------55-33----|    -- |
                                     *Plays together.
E|-00000000-00000000-00000000-00000000--|    -- |
B|-55557777-88885555-44444444-44444444--|    -- |
G|--------------------------------------|    -- |
D|--------------------------------------|    -- |
A|--------------------------------------|------ |
D|--------------------------------------------- |

Outro:

E|-----------------------------------------|
B|-----------------------------------------|
G|-----------------------------------------|
D|-14---5---8---10---------14---5---8---3--|
A|-14---5---8---10---------14---5---8---3--|
D|-14---5---8---10---------14---5---8---3--|

E|-----------------------------------------|
B|-----------------------------------------|
G|-----------------------------------------|
D|-14---5---8---10---------14---5---8---3--|
A|-14---5---8---10---------14---5---8---3--|
D|-14---5---8---10---------14---5---8---3--|

E|-----------------------------------------|
B|-----------------------------------------|
G|-----------------------------------------|
D|-14---5---8---10---------14---5---8---3--|
A|-14---5---8---10---------14---5---8---3--|
D|-14---5---8---10---------14---5---8---3--|

E|-----------------------------------------|
B|-----------------------------------------|
G|-----------------------------------------|
D|-14---5---8---10---------14---5---8---3--|
A|-14---5---8---10---------14---5---8---3--|
D|-14---5---8---10---------14---5---8---3--|

E|-----------------------------------------|
B|-----------------------------------------|
G|-----------------------------------------|
D|-14---5---8---10---------14---5---8---3--|
A|-14---5---8---10---------14---5---8---3--|
D|-14---5---8---10---------14---5---8---3--|

E|-----------------------------------------|
B|-----------------------------------------|
G|-----------------------------------------|
D|-14---5---8---10---------14---5---8---3--|
A|-14---5---8---10---------14---5---8---3--|
D|-14---5---8---10---------14---5---8---3--|

E|----------------------------------------------------|
B|----------------------------------------------------|
G|----------------------------------------------------|
D|-14---5---8---10---------14---5---8---3~~--2~~~~~~--|
A|-14---5---8---10---------14---5---8---3~~--2~~~~~~--|
D|-14---5---8---10---------14---5---8---3~~--2~~~~~~--|


The fact that I finished this and the Songs To Burn
Your Bridges By album tab within a two day time frame shows something...determination? 
No life? You decide. :)
But either, way there you have it. An album tab for
...And The Rest Will Follow.
Enjoy, and God bless.
comments
print report bad tab
3 comments total.
0 reply
AFTON GUITAR wrote on August 10 2007, 12:32 pm

u did a great job didnt u just tab songs to burn ur bridges by a couple days ago 5 stars p86 rocks *****

0 reply
Morik wrote on April 8 2008, 05:34 pm

Great job guy, this is my fav of thier albums, and this is pretty accurate.

0 reply
Rogue Guitar wrote on November 6 2008, 12:52 am

nice tab man 5, must of taken u ahwile...5 stars!

I want to post or [tab]
guest
You may want to rate the tab now too:
select rating
Please do not post tabs as comments. Select "correction" instead!