Oops, an error
Loading. Please wait.

Songs To Burn Your Bridges By Tab

1,075 views 3 this week
9 commentsread comments
1 2 3 4 5
excellent!
x 6
Autoscroll
+/-
esc
set tempo
stop
Contributor
Difficulty
novice
Hey! There's an official Ultimate Guitar app which is ideal
for learning songs when you're away from computer. Get the app
WARNING: You are trying to view
                                    content from Ultimate-Guitar.com
                                    in an unauthorized application,
                                    which is prohibited.

                                    Please use an official Ultimate
                                    Guitar Tabs application for iPhone,
                                    iPad or Android to access legitimate
                                    chords, guitar, bass, and drum tabs
                                    from Ultimate-Guitar.com database.

                                    Type "ultimate guitar tabs" in Apple
                                    App Store's or Android Market's
                                    search to find the application.
Alright! First album tab for a Project 86 album.

I decided to go with Songs To Burn Your Bridges By because not only have I mastered all
the songs to perfection, but it's also my favourite album.

Now, I'll beputting "TIPS:" throughtout the tab. Watch for these, cause they include
or other important information.

As for different clean and distortion guitars. I will only be listing it when a song
both a clean AND a distortion guitar. And I will only list it under a verse, pre-chorus,
when you switch from one to the other. In other words it will only be listed when you 
to switch from a clean guitar to a distortion guitar, or vice versa, so watch for it.

Also, an easy way to find a certain song within this tab is to hold CTRL and push "F",
type the name of the song. Nice shortcut for this.

So without further ado...

Tracklisting:

1. The Spy Hunter (Drop D)
2. Oblivion (C#)
3. A Shadow on Me (Drop D)
4. Safe Haven (C#)
5. Say Goodnight To The Bad Guy (C#)
6. Breakdown In 3/4 (Drop D)
7. The Great Golden Gate Disaster (C#)
8. Breakneck Speed (Drop D)
9. Sioux Lane Spirits (Drop D)
10. Circuitry (Drop D)
11. 3 Card (C#)
12. A Fruitless End Ever (Drop D)
13. A Text Message To The So-called Emperor (n/a)
14. Solace (Drop D)

_____________________________________________________________________________

.............................................................................
                               1. The Spy Hunter
                                 Tuning: Drop D
.............................................................................

Intro:

E|-------------------------------------------------------|
B|-10-x-10-x-10-x-6-x-5-5-6----10-x-10-x-10-x-6-x-5-5-6--|
G|--7-x--7-x--7-x-7-x-7-7-7-----7-x--7-x--7-x-7-x-7-7-7--|
D|-------------------------------------------------------|
A|-------------------------------------------------------|
D|-------------------------------------------------------|

E|----------------0~~-------0~~--------------------------|
B|----------------0~~-------0~~--------------------------|
G|----------------0~~-------0~~--------------------------|
D|-0~~--666--0~~-------0~~--------3----------------------|
A|-0~~--666--0~~-------0~~--------3----------------------|
D|-0~~--666--0~~-------0~~--------3----------------------|


Verse 1:

E|----------------------------------------------------|
B|----------------------------------------------------|
G|----------------------------------------------------|
D|----------------------------------------------------|--X10
A|----------------------------------------------------|
D|00-6-00-6-00-3-0-2-0-32--00-6-00-6-00-3-0-2-0-3-----|

Pre-Chorus 1:

E|-----------------------------------------------------|
B|-----------------------------------------------------|
G|------------------13-13-13-13-13-13-13-13------------|
D|0-22-33-66-55555-------------------------------------|
A|0-22-33-66-55555--11-11-11-11-11-11-11-11------------|
D|0-22-33-66-55555-------------------------------------|

E|-----------------------------------------------------------------------|
B|-----------------------------------------------------------------------|
G|------------------13-13-13-13-13-13-13-13---13/14-14-14-14-14-14-14-14-|
D|0-22-33-66-55555-------------------------------------------------------|
A|0-22-33-66-55555--11-11-11-11-11-11-11-11---11/12-12-12-12-12-12-12-12-|
D|0-22-33-66-55555-------------------------------------------------------|

Chorus 1:

e|---------------------------------------------------------------|
B|-----10----10----10----666---------10----10----10----666-------|
G|--------77----77----7--777------------77----77----7--777-------|
D|00----------------------------00-------------------------------|
A|00----------------------------00-------------------------------|
D|00----------------------------00-------------------------------|

e|---------------------------------------------------------------|
B|-----10----10----10----666---------10----10----10--------------|
G|--------77----77----7--777------------77----77-----------------|
D|00----------------------------00-------------------------------|
A|00----------------------------00--------------------2/12\------|
D|00----------------------------00--------------------2/12\------|

e|---------------------------------------------------------------|
B|-----10----10----10----666---------10----10----10----666-------|
G|--------77----77----7--777------------77----77----7--777-------|
D|00----------------------------00-------------------------------|
A|00----------------------------00-------------------------------|
D|00----------------------------00-------------------------------|

e|---------------------------------------------------------------|
B|-----10----10----10----666---------10----10----10----666-------|
G|--------77----77----7--777------------77----77----7--777-------|
D|00----------------------------00-------------------------------|
A|00----------------------------00-------------------------------|
D|00----------------------------00-------------------------------|

After-Chorus Music:

E|--------0~~---------------------------------|
B|--------0~~---------------------------------|
G|--------0~~---------------------------------|
D|-0~~----------------------------------------|
A|-0~~----------*Pick scape THIS string!*-----|
D|-0~~----------------------------------------|

Verse 2:

E|----------------------------------------------------|
B|----------------------------------------------------|
G|----------------------------------------------------|
D|----------------------------------------------------|--X8
A|----------------------------------------------------|
D|00-6-00-6-00-3-0-2-0-32--00-6-00-6-00-3-0-2-0-3-----|

Pre-Chorus 2:

E|-----------------------------------------------------|
B|-----------------------------------------------------|
G|------------------13-13-13-13-13-13-13-13------------|
D|0-22-33-66-55555-------------------------------------|
A|0-22-33-66-55555--11-11-11-11-11-11-11-11------------|
D|0-22-33-66-55555-------------------------------------|

E|-----------------------------------------------------------------------|
B|-----------------------------------------------------------------------|
G|------------------13-13-13-13-13-13-13-13---13/14-14-14-14-14-14-14-14-|
D|0-22-33-66-55555-------------------------------------------------------|
A|0-22-33-66-55555--11-11-11-11-11-11-11-11---11/12-12-12-12-12-12-12-12-|
D|0-22-33-66-55555-------------------------------------------------------|

Chorus 2:

e|---------------------------------------------------------------|
B|-----10----10----10----666---------10----10----10----666-------|
G|--------77----77----7--777------------77----77----7--777-------|
D|00----------------------------00-------------------------------|
A|00----------------------------00-------------------------------|
D|00----------------------------00-------------------------------|

e|---------------------------------------------------------------|
B|-----10----10----10----666---------10----10----10--------------|
G|--------77----77----7--777------------77----77-----------------|
D|00----------------------------00-------------------------------|
A|00----------------------------00--------------------2/12\------|
D|00----------------------------00--------------------2/12\------|

e|---------------------------------------------------------------|
B|-----10----10----10----666---------10----10----10----666-------|
G|--------77----77----7--777------------77----77----7--777-------|
D|00----------------------------00-------------------------------|
A|00----------------------------00-------------------------------|
D|00----------------------------00-------------------------------|

e|---------------------------------------------------------------|
B|-----10----10----10----666---------10----10----10----666-------|
G|--------77----77----7--777------------77----77----7--777-------|
D|00----------------------------00-------------------------------|
A|00----------------------------00-------------------------------|
D|00----------------------------00-------------------------------|

Bridge:

E|-----------------------------------------|
B|-----------------------------------------|
G|-----------------------------------------|
D|-0~-------6~-------3~-------6666-8888----|--X3
A|-0~--5h6--6~--5h6--3~--5h6--6666-8888----|
D|-0~-------6~-------3~-------6666-8888----|

E|-----------------------------------------------------|
B|-----------------------------------------------------|
G|--13-13-13-13-13-13-13-13-13-13-13-13-13-13-13-13----|
D|-----------------------------------------------------|
A|--11-11-11-11-11-11-11-11-11-11-11-11-11-11-11-11----|
D|-----------------------------------------------------|


Pre-Chorus 3:

E|-----------------------------------------------------|
B|-----------------------------------------------------|
G|------------------13-13-13-13-13-13-13-13------------|
D|0-22-33-66-55555-------------------------------------|
A|0-22-33-66-55555--11-11-11-11-11-11-11-11------------|
D|0-22-33-66-55555-------------------------------------|

E|-----------------------------------------------------------------------|
B|-----------------------------------------------------------------------|
G|------------------13-13-13-13-13-13-13-13---13/14-14-14-14-14-14-14-14-|
D|0-22-33-66-55555-------------------------------------------------------|
A|0-22-33-66-55555--11-11-11-11-11-11-11-11---11/12-12-12-12-12-12-12-12-|
D|0-22-33-66-55555-------------------------------------------------------|

Chorus 3:

e|---------------------------------------------------------------|
B|-----10----10----10----666---------10----10----10----666-------|
G|--------77----77----7--777------------77----77----7--777-------|
D|00----------------------------00-------------------------------|
A|00----------------------------00-------------------------------|
D|00----------------------------00-------------------------------|

e|---------------------------------------------------------------|
B|-----10----10----10----666---------10----10----10--------------|
G|--------77----77----7--777------------77----77-----------------|
D|00----------------------------00-------------------------------|
A|00----------------------------00--------------------2/12\------|
D|00----------------------------00--------------------2/12\------|

e|---------------------------------------------------------------|
B|-----10----10----10----666---------10----10----10----666-------|
G|--------77----77----7--777------------77----77----7--777-------|
D|00----------------------------00-------------------------------|
A|00----------------------------00-------------------------------|
D|00----------------------------00-------------------------------|

e|---------------------------------------------------------------|
B|-----10----10----10----666---------10----10----10----666-------|
G|--------77----77----7--777------------77----77----7--777-------|
D|00----------------------------00-------------------------------|
A|00----------------------------00-------------------------------|
D|00----------------------------00-------------------------------|

Outro:
e|-----------------------------------------------|
B|-----10----10----10----666---------------------|
G|--------77----77----7--777---------------------|
D|000---------------------------0~~~-------------|
A|000---------------------------0~~~-------------|
D|000---------------------------0~~~-------------|

.............................................................................
                                  2. Oblivion
                                   Tuning: C#
.............................................................................

1. Intro:

Eb|-------------------------------------------------------------|
Bb|-------------------------------------------------------------|
F#|-------------------------------------------------------------|
C#|--0-12-0-12-0-10-0-10-0-10/12--0-12-0-12-0-10-0-10-0-12\10---|
G#|--0-12-0-12-0-10-0-10-0-10/12--0-12-0-12-0-10-0-10-0-10\8----|
C#|--0-12-0-12-0-10-0-10-0-10/12--0-12-0-12-0-10-0-10-0---------|


Verse 1:

Eb|------------------------------------------------------------------|
Bb|------------------------------------------------------------------|
F#|-------------------------12/14-14-14-14-14--12/14-14--12/14-15----|
C#|------------------------------------------------------------------|
G#|-------------------------10/12-12-12-12-12--10/12-12--10/12-13----|
C#|--5-5-5-5-5-0-3-3-8-8---------------------------------------------|

Pre-Chorus 1:

Eb|----------------------------|
Bb|----------------------------|
F#|----------------------------|
C#|--0h12-0h12-0h12-0h12-0h12--|
G#|--0h12-0h12-0h12-0h12-0h12--|
C#|--0h12-0h12-0h12-0h12-0h12--|

Chorus 1:

Eb|---------------------------------------------------|
Bb|---------------------------------------------------|
F#|---------------------------------------------------|
C#|--12-12-12-12-10-10-10-10-10-10-10-10--12-12-12-12-|
G#|--12-12-12-12-10-10-10-10--8--8--8--8--10-10-10-10-|
C#|--12-12-12-12-10-10-10-10--------------------------|

Eb|------------------------------------------------------|
Bb|------------------------------------------------------|
F#|------------------------------------------------------|
C#|--12-12-12-12-10-10-10-10-10-10-10-10-----------------|
G#|--12-12-12-12-10-10-10-10--8--8--8--8-----------------|
C#|--12-12-12-12-10-10-10-10--------------*pick scrape*--|

Eb|-----------------------------------------|
Bb|-----------------------------------------|
F#|--12/14-14-14-14-14--12/14-14--12\14-15--|
C#|-----------------------------------------|
G#|--10/12-12-12-12-12--10/12-12--10\12-13--|
C#|-----------------------------------------|

Eb-------------------------------------------------------|
Bb-------------------------------------------------------|
F#--10-10-10-10--12-12-12-12--10-10-10-10--12-12-12-12---|
C#--x--x--x--x----x--x--x--x---x--x--x--x---x--x--x--x---|
G#--8--8--8--8---10-10-10-10---8--8--8--8--10-10-10-10---|
C#-------------------------------------------------------|

Verse 2:

Eb|-----------------------------------------------------------------|
Bb|-----------------------------------------------------------------|
F#|------------------------12/14-14-14-14-14--12/14-14--12/14-15----|
C#|-----------------------------------------------------------------|
G#|------------------------10/12-12-12-12-12--10/12-12--10/12-13----|
C#|--5-5-5-5-5-0-3-3-8-8--------------------------------------------|

Pre-Chorus 2:

Eb|----------------------------|
Bb|----------------------------|
F#|----------------------------|
C#|--0h12-0h12-0h12-0h12-0h12--|
G#|--0h12-0h12-0h12-0h12-0h12--|
C#|--0h12-0h12-0h12-0h12-0h12--|

Chorus 2:

Eb|-----------------------------------------------------|
Bb|-----------------------------------------------------|
F#|-----------------------------------------------------|
C#|--12-12-12-12-10-10-10-10-10-10-10-10--12-12-12-12---|
G#|--12-12-12-12-10-10-10-10--8--8--8--8--10-10-10-10---|
C#|--12-12-12-12-10-10-10-10----------------------------|

Eb|------------------------------------------------------|
Bb|------------------------------------------------------|
F#|------------------------------------------------------|
C#|--12-12-12-12-10-10-10-10-10-10-10-10-----------------|
G#|--12-12-12-12-10-10-10-10--8--8--8--8-----------------|
C#|--12-12-12-12-10-10-10-10--------------*pick scrape*--|

Eb|-----------------------------------------|
Bb|-----------------------------------------|
F#|--12/14-14-14-14-14--12/14-14--12\14-15--|
C#|-----------------------------------------|--X4
G#|--10/12-12-12-12-12--10/12-12--10\12-13--|
C#|-----------------------------------------|

Bridge:

Eb|-----------------------------------------|
Bb|-----------------------------------------|
F#|--12/14-14-14-14-14--12/14-14--12\14-15--|
C#|-----------------------------------------|--X8
G#|--10/12-12-12-12-12--10/12-12--10\12-13--|
C#|-----------------------------------------|

Eb|---------------------------------------------------------------|
Bb|---------------------------------------------------------------|
F#|--10-10-10-10-10/12-12-12-12--12\10-10-10-10--10/12-12-12-12---|
C#|---------------------------------------------------------------|
G#|--8--8--8--8---8/10-10-10-10--10\8--8--8--8----8/10-10-10-10---|
C#|---------------------------------------------------------------|

Solo:

TIP: Don't be confused by the "(X40)", all that means is how many times to
hit the strings. I figured it's probably easier then writing it out 40 time.
Listen to the song and try to pick up the chord changes. Hopefully I don't
confuse you with how I tabbed this solo.

Eb|------------------------------------------|
Bb|---15--------13--------11-------13--------|
F#|------(X40)-----(X16)-----(X4)-----(X4)---|
C#|---12--------10--------8--------10--------|
G#|------------------------------------------|
C#|------------------------------------------|

Eb|-------------------------------------------------------------------|
Bb|-15~-15-10-15-10-15-10-15-10-15-10-15-10-15-10-15-10-15-10-15-10---|
F#|-------------------------------------------------------------------|
C#|-------------------------------------------------------------------|
G#|-------------------------------------------------------------------|
C#|-------------------------------------------------------------------|

Eb|-------------------------------------------------------------------|
Bb|-15---------13----------13---------13------------------------------|
F#|----(X8)-------(X16)-------(X4)-------(X4)-------------------------|
C#|-12---------10----------11---------11------------------------------|
G#|-------------------------------------------------------------------|
C#|-------------------------------------------------------------------|

Verse 3:

Eb|-----------------------------------------------------------------|
Bb|-----------------------------------------------------------------|
F#|------------------------12/14-14-14-14-14--12/14-14--12/14-15----|
C#|-----------------------------------------------------------------|
G#|------------------------10/12-12-12-12-12--10/12-12--10/12-13----|
C#|--5-5-5-5-5-0-3-3-8-8--------------------------------------------|

Pre-Chorus 3:

Eb|----------------------------|
Bb|----------------------------|
F#|----------------------------|
C#|--0h12-0h12-0h12-0h12-0h12--|
G#|--0h12-0h12-0h12-0h12-0h12--|
C#|--0h12-0h12-0h12-0h12-0h12--|

Chorus 3:

Eb|-----------------------------------------------------|
Bb|-----------------------------------------------------|
F#|-----------------------------------------------------|
C#|--12-12-12-12-10-10-10-10-10-10-10-10--12-12-12-12---|
G#|--12-12-12-12-10-10-10-10--8--8--8--8--10-10-10-10---|
C#|--12-12-12-12-10-10-10-10----------------------------|

Eb|------------------------------------------------------|
Bb|------------------------------------------------------|
F#|------------------------------------------------------|
C#|--12-12-12-12-10-10-10-10-10-10-10-10--8-8-8-8--------|
G#|--12-12-12-12-10-10-10-10--8--8--8--8--8-8-8-8--------|
C#|--12-12-12-12-10-10-10-10--------------8-8-8-8--------|

Eb|-----------------------------------------|
Bb|-----------------------------------------|
F#|--12/14-14-14-14-14--12/14-14--12\14-15--|
C#|-----------------------------------------|--X4
G#|--10/12-12-12-12-12--10/12-12--10\12-13--|
C#|-----------------------------------------|

Outro:

Eb|------------------------------------------------|
Bb|------------------------------------------------|
F#|--12/14-14-14-14-14--12/14-14--12\14-15---------|
C#|-----------------------------------------0~~~---|--X4
G#|--10/12-12-12-12-12--10/12-12--10\12-13--0~~~---|
C#|-----------------------------------------0~~~---|

.............................................................................
                              3. A Shadow On Me
                               Tuning: Drop D
.............................................................................

Intro:
(Clean)

E|---------7---------------------------------7------------------------7~~--|
B|-----7-----7---------------------------7-----7----------------------7~~--|
G|---7---7-----7-----------------------7---7-----7--------------------7~~--|
D|-9-------------9----7-6~--7-6~-----9-------------9----7-6~--7-6~----9~~--|
A|------------------9---------------------------------9--------------------|
D|-------------------------------------------------------------------------|

Verse 1:

E|---------7---------------------------------7-----------------------------|
B|-----7-----7---------------------------7-----7---------------------------|
G|---7---7-----7-----------------------7---7-----7-------------------------|
D|-9-------------9----7-6~--7-6~-----9-------------9----7-6~--7-6~---------|
A|------------------9---------------------------------9--------------------|
D|-------------------------------------------------------------------------|

Pre-Chorus 1:
(Clean)

E|-----------------------------------------------------------------|
B|-----------------------------------------------------------------|
G|-----------------------------------------------------------------|
D|--0-00-000--2-22-222--4-44-444--4-44-444--7-77-777--2-22-222-----|
A|--0-00-000--2-22-222--4-44-444--4-44-444--7-77-777--2-22-222-----|
D|--0-00-000--2-22-222--4-44-444--4-44-444--7-77-777--2-22-222-----|

(Distortion)
E|-----------------------|
B|-----------------------|
G|---4-4-4-44-4444444----|
D|---4-4-4-44-4444444----|
A|---2-2-2-22-2222222----|
D|-----------------------|

Chorus 1:

E|----------------------------------------------------------|
B|----------------------------------------------------------|
G|--------------------------------------------44-444-9999---|
D|--4-4-4-44-4--2-2-2-22-2--0-0-0-00-0--7-7-7-44-444-9999---|
A|--4-4-4-44-4--2-2-2-22-2--0-0-0-00-0--7-7-7-22-222-7777---|
D|--4-4-4-44-4--2-2-2-22-2--0-0-0-00-0--7-7-7---------------|

E|----------------------------------------------------------|
B|----------------------------------------------------------|
G|--------------------------------------------44-444-9999---|
D|--4-4-4-44-4--2-2-2-22-2--0-0-0-00-0--7-7-7-44-444-9999---|
A|--4-4-4-44-4--2-2-2-22-2--0-0-0-00-0--7-7-7-22-222-7777---|
D|--4-4-4-44-4--2-2-2-22-2--0-0-0-00-0--7-7-7---------------|

E|----------------------------------------------------------|
B|----------------------------------------------------------|
G|----------------------------------------------------------|
D|---------------------------------(*lightly pick scrape)---|
A|----------------------------------------------------------|
D|---0~~~~~~~~~---------------------------------------------|

Verse 2:
(Clean)

E|---------7---------------------------------7-----------------------------|
B|-----7-----7---------------------------7-----7---------------------------|
G|---7---7-----7-----------------------7---7-----7-------------------------|
D|-9-------------9----7-6~--7-6~-----9-------------9----7-6~--7-6~---------|
A|------------------9---------------------------------9--------------------|
D|-------------------------------------------------------------------------|

E|---------7---------------------------------7-----------------------------|
B|-----7-----7---------------------------7-----7---------------------------|
G|---7---7-----7-----------------------7---7-----7-------------------------|
D|-9-------------9----7-6~--7-6~-----9-------------9----7-6~--7-6~---------|
A|------------------9---------------------------------9--------------------|
D|-------------------------------------------------------------------------|

Pre-Chorus 2:
(clean)

E|-----------------------------------------------------------------|
B|-----------------------------------------------------------------|
G|-----------------------------------------------------------------|
D|--0-00-000--2-22-222--4-44-444--4-44-444--7-77-777--2-22-222-----|
A|--0-00-000--2-22-222--4-44-444--4-44-444--7-77-777--2-22-222-----|
D|--0-00-000--2-22-222--4-44-444--4-44-444--7-77-777--2-22-222-----|

(Distortion)
E|-----------------------|
B|-----------------------|
G|---4-4-4-44-4444444----|
D|---4-4-4-44-4444444----|
A|---2-2-2-22-2222222----|
D|-----------------------|

Chorus 1:

E|----------------------------------------------------------|
B|----------------------------------------------------------|
G|--------------------------------------------44-444-9999---|
D|--4-4-4-44-4--2-2-2-22-2--0-0-0-00-0--7-7-7-44-444-9999---|
A|--4-4-4-44-4--2-2-2-22-2--0-0-0-00-0--7-7-7-22-222-7777---|
D|--4-4-4-44-4--2-2-2-22-2--0-0-0-00-0--7-7-7---------------|

E|----------------------------------------------------------|
B|----------------------------------------------------------|
G|--------------------------------------------44-444-9999---|
D|--4-4-4-44-4--2-2-2-22-2--0-0-0-00-0--7-7-7-44-444-9999---|
A|--4-4-4-44-4--2-2-2-22-2--0-0-0-00-0--7-7-7-22-222-7777---|
D|--4-4-4-44-4--2-2-2-22-2--0-0-0-00-0--7-7-7---------------|

E|----------------------------------------------------------|
B|----------------------------------------------------------|
G|----------------------------------------------------------|
D|----------------------------------------------------------|
A|---0~~~~~~~~~---------------------------------------------|
D|---0~~~~~~~~~---------------------------------------------|

Pre-Chorus 3:
(clean)

E|-----------------------------------------------------------------|
B|-----------------------------------------------------------------|
G|-----------------------------------------------------------------|
D|--0-00-000--2-22-222--4-44-444--4-44-444--7-77-777--2-22-222-----|
A|--0-00-000--2-22-222--4-44-444--4-44-444--7-77-777--2-22-222-----|
D|--0-00-000--2-22-222--4-44-444--4-44-444--7-77-777--2-22-222-----|

E|--------------------------|
B|--------------------------|
G|---4-44-444--4-44-4444----|
D|---4-44-444--4-44-4444----|
A|---2-22-222--2-22-2222----|
D|--------------------------|

(Distortion)

E|-----------------------------------------------------------------|
B|-----------------------------------------------------------------|
G|-----------------------------------------------------------------|
D|--0-00-000--2-22-222--4-44-444--4-44-444--7-77-777--2-22-222-----|
A|--0-00-000--2-22-222--4-44-444--4-44-444--7-77-777--2-22-222-----|
D|--0-00-000--2-22-222--4-44-444--4-44-444--7-77-777--2-22-222-----|

E|---------------------------------------|
B|---------------------------------------|
G|---4-4-4-44-44444----4-4-4-44-4444444--|
D|---4-4-4-44-44444----4-4-4-44-4444444--|
A|---2-2-2-22-22222----2-2-2-22-2222222--|
D|---------------------------------------|

Chorus 3:

E|----------------------------------------------------------|
B|----------------------------------------------------------|
G|--------------------------------------------44-444-9999---|
D|--4-4-4-44-4--2-2-2-22-2--0-0-0-00-0--7-7-7-44-444-9999---|
A|--4-4-4-44-4--2-2-2-22-2--0-0-0-00-0--7-7-7-22-222-7777---|
D|--4-4-4-44-4--2-2-2-22-2--0-0-0-00-0--7-7-7---------------|

E|----------------------------------------------------------|
B|----------------------------------------------------------|
G|--------------------------------------------44-444-9999---|
D|--4-4-4-44-4--2-2-2-22-2--0-0-0-00-0--7-7-7-44-444-9999---|
A|--4-4-4-44-4--2-2-2-22-2--0-0-0-00-0--7-7-7-22-222-7777---|
D|--4-4-4-44-4--2-2-2-22-2--0-0-0-00-0--7-7-7---------------|

E|----------------------------------------------------------|
B|----------------------------------------------------------|
G|--------------------------------------------44-444-9999---|
D|--4-4-4-------2-2-2-22-2--0-0-0-00-0--7-7-7-44-444-9999---|
A|--4-4-4-------2-2-2-22-2--0-0-0-00-0--7-7-7-22-222-7777---|
D|--4-4-4-------2-2-2-22-2--0-0-0-00-0--7-7-7---------------|

Outro:

E|-----------------------------------------------|
B|-----------------------------------------------|
G|-----------------------------------------------|
D|--2/4\2/4\---2/4\2/4\---2/4\2/4\---2/4\2/4~----|
A|--2/4\2/4\---2/4\2/4\---2/4\2/4\---2/4\2/4~----|
D|--2/4\2/4\---2/4\2/4\---2/4\2/4\---2/4\2/4~----|


.............................................................................
                                  4. Safe Haven
                                    Tuning: C#
.............................................................................

TIP: Don't think the double dashes between the 12's and 10's mean to hold them longer
a single dash -- I just did that because 12 and 10 are double digits numbers, so putting
together with no dashes will look alot less neat.

Intro:
(Clean)

E|---------------------------------------------------------------------|
B|---------------------------------------------------------------------|
G|---------------------------------------------------------------------|
D|-12--12--12--12-12-12--12\8-88888-8\7-77777-7/10-10-10-10-10-10-10---|
A|-12--12--12--12-12-12--12\8-88888-8\7-77777-7/10-10-10-10-10-10-10---|
D|-12--12--12--12-12-12--12\8-88888-8\7-77777-7/10-10-10-10-10-10-10---|----
                                                                       | X2
E|---------------------------------------------------------------------|----
B|---------------------------------------------------------------------|
G|---------------------------------------------------------------------|
D|-12--12--12--12-12-12--12\8-88888-8\7-77777-7\3333333----------------|
A|-12--12--12--12-12-12--12\8-88888-8\7-77777-7\3333333----------------|
D|-12--12--12--12-12-12--12\8-88888-8\7-77777-7\3333333----------------|

Verse 1:

E|---------------------------------------------------------------------|
B|---------------------------------------------------------------------|
G|---------------------------------------------------------------------|
D|-12--12--12--12-12-12--12\8-88888-8\7-77777-7/10-10-10-10-10-10-10---|
A|-12--12--12--12-12-12--12\8-88888-8\7-77777-7/10-10-10-10-10-10-10---|
D|-12--12--12--12-12-12--12\8-88888-8\7-77777-7/10-10-10-10-10-10-10---|----
                                                                       | X2
E|---------------------------------------------------------------------|----
B|---------------------------------------------------------------------|
G|---------------------------------------------------------------------|
D|-12--12--12--12-12-12--12\8-88888-8\7-77777-7\3333333----------------|
A|-12--12--12--12-12-12--12\8-88888-8\7-77777-7\3333333----------------|
D|-12--12--12--12-12-12--12\8-88888-8\7-77777-7\3333333----------------|

Pre-Chorus 1:
(Distortion)

E|-------------------------------------------------------|
B|-------------------------------------------------------|
G|--7---5---7---5--7--5------7---5---7--14-10--12-7------|
D|--7---5---7---5--7--5------7---5---7--14-10--12-7------|
A|--5---3---5---3--5--3------5---3---5--12--8--10-5------|
D|-------------------------------------------------------|

Chorus 1:

E|---------------------------------------------------------------|
B|---------------------------------------------------------------|
G|----------------7-777777------------------10--10-10-10/12-12---|
D|-0----0----0----7-777777----3----3----3---10--10-10-10/12-12---|
A|-0----0----0----5-555555----3----3----3----8---8--8--8/10-10---|
D|-0----0----0----------------3----3----3------------------------|

E|---------------------------------------------------------------|
B|---------------------------------------------------------------|
G|----------------7-777777---------------------------------------|
D|-0----0----0----7-777777----8--88--8-8/10--10-10----10-0~~~----|
A|-0----0----0----5-555555----8--88--8-8/10--10-10----10-0~~~----|
D|-0----0----0----------------8--88--8-8/10--10-10----10-0~~~----|

Verse 2:
(Clean)

E|---------------------------------------------------------------------|
B|---------------------------------------------------------------------|
G|---------------------------------------------------------------------|
D|-12--12--12--12-12-12--12\8-88888-8\7-77777-7/10-10-10-10-10-10-10---|
A|-12--12--12--12-12-12--12\8-88888-8\7-77777-7/10-10-10-10-10-10-10---|
D|-12--12--12--12-12-12--12\8-88888-8\7-77777-7/10-10-10-10-10-10-10---|----
                                                                       | X2
E|---------------------------------------------------------------------|----
B|---------------------------------------------------------------------|
G|---------------------------------------------------------------------|
D|-12--12--12--12-12-12--12\8-88888-8\7-77777-7\3333333----------------|
A|-12--12--12--12-12-12--12\8-88888-8\7-77777-7\3333333----------------|
D|-12--12--12--12-12-12--12\8-88888-8\7-77777-7\3333333----------------|

Pre-Chorus 2:
(Distortion)

E|-------------------------------------------------------|
B|-------------------------------------------------------|
G|--7---5---7---5--7--5------7---5---7--14-10--12-7------|
D|--7---5---7---5--7--5------7---5---7--14-10--12-7------|
A|--5---3---5---3--5--3------5---3---5--12--8--10-5------|
D|-------------------------------------------------------|

Chorus 2:

E|---------------------------------------------------------------|
B|---------------------------------------------------------------|
G|----------------7-777777------------------10--10-10-10/12-12---|
D|-0----0----0----7-777777----3----3----3---10--10-10-10/12-12---|
A|-0----0----0----5-555555----3----3----3----8---8--8--8/10-10---|
D|-0----0----0----------------3----3----3------------------------|

E|---------------------------------------------------------------|
B|---------------------------------------------------------------|
G|----------------7-777777---------------------------------------|
D|-0----0----0----7-777777----8--88--8-8/10--10-10----10-0~~~----|
A|-0----0----0----5-555555----8--88--8-8/10--10-10----10-0~~~----|
D|-0----0----0----------------8--88--8-8/10--10-10----10-0~~~----|

E|---------------------------------------------------------------|
B|---------------------------------------------------------------|
G|----------------7-777777------------------10--10-10-10/12-12---|
D|-0----0----0----7-777777----3----3----3---10--10-10-10/12-12---|
A|-0----0----0----5-555555----3----3----3----8---8--8--8/10-10---|
D|-0----0----0----------------3----3----3------------------------|

E|---------------------------------------------------------------|
B|---------------------------------------------------------------|
G|----------------7-777777---------------------------------------|
D|-0----0----0----7-777777----8--88--8-8/10--10-10----10-0~~~----|
A|-0----0----0----5-555555----8--88--8-8/10--10-10----10-0~~~----|
D|-0----0----0----------------8--88--8-8/10--10-10----10-0~~~----|

Bridge 1:

E|-------------------------------------------------|
B|-666-555-666-555-66-55---666-555-666-555-66-55---|
G|-777-777-777-777-77-77---777-777-777-777-77-77---|
D|-------------------------------------------------|
A|-------------------------------------------------|
D|-------------------------------------------------|

E|-------------------------------------------------|
B|-666-555-666-555-66-55---666-555-6---------------|
G|-777-777-777-777-77-77---777-777-7---------------|
D|-------------------------------------------------|
A|-------------------------------------------------|
D|-------------------------------------------------|

~~~DRUM BREAK~~~

Bridge 2:

E|-------------------------------------------------|
B|-666-555-666-555-66-55---666-555-666-555-66-55---|
G|-777-777-777-777-77-77---777-777-777-777-77-77---|
D|-------------------------------------------------|
A|-------------------------------------------------|
D|-------------------------------------------------|------
                                                  Two guitars play together.
E|-------------------------------------------------|------
B|-------------------------------------------------|
G|-------------------------------------------------|
D|-12~~~~----8~~~~~~-------10~~~~----5~~~~~~-------|
A|-12~~~~----8~~~~~~-------10~~~~----5~~~~~~-------|
D|-12~~~~----8~~~~~~-------10~~~~----5~~~~~~-------|


E|-------------------------------------------------|
B|-666-555-666-555-66-55---666-555-666-555-66-55---|
G|-777-777-777-777-77-77---777-777-777-777-77-77---|
D|-------------------------------------------------|
A|-------------------------------------------------|
D|-------------------------------------------------|------
                                                   Two guitars play together.
E|-------------------------------------------------|------
B|-------------------------------------------------|
G|-------------------------------------------------|
D|-12~~~~----8~~~~~~-------5~~~~-----10~~~~~~------|
A|-12~~~~----8~~~~~~-------5~~~~-----10~~~~~~------|
D|-12~~~~----8~~~~~~-------5~~~~-----10~~~~~~------|

E|-------------------------------------------------|
B|-666-555-666-555-66-55---666-555-666-555-66-55---|
G|-777-777-777-777-77-77---777-777-777-777-77-77---|
D|-------------------------------------------------|
A|-------------------------------------------------|
D|-------------------------------------------------|------
                                                  Two guitars play together.
E|-------------------------------------------------|------
B|-------------------------------------------------|
G|-------------------------------------------------|
D|-12~~~~----8~~~~~~-------10~~~~----5~~~~~~-------|
A|-12~~~~----8~~~~~~-------10~~~~----5~~~~~~-------|
D|-12~~~~----8~~~~~~-------10~~~~----5~~~~~~-------|


E|-------------------------------------------------|
B|-666-555-666-555-66-55---666-555-6---------------|
G|-777-777-777-777-77-77---777-777-7---------------|
D|-------------------------------------------------|
A|-------------------------------------------------|
D|-------------------------------------------------|------
                                                   Two guitars play together.
E|-------------------------------------------------|------
B|-------------------------------------------------|
G|-------------------------------------------------|
D|-12~~~~----8~~~~~~-------5~~~~-----10~~~~~~------|
A|-12~~~~----8~~~~~~-------5~~~~-----10~~~~~~------|
D|-12~~~~----8~~~~~~-------5~~~~-----10~~~~~~------|

Bridge 3:

E|----------------------------------------------------------------------|
B|----------------------------------------------------------------------|
G|----------------------------------------------------------------------|
D|-000--0--000--0--000--0--000--0--000--0--000--0--000--0--000--0--00---|
A|-000--0--000--0--000--0--000--0--000--0--000--0--000--0--000--0--00---|
D|-000--0--000--0--000--0--000--0--000--0--000--0--000--0--000--0--00---|

Bridge 4:

E|----------------------------------------------------|
B|----------------------------------------------------|
G|--7---5---7---5--7--5------7---5---7---5--7--5------|
D|--7---5---7---5--7--5------7---5---7---5--7--5------|
A|--5---3---5---3--5--3------5---3---5---3--5--3------|
D|----------------------------------------------------|

E|----------------------------------------------------|
B|----------------------------------------------------|
G|--7---5---7---5--7--5------7---5---7---5--7--5------|
D|--7---5---7---5--7--5------7---5---7---5--7--5------|
A|--5---3---5---3--5--3------5---3---5---3--5--3------|
D|----------------------------------------------------|

E|----------------------------------------------------|
B|----------------------------------------------------|
G|--7---5---7---5--7--5------7---5---7---5--7--5------|
D|--7---5---7---5--7--5------7---5---7---5--7--5------|
A|--5---3---5---3--5--3------5---3---5---3--5--3------|
D|----------------------------------------------------|

E|----------------------------------------------------|
B|----------------------------------------------------|
G|--7---5---7---5--7--5------7---5---7--14-10--12-7---|
D|--7---5---7---5--7--5------7---5---7--14-10--12-7---|
A|--5---3---5---3--5--3------5---3---5--12--8--10-5---|
D|----------------------------------------------------|

Chorus 3:

E|---------------------------------------------------------------|
B|---------------------------------------------------------------|
G|----------------7-777777------------------10--10-10-10/12-12---|
D|-0----0----0----7-777777----3----3----3---10--10-10-10/12-12---|
A|-0----0----0----5-555555----3----3----3----8---8--8--8/10-10---|
D|-0----0----0----------------3----3----3------------------------|

E|---------------------------------------------------------------|
B|---------------------------------------------------------------|
G|----------------7-777777---------------------------------------|
D|-0----0----0----7-777777----8--88--8-8/10--10-10----10-0~~~----|
A|-0----0----0----5-555555----8--88--8-8/10--10-10----10-0~~~----|
D|-0----0----0----------------8--88--8-8/10--10-10----10-0~~~----|

E|---------------------------------------------------------------|
B|---------------------------------------------------------------|
G|----------------7-777777------------------10--10-10-10/12-12---|
D|-0----0----0----7-777777----3----3----3---10--10-10-10/12-12---|
A|-0----0----0----5-555555----3----3----3----8---8--8--8/10-10---|
D|-0----0----0----------------3----3----3------------------------|

E|---------------------------------------------------------------|
B|---------------------------------------------------------------|
G|----------------7-777777---------------------------------------|
D|-0----0----0----7-777777----8--88--8-8/10--10-10----10---------|
A|-0----0----0----5-555555----8--88--8-8/10--10-10----10---------|
D|-0----0----0----------------8--88--8-8/10--10-10----10---------|


Outro 1:

E|----------------------------------------------------------|
B|-666-555-666-555-66-55---666-555-666-555-66-55------------|
G|-777-777-777-777-77-77---777-777-777-777-77-77---|--------|
D|-------------------------------------------------|     ---|
A|-------------------------------------------------|     ---|
D|-------------------------------------------------|     ---|
                                                  *Plays same time.
E|-------------------------------------------------|     ---|
B|-------------------------------------------------|     ---|
G|-------------------------------------------------|     ---|
D|-12~~~~----8~~~~~~-------10~~~~----5~~~~~~-------|--------|
A|-12~~~~----8~~~~~~-------10~~~~----5~~~~~~----------------|
D|-12~~~~----8~~~~~~-------10~~~~----5~~~~~~----------------|


E|----------------------------------------------------------|
B|-666-555-666-555-66-55---666-555-6------------------------|
G|-777-777-777-777-77-77---777-777-7---------------|--------|
D|-------------------------------------------------|     ---|
A|-------------------------------------------------|     ---|
D|-------------------------------------------------|     ---|
                                                *Plays same time.
E|-------------------------------------------------|     ---|
B|-------------------------------------------------|     ---|
G|-------------------------------------------------|     ---|
D|-12~~~~----8~~~~~~-------5~~~~-----10~~~~~~------|--------|
A|-12~~~~----8~~~~~~-------5~~~~-----10~~~~~~---------------|
D|-12~~~~----8~~~~~~-------5~~~~-----10~~~~~~---------------|

Outro 2:

E|------------------------------------|
B|------------------------------------|
G|------------------------------------|
D|-000--0--000--0--000--0--000--0-----|
A|-000--0--000--0--000--0--000--0-----|
D|-000--0--000--0--000--0--000--0-----|


.............................................
5. Say Good Night To The Bad Guy
Tuning: C#
.............................................

Intro:
(Clean)

D#|-------------------------------------------------------------------------|
A#|-------------------------------------------------------------------------|
F#|-------------------------------------------------------------------------|
C#|--------------------------------------------------------------------12\--|
G#|--------------------------------------------------------------------12\--|
C#|-9-9-8-8-9-9-0--0-0-0-0-0-0-0-0-9-9-8-8-9-9-12-12-12-12-12-12-12-12-12\--|

Verse 1:

D#|-------------------------------------------------------------------------|
A#|-------------------------------------------------------------------------|
F#|-------------------------------------------------------------------------|
C#|---------------------------------------------------------------------12\-|
G#|---------------------------------------------------------------------12\-|
C#|-9-9-8-8-9-9-0-0-0-0-0-0-0-0-0-0-9-9-8-8-9-9-12-12-12-12-12-11-11-11-12\-|

D#|-------------------------------------------------------------------------|
A#|-------------------------------------------------------------------------|
F#|-------------------------------------------------------------------------|
C#|-------------------------------------------------------------------------|
G#|-------------------------------------------------------------------------|
C#|-9-9-8-8-9-9-0-0-0-0-0-0-0-0-0-0-9-9-8-8-9-9-12-12-12-12-12-11-11-11-12--|

Chorus 1:
(Distortion)

D#|-----------------------------------------------------------|
A#|-----------------------------------------------------------|
F#|-----------------------------------------------------------|
C#|-88-77-88-0000000000-88-77-88--12-12-12-12-12-11-11-11-12~-|
G#|-88-77-88-0000000000-88-77-88--12-12-12-12-12-11-11-11-12~-|
C#|-88-77-88-0000000000-88-77-88--12-12-12-12-12-11-11-11-12~-|

D#|-----------------------------------------------------------|
A#|-----------------------------------------------------------|
F#|-----------------------------------------------------------|
C#|-88-77-88-0000000000-88-77-88--12-12-12-12-12-11-11-11-12~-|
G#|-88-77-88-0000000000-88-77-88--12-12-12-12-12-11-11-11-12~-|
C#|-88-77-88-0000000000-88-77-88--12-12-12-12-12-11-11-11-12~-|

D#|----------------------------------------------------|
A#|----------------------------------------------------|
F#|----------------------------------------------------|
C#|-12-12-12-12-12-12-12-12-12-55555555-00000000-3~~~--|
G#|-12-12-12-12-12-12-12-12-12-55555555-00000000-3~~~--|
C#|-12-12-12-12-12-12-12-12-12-55555555-00000000-3~~~--|

Verse 2:
(Clean)

D#|-----------------------------------------------------|
A#|-----------------------------------------------------|
F#|-----------------------------------------------------|
C#|-----------------------------------------------12\---|
G#|-----------------------------------------------12\---|
C#|-(Fades in)------------12-12-12-12-12-11-11-11-12\---|

D#|-------------------------------------------------------------------------|
A#|-------------------------------------------------------------------------|
F#|-------------------------------------------------------------------------|
C#|-------------------------------------------------------------------------|
G#|-------------------------------------------------------------------------|
C#|-9-9-8-8-9-9-0-0-0-0-0-0-0-0-0-0-9-9-8-8-9-9-12-12-12-12-12-11-11-11-12--|

D#|-------------------------------------------------------------------------|
A#|-------------------------------------------------------------------------|
F#|-------------------------------------------------------------------------|
C#|-------------------------------------------------------------------------|
G#|-------------------------------------------------------------------------|
C#|-9-9-8-8-9-9-0-0-0-0-0-0-0-0-0-0-9-9-8-8-9-9-12-12-12-12-12-11-11-11-12--|

Chorus 2:
(Distortion)

D#|-----------------------------------------------------------|
A#|-----------------------------------------------------------|
F#|-----------------------------------------------------------|
C#|-88-77-88-0000000000-88-77-88--12-12-12-12-12-11-11-11-12~-|
G#|-88-77-88-0000000000-88-77-88--12-12-12-12-12-11-11-11-12~-|
C#|-88-77-88-0000000000-88-77-88--12-12-12-12-12-11-11-11-12~-|

D#|-----------------------------------------------------------|
A#|-----------------------------------------------------------|
F#|-----------------------------------------------------------|
C#|-88-77-88-0000000000-88-77-88--12-12-12-12-12-11-11-11-12~-|
G#|-88-77-88-0000000000-88-77-88--12-12-12-12-12-11-11-11-12~-|
C#|-88-77-88-0000000000-88-77-88--12-12-12-12-12-11-11-11-12~-|

D#|-----------------------------------------------------------|
A#|-----------------------------------------------------------|
F#|-----------------------------------------------------------|
C#|-12-12-12-12-12-12-12-12-12-55555555-00000000-33-333-3333--|
G#|-12-12-12-12-12-12-12-12-12-55555555-00000000-33-333-3333--|
C#|-12-12-12-12-12-12-12-12-12-55555555-00000000-33-333-3333--|

D#|----------------------------------------------------|
A#|----------------------------------------------------|
F#|----------------------------------------------------|
C#|-12-12-12-12-12-12-12-12-12-88888888-55555555-3~~~--|
G#|-12-12-12-12-12-12-12-12-12-88888888-55555555-3~~~--|
C#|-12-12-12-12-12-12-12-12-12-88888888-55555555-3~~~--|

Bridge:
(Clean)

D#|-------------------------------------------------------------------------|
A#|-------------------------------------------------------------------------|
F#|-------------------------------------------------------------------------|
C#|-------------------------------------------------------------------------|
G#|-------------------------------------------------------------------------|
C#|-9-9-8-8-9-9-0--0-0-0-0-0-0-0-0-9-9-8-8-9-9-12-12-12-12-12-12-12-12-12---|

D#|-------------------------------------------------------------------------|
A#|-------------------------------------------------------------------------|
F#|-------------------------------------------------------------------------|
C#|-------------------------------------------------------------------------|
G#|-------------------------------------------------------------------------|
C#|-9-9-8-8-9-9-0-0-0-0-0-0-0-0-0-0-9-9-8-8-9-9-12-12-12-12-12-11-11-11-12--|

D#|-------------------------------------------------------------------------|
A#|-------------------------------------------------------------------------|
F#|-------------------------------------------------------------------------|
C#|-------------------------------------------------------------------------|
G#|-------------------------------------------------------------------------|
C#|-9-9-8-8-9-9-0-0-0-0-0-0-0-0-0-0-9-9-8-8-9-9-12-12-12-12-12-11-11-11-12--|

D#|-------------------------------------------------------------------------|
A#|-------------------------------------------------------------------------|
F#|-------------------------------------------------------------------------|
C#|-------------------------------------------------------------------------|
G#|-------------------------------------------------------------------------|
C#|-9-9-8-8-9-9-0-0-0-0-0-0-0-0-0-0-9-9-8-8-9-9-12-12-12-12-12-11-11-11-12--|

Chorus 3:
(Distortion)

D#|-----------------------------------------------------------|
A#|-----------------------------------------------------------|
F#|-----------------------------------------------------------|
C#|-88-77-88-0000000000-88-77-88--12-12-12-12-12-11-11-11-12--|
G#|-88-77-88-0000000000-88-77-88--12-12-12-12-12-11-11-11-12--|
C#|-88-77-88-0000000000-88-77-88--12-12-12-12-12-11-11-11-12--|

D#|-----------------------------------------------------------|
A#|-----------------------------------------------------------|
F#|-----------------------------------------------------------|
C#|-88-77-88-0000000000-88-77-88--12-12-12-12-12-11-11-11-12~-|
G#|-88-77-88-0000000000-88-77-88--12-12-12-12-12-11-11-11-12~-|
C#|-88-77-88-0000000000-88-77-88--12-12-12-12-12-11-11-11-12~-|

D#|-----------------------------------------------------------|
A#|-----------------------------------------------------------|
F#|-----------------------------------------------------------|
C#|-12-12-12-12-12-12-12-12-12-55555555-00000000-33-333-3333--|
G#|-12-12-12-12-12-12-12-12-12-55555555-00000000-33-333-3333--|
C#|-12-12-12-12-12-12-12-12-12-55555555-00000000-33-333-3333--|

D#|-----------------------------------------------------------|
A#|-----------------------------------------------------------|
F#|-----------------------------------------------------------|
C#|-12-12-12-12-12-12-12-12-12-88888888-55555555-3~~~~~~~~~~--|
G#|-12-12-12-12-12-12-12-12-12-88888888-55555555-3~~~~~~~~~~--|
C#|-12-12-12-12-12-12-12-12-12-88888888-55555555-3~~~~~~~~~~--|


.............................................................................
                             6. Breakdown In 3/4
                                Tuning: Drop D
.............................................................................

Intro:
(Clean)

E|------------------------------------|-------------------------------------|
B|------------------------------------|-------------------------------------|
G|------------------------------------|-------------------------------------|
D|-------3--5--3--------------------7-|-------3--5--3---------------------0-|
A|----5-----------0-----5--5-----5----|----5-----------0-----5--5------8----|
D|-0-----------------8--------5-------|-0-----------------8--------10-------|

E|------------------------------------|-------------------------------------|
B|------------------------------------|-------------------------------------|
G|------------------------------------|-------------------------------------|
D|-------3--5--3--------------------7-|-------3--5--3---------------------0-|
A|----5-----------0-----5--5-----5----|----5-----------0-----5--5------8----|
D|-0-----------------8--------5-------|-0-----------------8--------10-------|

Verse 1:

E|------------------------------------|-------------------------------------|
B|------------------------------------|-------------------------------------|
G|------------------------------------|-------------------------------------|
D|-------3--5--3--------------------7-|-------3--5--3---------------------0-|
A|----5-----------0-----5--5-----5----|----5-----------0-----5--5------8----|
D|-0-----------------8--------5-------|-0-----------------8--------10-------|

E|------------------------------------|-------------------------------------|
B|------------------------------------|-------------------------------------|
G|------------------------------------|-------------------------------------|
D|-------3--5--3--------------------7-|-------3--5--3---------------------0-|
A|----5-----------0-----5--5-----5----|----5-----------0-----5--5------8----|
D|-0-----------------8--------5-------|-0-----------------8--------10-------|

Pre-Chorus 1:
(Slight Distortion)

E|-1--1--0~~--0--0-0--3-3-----------------------|
B|-3--3--3/6--6--6-5--5-5-(5)/(10)--10----------|
G|--------------------------------------8--7----|
D|----------------------------------------------|
A|----------------------------------------------|
D|----------------------------------------------|

Chorus 1:
(Distortion)

E|----------------------------------------------------------------|
B|----------------------------------------------------------------|
G|----------------------------------------------------------------|
D|-5-5-5--3-3-3--7-7-7--0-0-0------5-5-5--3-3-3--7-7-7------------|
A|-5-5-5--3-3-3--7-7-7--0-0-0------5-5-5--3-3-3--7-7-7--7h8p7p0---|
D|-5-5-5--3-3-3--7-7-7--0-0-0------5-5-5--3-3-3--7-7-7------------|

E|----------------------------------------------------------------|
B|----------------------------------------------------------------|
G|----------------------------------------------------------------|
D|-5-5-5--3-3-3--7-7-7--0-0-0------5-5-5--3-3-3--7-7-7--7-7-7-----|
A|-5-5-5--3-3-3--7-7-7--0-0-0------5-5-5--3-3-3--7-7-7--7-7-7-----|
D|-5-5-5--3-3-3--7-7-7--0-0-0------5-5-5--3-3-3--7-7-7--7-7-7-----|

E|------------------------------------|
B|------------------------------------|
G|------------------------------------|
D|-8-8-8--8-8-8--10-10-10--10-10-10---|
A|-8-8-8--8-8-8--10-10-10--10-10-10---|
D|-8-8-8--8-8-8--10-10-10--10-10-10---|

After-Chorus Music:
(Clean)

E|------------------------------------|-------------------------------------|
B|------------------------------------|-------------------------------------|
G|------------------------------------|-------------------------------------|
D|-------3--5--3--------------------7-|-------3--5--3---------------------0-|
A|----5-----------0-----5--5-----5----|----5-----------0-----5--5------8----|
D|-0-----------------8--------5-------|-0-----------------8--------10-------|

Verse 2:

E|------------------------------------|-------------------------------------|
B|------------------------------------|-------------------------------------|
G|------------------------------------|-------------------------------------|
D|-------3--5--3--------------------7-|-------3--5--3---------------------0-|
A|----5-----------0-----5--5-----5----|----5-----------0-----5--5------8----|
D|-0-----------------8--------5-------|-0-----------------8--------10-------|

E|------------------------------------|-------------------------------------|
B|------------------------------------|-------------------------------------|
G|------------------------------------|-------------------------------------|
D|-------3--5--3--------------------7-|-------3--5--3---------------------0-|
A|----5-----------0-----5--5-----5----|----5-----------0-----5--5------8----|
D|-0-----------------8--------5-------|-0-----------------8--------10-------|

Pre-Chorus 2:
(Slight Distortion)

E|-1--1--0~~--0--0-0--3-3-----------------------|
B|-3--3--3/6--6--6-5--5-5-(5)/(10)--10----------|
G|--------------------------------------8--7----|
D|----------------------------------------------|
A|----------------------------------------------|
D|----------------------------------------------|

Chorus 2:
(Distortion)

E|----------------------------------------------------------------|
B|----------------------------------------------------------------|
G|----------------------------------------------------------------|
D|-5-5-5--3-3-3--7-7-7--0-0-0------5-5-5--3-3-3--7-7-7------------|
A|-5-5-5--3-3-3--7-7-7--0-0-0------5-5-5--3-3-3--7-7-7--7h8p7p0---|
D|-5-5-5--3-3-3--7-7-7--0-0-0------5-5-5--3-3-3--7-7-7------------|

E|----------------------------------------------------------------|
B|----------------------------------------------------------------|
G|----------------------------------------------------------------|
D|-5-5-5--3-3-3--7-7-7--0-0-0------5-5-5--3-3-3--7-7-7--7-7-7-----|
A|-5-5-5--3-3-3--7-7-7--0-0-0------5-5-5--3-3-3--7-7-7--7-7-7-----|
D|-5-5-5--3-3-3--7-7-7--0-0-0------5-5-5--3-3-3--7-7-7--7-7-7-----|

E|------------------------------------|
B|------------------------------------|
G|------------------------------------|
D|-8-8-8--8-8-8--10-10-10--10-10-10---|
A|-8-8-8--8-8-8--10-10-10--10-10-10---|
D|-8-8-8--8-8-8--10-10-10--10-10-10---|

Bridge 1:

E|-----------------------------------------------------------------------|
B|-----------------------------------------------------------------------|
G|-------10------9---------7-------5-------------------------------------|
D|-0-0-------0-------0-0-------0-------8-8-8-8-8-8---10-10-10-10-10-10---|
A|-0-0---8---0---7---0-0---5---0---3---8-8-8-8-8-8---10-10-10-10-10-10---|
D|-0-0-------0-------0-0-------0-------8-8-8-8-8-8---10-10-10-10-10-10---|

E|-------------------------------------111111-111111--000000-000000------|
B|-------------------------------------222222-222222--222222-222222------|
G|-------10------9---------7-------5---333333-333333--333333-333333------|
D|-0-0-------0-------0-0-------0-----------------------------------------|
A|-0-0---8---0---7---0-0---5---0---3-------------------------------------|
D|-0-0-------0-------0-0-------0-----------------------------------------|

E|--------------------------------------------------------------------------|
B|--------------------------------------------------------------------------|
G|-------10------9---------7-------5----------10-------9-------7-------5----|
D|-0-0-------0-------0-0-------0-----------0-------0-------0-------0--------|
A|-0-0---8---0---7---0-0---5---0---3-------0---8---0---7---0---5---0---3----|
D|-0-0-------0-------0-0-------0-----------0-------0-------0-------0--------|

Bridge 2:
(Clean)

E|-------------------------------------------------------------|
B|-------------------------------------------------------------|
G|--------------------------------------|----------------------|
D|--------------------------------------|                   ---|
A|--------------------------------------|                   ---|
D|-0-00-12--0-00-12--0-00-12--0-00-12---|                   ---|
                                                             | X5
E|------------------------------------------------|         ---|
B|------------------------------------------------|         ---|
G|------------------------------------------------|         ---|
D|------------------------------------------------|------------|
A|-------------------------------------------------------------|
D|-0-00-12--0-00-12--0-00-12---15-13-12-0-12-13----------------|

Bridge 3:
(Distortion)

E------------------------------------------------------------------------|
B----10---10---10---10----11-10-----------8----8----8----8----8~~~-------|
G--7----7----7----7----7--------7------10----10---10---10---10-----------|
D------------------------------------------------------------------------|
A------------------------------------------------------------------------|
D------------------------------------------------------------------------|

E------------------------------------------------------------------------|
B----10---10---10---10----11-10-----------8----8----8----8--------8------|
G--7----7----7----7----7--------7------10----10---10---9---9----9---9----|
D------------------------------------------------------------------------|
A------------------------------------------------------------------------|
D------------------------------------------------------------------------|


..............................(Clean)..................................
E|---------------------------------------------------------------------------|
B|---------------------------------------------------------------------------|
G|---------------------------------------------------------------------------|
D|------------3--5--3---------------3--5--3----------------------------|-----|
A|---------5-----------0---------5-----------0-------------------------|  ---|
D|------0---------------------0----------------------------------------|  ---|
                                                         *Play at same time!
............................(Distortion)................................   |
E|---------------------------------------------------------------------|  ---|
B|---------------------------------------------------------------------|  ---|
G|---------------------------------------------------------------------|-----|
D|-0~~~------------------------------------------88-88-8/10-10-10-10---------|
A|-0~~~------------------------------------------88-88-8/10-10-10-10---------|
D|-0~~~------------------------------------------88-88-8/10-10-10-10---------|


Chorus 3:
(Distortion)

E|----------------------------------------------------------------|
B|----------------------------------------------------------------|
G|----------------------------------------------------------------|
D|-5-5-5--3-3-3--7-7-7--0-0-0------5-5-5--3-3-3--7-7-7------------|
A|-5-5-5--3-3-3--7-7-7--0-0-0------5-5-5--3-3-3--7-7-7--7h8p7p0---|
D|-5-5-5--3-3-3--7-7-7--0-0-0------5-5-5--3-3-3--7-7-7------------|

E|----------------------------------------------------------------|
B|----------------------------------------------------------------|
G|----------------------------------------------------------------|
D|-5-5-5--3-3-3--7-7-7--0-0-0------5-5-5--3-3-3--7-7-7--7-7-7-----|
A|-5-5-5--3-3-3--7-7-7--0-0-0------5-5-5--3-3-3--7-7-7--7-7-7-----|
D|-5-5-5--3-3-3--7-7-7--0-0-0------5-5-5--3-3-3--7-7-7--7-7-7-----|

E|------------------------------------|
B|------------------------------------|
G|------------------------------------|
D|-8-8-8--8-8-8--10-10-10--10-10-10---|
A|-8-8-8--8-8-8--10-10-10--10-10-10---|
D|-8-8-8--8-8-8--10-10-10--10-10-10---|

E|----------------------------------------------------------------|
B|----------------------------------------------------------------|
G|----------------------------------------------------------------|
D|-5-5-5--3-3-3--7-7-7--0-0-0------5-5-5--3-3-3--7-7-7------------|
A|-5-5-5--3-3-3--7-7-7--0-0-0------5-5-5--3-3-3--7-7-7--7h8p7p0---|
D|-5-5-5--3-3-3--7-7-7--0-0-0------5-5-5--3-3-3--7-7-7------------|

E|----------------------------------------------------------------|
B|----------------------------------------------------------------|
G|----------------------------------------------------------------|
D|-5-5-5--3-3-3--7-7-7--0-0-0------5-5-5--3-3-3--7-7-7--7-7-7-----|
A|-5-5-5--3-3-3--7-7-7--0-0-0------5-5-5--3-3-3--7-7-7--7-7-7-----|
D|-5-5-5--3-3-3--7-7-7--0-0-0------5-5-5--3-3-3--7-7-7--7-7-7-----|

E|-----------------------------------------------------------------------|
B|-----------------------------------------------------------------------|
G|-10-10-10-10-10-10-10-10-10-10-10-10---9-9-9-9-9-9--12-12-12-12-12-12--|
D|-----------------------------------------------------------------------|
A|--8--8--8--8--8--8--8--8--8--8--8--8---7-7-7-7-7-7--10-10-10-10-10-10--|
E|-----------------------------------------------------------------------|

Outro:

E|------------------------------------------|
B|------------------------------------------|
G|------------------------------------------|
D|-0-0-----------------00-------------------| X8
A|-0-0-----------------00-------------------|
D|-0-0-12^(full bend)--00-12^(full bend)----|

E|------------|
B|------------|
G|------------|
D|-0-0--0~----| X8
A|-0-0--------|
D|-0-0--------|

E|-------------------------------------------------------------------|
B|-------------------------------------------------------------------|
G|-------------------------------------------------------------------|
D|-0-0--0~--0------0-0--0~--0-----0-0--0~--0-----0-0--0~--0~~~-------|
A|-0-0------0------0-0------0-----0-0------0-----0-0------0~~~-------|
D|-0-0------0------0-0------0-----0-0------0-----0-0------0~~~-------|

E|-23~~~~~~~~~---------------------|
B|---------------------------------|
G|---------------------------------|
D|---------------------------------|
A|---------------------------------|
D|---------------------------------|


.............................................................................
                      7. The Great Golden Gate Disaster
     Tuning: C# (Yes the tuning IS in C#! Ignore what the tab says.
                        I repeat the tuning IS C#!!)
.............................................................................

Verse 1:

E|-----------------------------------------------------------|
B|-----------------------------------------------------------|
G|-----------------------------------------14-14-14-15-------|
D|-0~~-3p0-3p0-00--3p0-3p0-00--3p0-3p0-00--------------------|
A|-0~~-3p0-3p0-00--3p0-3p0-00--3p0-3p0-00--12-12-12-13-------|
D|-0~~-3p0-3p0-00--3p0-3p0-00--3p0-3p0-00--------------------|

E|-----------------------------------------------------------|
B|-----------------------------------------------------------|
G|-------------------------------------14-14-14-15-----------|
D|-3p0-3p0-00--3p0-3p0-00--3p0-3p0-00------------------------|
A|-3p0-3p0-00--3p0-3p0-00--3p0-3p0-00--12-12-12-13-----------|
D|-3p0-3p0-00--3p0-3p0-00--3p0-3p0-00------------------------|

E|-----------------------------------------------------------|
B|-----------------------------------------------------------|
G|-------------------------------------14-14-14-15-----------|
D|-3p0-3p0-00--3p0-3p0-00--3p0-3p0-00------------------------|
A|-3p0-3p0-00--3p0-3p0-00--3p0-3p0-00--12-12-12-13-----------|
D|-3p0-3p0-00--3p0-3p0-00--3p0-3p0-00------------------------|

E|-----------------------------------------------|
B|-----------------------------------------------|
G|-----------------------------------------------|
D|-3p0-3p0-00--3p0-3p0-00--3p0-3p0-00------------|
A|-3p0-3p0-00--3p0-3p0-00--3p0-3p0-00------------|
D|-3p0-3p0-00--3p0-3p0-00--3p0-3p0-00------------|

Pre-Chorus 1:

E|--------------------------------------------------------------|
B|--------------------------------------------------------0~----|
G|--------------------------------------------------------0~----|
D|-10-10-10-12\----10-10-10-12\----xx-xxx-xxx-xxx-xxx-x---------|
A|-10-10-10-12\----10-10-10-12\----xx-xxx-xxx-xxx-xxx-x---------|
D|-10-10-10-12\----10-10-10-12\----xx-xxx-xxx-xxx-xxx-x---------|

E|--------------------------------------------------------------|
B|--------------------------------------------------------------|
G|--------------------------------------------------------------|
D|-10-10-10-12\----10-10-10-12\---------------------------------|
A|-10-10-10-12\----10-10-10-12\---------------------------------|
D|-10-10-10-12\----10-10-10-12\---------------------------------|

Chorus 1:

E|--------------------------------------------------------------------------|
B|--------------------------------------------------------------------------|
G|--------------------------------------------------------------------------|
D|-0-0-00--2-2-22--3-3-33--888-887--0-0-00--2-2-22--3-3-33--888-888-888-575-|
A|-0-0-00--2-2-22--3-3-33--888-887--0-0-00--2-2-22--3-3-33--888-888-888-575-|
D|-0-0-00--2-2-22--3-3-33--888-887--0-0-00--2-2-22--3-3-33--888-888-888-575-|

Verse 2:

E|-----------------------------------------------------------|
B|-----------------------------------------------------------|
G|-----------------------------------------14-14-14-15-------|
D|-0~~-3p0-3p0-00--3p0-3p0-00--3p0-3p0-00--------------------|
A|-0~~-3p0-3p0-00--3p0-3p0-00--3p0-3p0-00--12-12-12-13-------|
D|-0~~-3p0-3p0-00--3p0-3p0-00--3p0-3p0-00--------------------|

E|-----------------------------------------------------------|
B|-----------------------------------------------------------|
G|-------------------------------------14-14-14-15-----------|
D|-3p0-3p0-00--3p0-3p0-00--3p0-3p0-00------------------------|
A|-3p0-3p0-00--3p0-3p0-00--3p0-3p0-00--12-12-12-13-----------|
D|-3p0-3p0-00--3p0-3p0-00--3p0-3p0-00------------------------|

E|-----------------------------------------------------------|
B|-----------------------------------------------------------|
G|-------------------------------------14-14-14-15-----------|
D|-3p0-3p0-00--3p0-3p0-00--3p0-3p0-00------------------------|
A|-3p0-3p0-00--3p0-3p0-00--3p0-3p0-00--12-12-12-13-----------|
D|-3p0-3p0-00--3p0-3p0-00--3p0-3p0-00------------------------|

E|-----------------------------------------------|
B|-----------------------------------------------|
G|-----------------------------------------------|
D|-3p0-3p0-00--3p0-3p0-00--3p0-3p0-00------------|
A|-3p0-3p0-00--3p0-3p0-00--3p0-3p0-00------------|
D|-3p0-3p0-00--3p0-3p0-00--3p0-3p0-00------------|

Pre-Chorus 2:

E|--------------------------------------------------------------|
B|--------------------------------------------------------0~----|
G|--------------------------------------------------------0~----|
D|-10-10-10-12\----10-10-10-12\----xx-xxx-xxx-xxx-xxx-x---------|
A|-10-10-10-12\----10-10-10-12\----xx-xxx-xxx-xxx-xxx-x---------|
D|-10-10-10-12\----10-10-10-12\----xx-xxx-xxx-xxx-xxx-x---------|

E|--------------------------------------------------------------|
B|--------------------------------------------------------------|
G|--------------------------------------------------------------|
D|-10-10-10-12\----10-10-10-12\---------------------------------|
A|-10-10-10-12\----10-10-10-12\---------------------------------|
D|-10-10-10-12\----10-10-10-12\---------------------------------|

Chorus 2:

E|--------------------------------------------------------------------------|
B|--------------------------------------------------------------------------|
G|--------------------------------------------------------------------------|
D|-0-0-00--2-2-22--3-3-33--888-887--0-0-00--2-2-22--3-3-33--888-888-888-575-|
A|-0-0-00--2-2-22--3-3-33--888-887--0-0-00--2-2-22--3-3-33--888-888-888-575-|
D|-0-0-00--2-2-22--3-3-33--888-887--0-0-00--2-2-22--3-3-33--888-888-888-575-|

Verse 3:

E|-----------------------------------------------------------|
B|-----------------------------------------------------------|
G|-----------------------------------------14-14-14-15-------|
D|-0~~-3p0-3p0-00--3p0-3p0-00--3p0-3p0-00--------------------|
A|-0~~-3p0-3p0-00--3p0-3p0-00--3p0-3p0-00--12-12-12-13-------|
D|-0~~-3p0-3p0-00--3p0-3p0-00--3p0-3p0-00--------------------|

E|-----------------------------------------------------------|
B|-----------------------------------------------------------|
G|-------------------------------------14-14-14-15-----------|
D|-3p0-3p0-00--3p0-3p0-00--3p0-3p0-00------------------------|
A|-3p0-3p0-00--3p0-3p0-00--3p0-3p0-00--12-12-12-13-----------|
D|-3p0-3p0-00--3p0-3p0-00--3p0-3p0-00------------------------|

E|-----------------------------------------------------------|
B|-----------------------------------------------------------|
G|-------------------------------------14-14-14-15-----------|
D|-3p0-3p0-00--3p0-3p0-00--3p0-3p0-00------------------------|
A|-3p0-3p0-00--3p0-3p0-00--3p0-3p0-00--12-12-12-13-----------|
D|-3p0-3p0-00--3p0-3p0-00--3p0-3p0-00------------------------|

E|-----------------------------------------------------------|
B|-----------------------------------------------------------|
G|-----------------------------------------------------------|
D|-3p0-3p0-00--3p0-3p0-00--3p0-3p0-00--3p0-3p0-0-------------|
A|-3p0-3p0-00--3p0-3p0-00--3p0-3p0-00--3p0-3p0-0-------------|
D|-3p0-3p0-00--3p0-3p0-00--3p0-3p0-00--3p0-3p0-0-------------|

E|--------------------------------------|
B|--------------------------------------|
G|--------------------------------------|
D|-7--8--5--7--3--5----0~~~---5--3--8---|
A|-7--8--5--7--3--5----0~~~---5--3--8---|
D|-7--8--5--7--3--5----0~~~---5--3--8---|

Bridge 1:

E|------10^----------------10^--------------------|
B|------13^----------------13^--------------------|
G|------------------------------------------------|
D|-0-0--------0-0-3~--0-0--------0-0-0--00-00-----|
A|-0-0--------0-0-3~--0-0--------0-0-0--00-00-----|
D|-0-0--------0-0-3~--0-0--------0-0-0--00-00-----|

E|------10^----------------10^--------------------|
B|------13^----------------13^--------------------|
G|------------------------------------------------|
D|-0-0--------0-0-3~--0-0--------0-0-0--00-00-----|
A|-0-0--------0-0-3~--0-0--------0-0-0--00-00-----|
D|-0-0--------0-0-3~--0-0--------0-0-0--00-00-----|

Bridge 2:

E|---------------------------------------------------------|
B|---------------------------------------------------------|
G|-2-0-2-0-2-0---2-0-2-0-2-0---2-0-2-0-2-0---2-0-2-0-7\----|
D|-2-0-2-0-2-0---2-0-2-0-2-0---2-0-2-0-2-0---2-0-2-0-7\----|
A|---------------------------------------------------------|
D|---------------------------------------------------------|

E|------------------8--------------------8-----|
B|---------------8--------------------8--------|
G|---------7-8------------------7-8------------|
D|---------------------------------------------|
A|---------------------------------------------|
D|-0-3-0----------------0-3-0------------------|

E|------------------8-----------9--------------|
B|---------------8-----------------9-----------|
G|---------7-8-------------------------9-8-----|
D|---------------------------------------------|
A|---------------------------------------------|
D|-0-3-0----------------0-3-0------------------|


E|------------------8--------------------8-----|
B|---------------8--------------------8--------|
G|---------7-8------------------7-8------------|
D|---------------------------------------------|
A|---------------------------------------------|
D|-0-3-0----------------0-3-0------------------|

E|------------------8-----------9--------------|
B|---------------8-----------------9-----------|
G|---------7-8-------------------------9-8-----|
D|---------------------------------------------|
A|---------------------------------------------|
D|-0-3-0----------------0-3-0------------------|


E|---------------------|
B|---------------------|
G|---------------------|
D|-7--8--5--7--3--5----|
A|-7--8--5--7--3--5----|
D|-7--8--5--7--3--5----|

Verse 4:

E|-----------------------------------------------------------|
B|-----------------------------------------------------------|
G|-----------------------------------------------------------|
D|-0~~-3p0-3p0-00--3p0-3p0-00--3p0-3p0-00--3p0-3p0-00--------|
A|-0~~-3p0-3p0-00--3p0-3p0-00--3p0-3p0-00--3p0-3p0-00--------|
D|-0~~-3p0-3p0-00--3p0-3p0-00--3p0-3p0-00--3p0-3p0-00--------|

E|-----------------------------------------------------------|
B|-----------------------------------------------------------|
G|-----------------------------------------------------------|
D|-3p0-3p0-00--3p0-3p0-00--3p0-3p0-00--3p0-3p0-00------------|
A|-3p0-3p0-00--3p0-3p0-00--3p0-3p0-00--3p0-3p0-00------------|
D|-3p0-3p0-00--3p0-3p0-00--3p0-3p0-00--3p0-3p0-00------------|

E|-----------------------------------------------------------|
B|-----------------------------------------------------------|
G|-------------------------------------14-14-14-15-----------|
D|-3p0-3p0-00--3p0-3p0-00--3p0-3p0-00------------------------|
A|-3p0-3p0-00--3p0-3p0-00--3p0-3p0-00--12-12-12-13-----------|
D|-3p0-3p0-00--3p0-3p0-00--3p0-3p0-00------------------------|

E|-----------------------------------------------------------|
B|-----------------------------------------------------------|
G|-------------------------------------14-14-14-15-----------|
D|-3p0-3p0-00--3p0-3p0-00--3p0-3p0-00------------------------|
A|-3p0-3p0-00--3p0-3p0-00--3p0-3p0-00--12-12-12-13-----------|
D|-3p0-3p0-00--3p0-3p0-00--3p0-3p0-00------------------------|

E|-----------------------------------------------------------|
B|-----------------------------------------------------------|
G|-------------------------------------14-14-14-15-----------|
D|-3p0-3p0-00--3p0-3p0-00--3p0-3p0-00------------------------|
A|-3p0-3p0-00--3p0-3p0-00--3p0-3p0-00--12-12-12-13-----------|
D|-3p0-3p0-00--3p0-3p0-00--3p0-3p0-00------------------------|

E|-----------------------------------------------------------|
B|-----------------------------------------------------------|
G|-------------------------------------14-14-14-15-----------|
D|-3p0-3p0-00--3p0-3p0-00--3p0-3p0-00------------------------|
A|-3p0-3p0-00--3p0-3p0-00--3p0-3p0-00--12-12-12-13-----------|
D|-3p0-3p0-00--3p0-3p0-00--3p0-3p0-00------------------------|

E|-----------------------------------------------------------|
B|-----------------------------------------------------------|
G|-------------------------------------14-14-14-15-----------|
D|-3p0-3p0-00--3p0-3p0-00--3p0-3p0-00------------------------|
A|-3p0-3p0-00--3p0-3p0-00--3p0-3p0-00--12-12-12-13-----------|
D|-3p0-3p0-00--3p0-3p0-00--3p0-3p0-00------------------------|

E|-----------------------------------------------------------|
B|-----------------------------------------------------------|
G|-----------------------------------------------------------|
D|-3p0-3p0-00--3p0-3p0-00--3p0-3p0-00--3p0-3p0-0-------------|
A|-3p0-3p0-00--3p0-3p0-00--3p0-3p0-00--3p0-3p0-0-------------|
D|-3p0-3p0-00--3p0-3p0-00--3p0-3p0-00--3p0-3p0-0-------------|

E|--------------------------------------|
B|--------------------------------------|
G|--------------------------------------|
D|-7--8--5--7--3--5----0------0-00------|
A|-7--8--5--7--3--5----0------0-00------|
D|-7--8--5--7--3--5----0------0-00------|


.............................................................................
                              8. Breakneck Speed
                                Tuning: Drop D
.............................................................................

Intro:
(Clean)

E|--------------------------------------------------------------|
B|--------------------------------------------------------| G|--|
D|---------3---0------3-------------------3---0----3------------|
A|-5---3----------3-----3--------5---3----------3-----3---------|
D|--------------------------------------------------------------|

Verse 1 - Bass only.

Pre-Chorus 1:

E|--------------------------------------------------------|
B|--------------------------------------------------------|
G|--------------------------------------------------------|
D|---------3---0-----3-------------------3---0-----3------|
A|-5---3----------3-----3--------5---3----------3-----3---|
D|--------------------------------------------------------|


Chorus 1:
(Distortion)

E|-----------------------------------------------------|
B|-----------------------------------------------------|
G|-----------------------------------------------------|
D|-12-10-12-0---3-0---3--3--3---5-5-5-5-5-5-5-5--------|
A|-12-10-12-0---3-0---3--3--3---5-5-5-5-5-5-5-5--------|
D|-12-10-12-0---3-0---3--3--3---5-5-5-5-5-5-5-5--------|

E|-----------------------------------------------------|
B|-----------------------------------------------------|
G|-----------------------------------------------------|
D|-12-10-12-0---3-0---8--8--8---10-10-10-10-10-10-10---|
A|-12-10-12-0---3-0---8--8--8---10-10-10-10-10-10-10---|
D|-12-10-12-0---3-0---8--8--8---10-10-10-10-10-10-10---|

E|-----------------------------------------------------|
B|-----------------------------------------------------|
G|-----------------------------------------------------|
D|-12-10-12-0---3-0---3--3--3---5-5-5-5-5-5-5-5--------|
A|-12-10-12-0---3-0---3--3--3---5-5-5-5-5-5-5-5--------|
D|-12-10-12-0---3-0---3--3--3---5-5-5-5-5-5-5-5--------|

E|-----------------------------------------------------|
B|-----------------------------------------------------|
G|-----------------------------------------------------|
D|-12-10-12-0---3-0---8--3--5--10----------------------|
A|-12-10-12-0---3-0---8--3--5--10----------------------|
D|-12-10-12-0---3-0---8--3--5--10----------------------|

Verse 2 - Bass only.

Pre-Chorus 2:
(Clean)

E|--------------------------------------------------------|
B|--------------------------------------------------------|
G|--------------------------------------------------------|
D|---------3---0-----3-------------------3---0-----3------|
A|-5---3----------3-----3--------5---3----------3-----3---|
D|--------------------------------------------------------|

Chorus 2:
(Distortion)

E|-----------------------------------------------------|
B|-----------------------------------------------------|
G|-----------------------------------------------------|
D|-12-10-12-0---3-0---3--3--3---5-5-5-5-5-5-5-5--------|
A|-12-10-12-0---3-0---3--3--3---5-5-5-5-5-5-5-5--------|
D|-12-10-12-0---3-0---3--3--3---5-5-5-5-5-5-5-5--------|

E|-----------------------------------------------------|
B|-----------------------------------------------------|
G|-----------------------------------------------------|
D|-12-10-12-0---3-0---8--8--8---10-10-10-10-10-10-10---|
A|-12-10-12-0---3-0---8--8--8---10-10-10-10-10-10-10---|
D|-12-10-12-0---3-0---8--8--8---10-10-10-10-10-10-10---|

E|-----------------------------------------------------|
B|-----------------------------------------------------|
G|-----------------------------------------------------|
D|-12-10-12-0---3-0---3--3--3---5-5-5-5-5-5-5-5--------|
A|-12-10-12-0---3-0---3--3--3---5-5-5-5-5-5-5-5--------|
D|-12-10-12-0---3-0---3--3--3---5-5-5-5-5-5-5-5--------|

E|-----------------------------------------------------|
B|-----------------------------------------------------|
G|-----------------------------------------------------|
D|-12-10-12-0---3-0---8--3--5--10----------------------|
A|-12-10-12-0---3-0---8--3--5--10----------------------|
D|-12-10-12-0---3-0---8--3--5--10----------------------|

Bridge 1:

E|----------------------------------------------------------|
B|----------------------------------------------------------|
G|----------------------------------------------------------|
D|-12---10---7---3---7---3--------12---10---7---3---7---3---|
A|-12---10---7---3---7---3--------12---10---7---3---7---3---|
D|-12---10---7---3---7---3--------12---10---7---3---7---3---|

E|----------------------------------------------------------|
B|----------------------------------------------------------|
G|----------------------------------------------------------|
D|-12---10---7---3---7---3--------12---10---7---3---7---3---|
A|-12---10---7---3---7---3--------12---10---7---3---7---3---|
D|-12---10---7---3---7---3--------12---10---7---3---7---3---|

Bridge 2:

E|----------------------------------------|
B|----------------------------------------|
G|----------------------------------------|
D|------------------0h3----0h3------0h3---| X5
A|----------------------------------------|
D|-0-0-3-0--0-0---0------0------0-0-------|

Chorus 3:
(During the solo that's very hard to tab out)

E|-----------------------------------------------------|
B|-----------------------------------------------------|
G|-----------------------------------------------------|
D|-12-10-12-0---3-0---3--3--3---5-5-5-5-5-5-5-5--------|
A|-12-10-12-0---3-0---3--3--3---5-5-5-5-5-5-5-5--------|
D|-12-10-12-0---3-0---3--3--3---5-5-5-5-5-5-5-5--------|

E|-----------------------------------------------------|
B|-----------------------------------------------------|
G|-----------------------------------------------------|
D|-12-10-12-0---3-0---8--8--8---10-10-10-10-10-10-10---|
A|-12-10-12-0---3-0---8--8--8---10-10-10-10-10-10-10---|
D|-12-10-12-0---3-0---8--8--8---10-10-10-10-10-10-10---|

E|-----------------------------------------------------|
B|-----------------------------------------------------|
G|-----------------------------------------------------|
D|-12-10-12-0---3-0---3--3--3---5-5-5-5-5-5-5-5--------|
A|-12-10-12-0---3-0---3--3--3---5-5-5-5-5-5-5-5--------|
D|-12-10-12-0---3-0---3--3--3---5-5-5-5-5-5-5-5--------|

E|-----------------------------------------------------|
B|-----------------------------------------------------|
G|-----------------------------------------------------|
D|-12-10-12-0---3-0---8--3--5--10----------------------|
A|-12-10-12-0---3-0---8--3--5--10----------------------|
D|-12-10-12-0---3-0---8--3--5--10----------------------|

E|-----------------------------------------------------|
B|-----------------------------------------------------|
G|-----------------------------------------------------|
D|-12-10-12-0---3-0---3--3--3---5-5-5-5-5-5-5-5--------|
A|-12-10-12-0---3-0---3--3--3---5-5-5-5-5-5-5-5--------|
D|-12-10-12-0---3-0---3--3--3---5-5-5-5-5-5-5-5--------|

E|-----------------------------------------------------|
B|-----------------------------------------------------|
G|-----------------------------------------------------|
D|-12-10-12-0---3-0---8--8--8---10-10-10-10-10-10-10---|
A|-12-10-12-0---3-0---8--8--8---10-10-10-10-10-10-10---|
D|-12-10-12-0---3-0---8--8--8---10-10-10-10-10-10-10---|

E|-----------------------------------------------------|
B|-----------------------------------------------------|
G|-----------------------------------------------------|
D|-12-10-12-0---3-0---3--3--3---5-5-5-5-5-5-5-5--------|
A|-12-10-12-0---3-0---3--3--3---5-5-5-5-5-5-5-5--------|
D|-12-10-12-0---3-0---3--3--3---5-5-5-5-5-5-5-5--------|

E|-----------------------------------------------------|
B|-----------------------------------------------------|
G|-----------------------------------------------------|
D|-12-10-12-0---3-0---8--3--5--10----------------------|
A|-12-10-12-0---3-0---8--3--5--10----------------------|
D|-12-10-12-0---3-0---8--3--5--10----------------------|

Outro:

E|----------------------------------------|
B|----------------------------------------|
G|----------------------------------------|
D|------------------0h3----0h3------0h3---| X4
A|----------------------------------------|
D|-0-0-3-0--0-0---0------0------0-0-------|

E|---------------------------------|
B|---------------------------------|
G|---------------------------------|
D|-3\------------------------------|
A|---------------------------------|
D|---------------------------------|


.............................................................................
                             9. Sioux Lane Spirits
                                 Tuning: Drop D
.............................................................................

Intro:

E|------------------------------------------------------------------|
B|------------------------------------------------------------------|
G|------------------------------------------------------------------|
D|-0-8-7-0-10-12-0---8-7-0-10-12-0-5---0-8-7-0-10-12-0---2-3-5-3----|
A|-0-8-7-0-10-12-0---8-7-0-10-12-0-5---0-8-7-0-10-12-0---2-3-5-3----|
D|-0-8-7-0-10-12-0---8-7-0-10-12-0-5---0-8-7-0-10-12-0---2-3-5-3----|

E|------------------------------------------------------------------|
B|------------------------------------------------------------------|
G|------------------------------------------------------------------|
D|-0-8-7-0-10-12-0---8-7-0-10-12-0-5---0-8-7-0-10-12-0---2-3-5-3----|
A|-0-8-7-0-10-12-0---8-7-0-10-12-0-5---0-8-7-0-10-12-0---2-3-5-3----|
D|-0-8-7-0-10-12-0---8-7-0-10-12-0-5---0-8-7-0-10-12-0---2-3-5-3----|

E|----------------------|
B|----------------------|
G|----------------------|
D|-888888888-77777-7----|
A|-888888888-77777-7----|
D|-888888888-77777-7----|

Verse 1:

E|----------------------------------------------------|
B|----------------------------------------------------|
G|----------------------------------------------------|
D|----------------------------------------------------|
A|----------------------------------------------------|
D|-0-0-0-2-2-2-5-5-5-3-3-0-3-0-3-0-88888888-77777777--|
p.m.................................................


E|----------------------------------------------------|
B|----------------------------------------------------|
G|----------------------------------------------------|
D|-----------------------------------8~~--------------|
A|-----------------------------------8~~--------------|
D|-0-0-0-2-2-2-5-5-5-3-3-0-3-0-3-0-888~~----77777777--|
p.m..................................       ........


E|----------------------------------------------------|
B|----------------------------------------------------|
G|----------------------------------------------------|
D|----------------------------------------------------|
A|----------------------------------------------------|
D|-0-0-0-2-2-2-5-5-5-3-3-0-3-0-3-0-88888888-77777777--|
p.m.................................................


E|----------------------------------------------------|
B|----------------------------------------------------|
G|----------------------------------------------------|
D|-----------------------------------8~~------7~------|
A|-----------------------------------8~~------7~------|
D|-0-0-0-2-2-2-5-5-5-3-3-0-3-0-3-0-888~~----777~------|
p.m..................................       ..

Chorus 1:

E|------------------------------------------------------------------|
B|------------------------------------------------------------------|
G|------------------------------------------------------------------|
D|-0-8-7-0-10-12-0---8-7-0-10-12-0-5---0-8-7-0-10-12-0---5-7-8-7----|
A|-0-8-7-0-10-12-0---8-7-0-10-12-0-5---0-8-7-0-10-12-0---5-7-8-7----|
D|-0-8-7-0-10-12-0---8-7-0-10-12-0-5---0-8-7-0-10-12-0---5-7-8-7----|

E|------------------------------------------------------------------|
B|------------------------------------------------------------------|
G|------------------------------------------------------------------|
D|-0-8-7-0-10-12-0---8-7-0-10-12-0-5---0-8-7-0-10-12-0---2-3-5-3----|
A|-0-8-7-0-10-12-0---8-7-0-10-12-0-5---0-8-7-0-10-12-0---2-3-5-3----|
D|-0-8-7-0-10-12-0---8-7-0-10-12-0-5---0-8-7-0-10-12-0---2-3-5-3----|

E|------------------------------------------------------------------|
B|------------------------------------------------------------------|
G|------------------------------------------------------------------|
D|-0-8-7-0-10-12-0---8-7-0-10-12-0-5---0-8-7-0-10-12-0---5-7-8-7----|
A|-0-8-7-0-10-12-0---8-7-0-10-12-0-5---0-8-7-0-10-12-0---5-7-8-7----|
D|-0-8-7-0-10-12-0---8-7-0-10-12-0-5---0-8-7-0-10-12-0---5-7-8-7----|

E|------------------------------------------------------------------|
B|------------------------------------------------------------------|
G|------------------------------------------------------------------|
D|-0-8-7-0-10-12-0---8-7-0-10-12-0-5---0-8-7-0-10-12-0---2-3-5-3----|
A|-0-8-7-0-10-12-0---8-7-0-10-12-0-5---0-8-7-0-10-12-0---2-3-5-3----|
D|-0-8-7-0-10-12-0---8-7-0-10-12-0-5---0-8-7-0-10-12-0---2-3-5-3----|

E|---------------------|
B|---------------------|
G|---------------------|
D|-88888888-77777-7----|
A|-88888888-77777-7----|
D|-88888888-77777-7----|

Verse 2:

E|----------------------------------------------------|
B|----------------------------------------------------|
G|----------------------------------------------------|
D|----------------------------------------------------|
A|----------------------------------------------------|
D|-0-0-0-2-2-2-5-5-5-3-3-0-3-0-3-0-88888888-77777777--|
p.m.................................................


E|----------------------------------------------------|
B|----------------------------------------------------|
G|----------------------------------------------------|
D|-----------------------------------8~~--------------|
A|-----------------------------------8~~--------------|
D|-0-0-0-2-2-2-5-5-5-3-3-0-3-0-3-0-888~~----77777777--|
p.m..................................       ........


E|----------------------------------------------------|
B|----------------------------------------------------|
G|----------------------------------------------------|
D|----------------------------------------------------|
A|----------------------------------------------------|
D|-0-0-0-2-2-2-5-5-5-3-3-0-3-0-3-0-88888888-77777777--|
p.m.................................................


E|----------------------------------------------------|
B|----------------------------------------------------|
G|----------------------------------------------------|
D|-----------------------------------8~~------7~------|
A|-----------------------------------8~~------7~------|
D|-0-0-0-2-2-2-5-5-5-3-3-0-3-0-3-0-888~~----777~------|
p.m..................................       ..

Chorus 2:

E|------------------------------------------------------------------|
B|------------------------------------------------------------------|
G|------------------------------------------------------------------|
D|-0-8-7-0-10-12-0---8-7-0-10-12-0-5---0-8-7-0-10-12-0---5-7-8-7----|
A|-0-8-7-0-10-12-0---8-7-0-10-12-0-5---0-8-7-0-10-12-0---5-7-8-7----|
D|-0-8-7-0-10-12-0---8-7-0-10-12-0-5---0-8-7-0-10-12-0---5-7-8-7----|

E|------------------------------------------------------------------|
B|------------------------------------------------------------------|
G|------------------------------------------------------------------|
D|-0-8-7-0-10-12-0---8-7-0-10-12-0-5---0-8-7-0-10-12-0---2-3-5-3----|
A|-0-8-7-0-10-12-0---8-7-0-10-12-0-5---0-8-7-0-10-12-0---2-3-5-3----|
D|-0-8-7-0-10-12-0---8-7-0-10-12-0-5---0-8-7-0-10-12-0---2-3-5-3----|

E|------------------------------------------------------------------|
B|------------------------------------------------------------------|
G|------------------------------------------------------------------|
D|-0-8-7-0-10-12-0---8-7-0-10-12-0-5---0-8-7-0-10-12-0---5-7-8-7----|
A|-0-8-7-0-10-12-0---8-7-0-10-12-0-5---0-8-7-0-10-12-0---5-7-8-7----|
D|-0-8-7-0-10-12-0---8-7-0-10-12-0-5---0-8-7-0-10-12-0---5-7-8-7----|

E|------------------------------------------------------------------|
B|------------------------------------------------------------------|
G|------------------------------------------------------------------|
D|-0-8-7-0-10-12-0---8-7-0-10-12-0-5---0-8-7-0-10-12-0---2-3-5-3----|
A|-0-8-7-0-10-12-0---8-7-0-10-12-0-5---0-8-7-0-10-12-0---2-3-5-3----|
D|-0-8-7-0-10-12-0---8-7-0-10-12-0-5---0-8-7-0-10-12-0---2-3-5-3----|

E|-------|
B|-------|
G|-------|
D|-0~----|
A|-0~----|
D|-0~----|

Bridge 1:


E|---------------------------------------|
B|---------------------------------------|
G|-9-9-9-9-x-x-9-9-9-9-x-x-9-9-9-9-------|
D|-8-8-8-8-x-x-8-8-8-8-x-x-8-8-8-8-------|
A|-8-8-8-8-x-x-8-8-8-8-x-x-8-8-8-8-------|
D|-8-8-8-8-x-x-8-8-8-8-x-x-8-8-8-8-------|

E|---------------------------------------|
B|---------------------------------------|
G|-9-9-9-9-x-x-9-9-9-9-x-x-9-9-9-9--9~~--|
D|-7-7-7-7-x-x-7-7-7-7-x-x-7-7-7-7--0~~--|
A|-7-7-7-7-x-x-7-7-7-7-x-x-7-7-7-7--0~~--|
D|-7-7-7-7-x-x-7-7-7-7-x-x-7-7-7-7--0~~--|

E|------------------------------------|
B|------------------------------------|
G|-9-9-9-9-x-x-9-9-9-9-x-x-9-9-9-9----|
D|-8-8-8-8-x-x-8-8-8-8-x-x-8-8-8-8----|
A|-8-8-8-8-x-x-8-8-8-8-x-x-8-8-8-8----|
D|-8-8-8-8-x-x-8-8-8-8-x-x-8-8-8-8----|

E|--------------------------------------|
B|--------------------------------------|
G|-9-9-9-9-x-x-9-9-9-9-x-x-9-9-9-9-9~---|
D|-7-7-7-7-x-x-7-7-7-7-x-x-7-7-7-7-7~---|
A|-7-7-7-7-x-x-7-7-7-7-x-x-7-7-7-7-7~---|
D|-7-7-7-7-x-x-7-7-7-7-x-x-7-7-7-7-7~---|

E|------------------------------------|
B|------------------------------------|
G|-9-9-9-9-x-x-9-9-9-9-x-x-9-9-9-9----|
D|-8-8-8-8-x-x-8-8-8-8-x-x-8-8-8-8----|
A|-8-8-8-8-x-x-8-8-8-8-x-x-8-8-8-8----|
D|-8-8-8-8-x-x-8-8-8-8-x-x-8-8-8-8----|

E|------------------------------------|
B|------------------------------------|
G|-9-9-9-9-x-x-9-9-9-9-x-x-9-9-9-9----|
D|-7-7-7-7-x-x-7-7-7-7-x-x-7-7-7-7----|
A|-7-7-7-7-x-x-7-7-7-7-x-x-7-7-7-7----|
D|-7-7-7-7-x-x-7-7-7-7-x-x-7-7-7-7----|

Bridge 2:
(Solo)

E|----------------------------------------------------------------------|
B|----10-------13-------10-------13-------10--------10-10-10------------|
G|-10----10-10----10-10----10-10----10-10----10-10-----------12-12-12---|
D|----------------------------------------------------------------------|
A|----------------------------------------------------------------------|
D|----------------------------------------------------------------------|

E|---------------------------------|
B|-10-10-10-13-10-10-13-10-13-10---|
G|---------------------------------|
D|---------------------------------|
A|---------------------------------|
D|---------------------------------|

E|----------------------------------------------------------------------|
B|----10-------13-------10-------13-------10--------10-10-10------------|
G|-10----10-10----10-10----10-10----10-10----10-10-----------12-12-12---|
D|----------------------------------------------------------------------|
A|----------------------------------------------------------------------|
D|----------------------------------------------------------------------|

E|---------------------------------|
B|-10-10-10-13-10-13-10-13-10\-----|
G|---------------------------------|
D|---------------------------------|
A|---------------------------------|
D|---------------------------------|

Verse 3:

Verse 2:

E|----------------------------------------------------|
B|----------------------------------------------------|
G|----------------------------------------------------|
D|----------------------------------------------------|
A|----------------------------------------------------|
D|-0-0-0-2-2-2-5-5-5-3-3-0-3-0-3-0-88888888-77777777--|
p.m.................................................


E|----------------------------------------------------|
B|----------------------------------------------------|
G|----------------------------------------------------|
D|----------------------------------------------------|
A|----------------------------------------------------|
D|-0-0-0-2-2-2-5-5-5-3-3-0-3-0-3-0-88888888-77777777--|
p.m.................................................


E|----------------------------------------------------|
B|----------------------------------------------------|
G|----------------------------------------------------|
D|----------------------------------------------------|
A|----------------------------------------------------|
D|-0-0-0-2-2-2-5-5-5-3-3-0-3-0-3-0-88888888-77777777--|
p.m.................................................


E|----------------------------------------------------|
B|----------------------------------------------------|
G|----------------------------------------------------|
D|-----------------------------------8~~------7~------|
A|-----------------------------------8~~------7~------|
D|-0-0-0-2-2-2-5-5-5-3-3-0-3-0-3-0-888~~----777~------|
p.m..................................       ..

Chorus 3:

E|------------------------------------------------------------------|
B|------------------------------------------------------------------|
G|------------------------------------------------------------------|
D|-0-8-7-0-10-12-0---8-7-0-10-12-0-5---0-8-7-0-10-12-0---5-7-8-7----|
A|-0-8-7-0-10-12-0---8-7-0-10-12-0-5---0-8-7-0-10-12-0---5-7-8-7----|
D|-0-8-7-0-10-12-0---8-7-0-10-12-0-5---0-8-7-0-10-12-0---5-7-8-7----|

E|------------------------------------------------------------------|
B|------------------------------------------------------------------|
G|------------------------------------------------------------------|
D|-0-8-7-0-10-12-0---8-7-0-10-12-0-5---0-8-7-0-10-12-0---2-3-5-3----|
A|-0-8-7-0-10-12-0---8-7-0-10-12-0-5---0-8-7-0-10-12-0---2-3-5-3----|
D|-0-8-7-0-10-12-0---8-7-0-10-12-0-5---0-8-7-0-10-12-0---2-3-5-3----|

E|------------------------------------------------------------------|
B|------------------------------------------------------------------|
G|------------------------------------------------------------------|
D|-0-8-7-0-10-12-0---8-7-0-10-12-0-5---0-8-7-0-10-12-0---5-7-8-7----|
A|-0-8-7-0-10-12-0---8-7-0-10-12-0-5---0-8-7-0-10-12-0---5-7-8-7----|
D|-0-8-7-0-10-12-0---8-7-0-10-12-0-5---0-8-7-0-10-12-0---5-7-8-7----|

E|------------------------------------------------------------------|
B|------------------------------------------------------------------|
G|------------------------------------------------------------------|
D|-0-8-7-0-10-12-0---8-7-0-10-12-0-5---0-8-7-0-10-12-0---2-3-5-3----|
A|-0-8-7-0-10-12-0---8-7-0-10-12-0-5---0-8-7-0-10-12-0---2-3-5-3----|
D|-0-8-7-0-10-12-0---8-7-0-10-12-0-5---0-8-7-0-10-12-0---2-3-5-3----|

E|------------------------------------------------------------------|
B|------------------------------------------------------------------|
G|------------------------------------------------------------------|
D|-0-8-7-0-10-12-0---8-7-0-10-12-0-5---0-8-7-0-10-12-0---5-7-8-7----|
A|-0-8-7-0-10-12-0---8-7-0-10-12-0-5---0-8-7-0-10-12-0---5-7-8-7----|
D|-0-8-7-0-10-12-0---8-7-0-10-12-0-5---0-8-7-0-10-12-0---5-7-8-7----|

E|------------------------------------------------------------------|
B|------------------------------------------------------------------|
G|------------------------------------------------------------------|
D|-0-8-7-0-10-12-0---8-7-0-10-12-0-5---0-8-7-0-10-12-0---2-3-5-3----|
A|-0-8-7-0-10-12-0---8-7-0-10-12-0-5---0-8-7-0-10-12-0---2-3-5-3----|
D|-0-8-7-0-10-12-0---8-7-0-10-12-0-5---0-8-7-0-10-12-0---2-3-5-3----|


E|----------------------------------------|
B|----------------------------------------|
G|-----9999-----------------9999----------|
D|-88888888-77777-7-----88888888-77777-7--|
A|-88888888-77777-7-----88888888-77777-7--|
D|-88888888-77777-7-----88888888-77777-7--|

E|-------|
B|-------|
G|-------|
D|-0~~~--|
A|-0~~~--|
D|-0~~~--|

.............................................................................
                                 10. Circuiry
                                Tuning: Drop D
.............................................................................

Intro:
(Distortion)

E|------------------------------------------------------------------------|
B|------------------------------------------------------------------------|
G|------------------------------------------------------------------------|
D|-9~~-8~~-5--2------9~~-8~~-5--2------9~~-12~~-5--2------9~~-8~~-5--2----|
A|-9~~-8~~-5--2------9~~-8~~-5--2------9~~-12~~-5--2------9~~-8~~-5--2----|
D|-9~~-8~~-5--2------9~~-8~~-5--2------9~~-12~~-5--2------9~~-8~~-5--2----|

Verse 1:
(Clean)

E|--------------------------------------|
B|--------------------------------------|
G|-------7--------7--------7-----7------|
D|----5--------5--------5-----------5---| X6
A|-7--------6--------5--------5---------|
D|--------------------------------------|

Pre-Chorus 1:
(Distortion)
TIP: Not really a pre-chorus. It's just the piece leading into the chorus.

E|-----------|
B|-----------|
G|-----------|
D|-9--8--5---|
A|-9--8--5---|
D|-9--8--5---|

Chorus 1:

E|----------------------------------------------------------|
B|----------------------------------------------------------|
G|----------------------------------------------------------|
D|-9~~-8~~-5--2---2-2p0-2p0-----9~~-8~~-5--2--2--2p0-2p0----|
A|-9~~-8~~-5--2---2-2p0-2p0-----9~~-8~~-5--2--2--2p0-2p0----|
D|-9~~-8~~-5--2---2-2p0-2p0-----9~~-8~~-5--2--2--2p0-2p0----|

E|----------------------------------------------------------|
B|----------------------------------------------------------|
G|----------------------------------------------------------|
D|-9~~-12~~-5--2---2-2p0-2p0-----9~~-8~~-5--2--2--2p0-2p0---|
A|-9~~-12~~-5--2---2-2p0-2p0-----9~~-8~~-5--2--2--2p0-2p0---|
D|-9~~-12~~-5--2---2-2p0-2p0-----9~~-8~~-5--2--2--2p0-2p0---|

Verse 2:
(Clean)

E|--------------------------------------|
B|--------------------------------------|
G|-------7--------7--------7-----7------|
D|----5--------5--------5-----------5---| X4
A|-7--------6--------5--------5---------|
D|--------------------------------------|

Pre-Chorus 2:
(Distortion)
TIP: Not really a pre-chorus. It's just the piece leading into the chorus.

E|-----------|
B|-----------|
G|-----------|
D|-9--8--5---|
A|-9--8--5---|
D|-9--8--5---|

Chorus 2:

E|----------------------------------------------------------|
B|----------------------------------------------------------|
G|----------------------------------------------------------|
D|-9~~-8~~-5--2---2-2p0-2p0-----9~~-8~~-5--2--2--2p0-2p0----|
A|-9~~-8~~-5--2---2-2p0-2p0-----9~~-8~~-5--2--2--2p0-2p0----|
D|-9~~-8~~-5--2---2-2p0-2p0-----9~~-8~~-5--2--2--2p0-2p0----|

E|----------------------------------------------------------|
B|----------------------------------------------------------|
G|----------------------------------------------------------|
D|-9~~-12~~-5--2---2-2p0-2p0-----9~~-8~~-5--2--2--2p0-2p0---|
A|-9~~-12~~-5--2---2-2p0-2p0-----9~~-8~~-5--2--2--2p0-2p0---|
D|-9~~-12~~-5--2---2-2p0-2p0-----9~~-8~~-5--2--2--2p0-2p0---|

Bridge 1:

E|------------------------------------------------------------------------|
B|------------------------------------------------------------------------|
G|------------------------------------------------------------------------|
D|-5--2--0-2p0-2p0---5--2--0--2--2-------5--2--0-2p0-2p0---5--2--0--2--2--|
A|-5--2--0-2p0-2p0---5--2--0--2--2-------5--2--0-2p0-2p0---5--2--0--2--2--|
D|-5--2--0-2p0-2p0---5--2--0--2--2-------5--2--0-2p0-2p0---5--2--0--2--2--|

Bridge 2:
(Slight distortion on notes, full distortion on powerchords.)

E|--------------------------------------|
B|--------------------------------------|
G|-------7--------7--------7-----7------|
D|----5--------5--------5-----------5---|
A|-7--------6--------5--------5---------|
D|--------------------------------------|

E|--------------------------------------|
B|--------------------------------------|
G|-------7--------7--------7------------|
D|----5--------5--------5-----8--7--5---|
A|-7--------6--------5--------8--7--5---|
D|----------------------------8--7--5---|

E|--------------------------------------|
B|--------------------------------------|
G|-------7--------7--------7-----7------|
D|----5--------5--------5-----------5---|
A|-7--------6--------5--------5---------|
D|--------------------------------------|

E|--------------------------------------|
B|--------------------------------------|
G|-------7--------7--------7------------|
D|----5--------5--------5-----8--7--5---|
A|-7--------6--------5--------8--7--5---|
D|----------------------------8--7--5---|

Chorus 3:
(During solo)

E|----------------------------------------------------------|
B|----------------------------------------------------------|
G|----------------------------------------------------------|
D|-9~~-8~~-5--2---2-2p0-2p0-----9~~-8~~-5--2--2--2p0-2p0----|
A|-9~~-8~~-5--2---2-2p0-2p0-----9~~-8~~-5--2--2--2p0-2p0----|
D|-9~~-8~~-5--2---2-2p0-2p0-----9~~-8~~-5--2--2--2p0-2p0----|

E|----------------------------------------------------------|
B|----------------------------------------------------------|
G|----------------------------------------------------------|
D|-9~~-12~~-5--2---2-2p0-2p0-----9~~-8~~-5--2--2--2p0-2p0---|
A|-9~~-12~~-5--2---2-2p0-2p0-----9~~-8~~-5--2--2--2p0-2p0---|
D|-9~~-12~~-5--2---2-2p0-2p0-----9~~-8~~-5--2--2--2p0-2p0---|

Verse 3:
(Clean)

E|--------------------------------------|
B|--------------------------------------|
G|-------7--------7--------7-----7------|
D|----5--------5--------5-----------5---| X4
A|-7--------6--------5--------5---------|
D|--------------------------------------|

Pre-Chorus 3:
(Distortion)
TIP: Not really a pre-chorus. It's just the piece leading into the chorus.

E|-----------|
B|-----------|
G|-----------|
D|-9--8--5---|
A|-9--8--5---|
D|-9--8--5---|

Chorus 3:

E|----------------------------------------------------------|
B|----------------------------------------------------------|
G|----------------------------------------------------------|
D|-9~~-8~~-5--2---2-2p0-2p0-----9~~-8~~-5--2--2--2p0-2p0----|
A|-9~~-8~~-5--2---2-2p0-2p0-----9~~-8~~-5--2--2--2p0-2p0----|
D|-9~~-8~~-5--2---2-2p0-2p0-----9~~-8~~-5--2--2--2p0-2p0----|

E|----------------------------------------------------------|
B|----------------------------------------------------------|
G|----------------------------------------------------------|
D|-9~~-12~~-5--2---2-2p0-2p0-----9~~-8~~-5--2--2--2p0-2p0---|
A|-9~~-12~~-5--2---2-2p0-2p0-----9~~-8~~-5--2--2--2p0-2p0---|
D|-9~~-12~~-5--2---2-2p0-2p0-----9~~-8~~-5--2--2--2p0-2p0---|

E|----------------------------------------------------------|
B|----------------------------------------------------------|
G|----------------------------------------------------------|
D|-9~~-8~~-5--2---2-2p0-2p0-----9~~-8~~-5--2--2--2p0-2p0----|
A|-9~~-8~~-5--2---2-2p0-2p0-----9~~-8~~-5--2--2--2p0-2p0----|
D|-9~~-8~~-5--2---2-2p0-2p0-----9~~-8~~-5--2--2--2p0-2p0----|

E|----------------------------------------------------------|
B|----------------------------------------------------------|
G|----------------------------------------------------------|
D|-9~~-12~~-5--2---2-2p0-2p0-----9~~-8~~-5--2--2--2p0-2p0---|
A|-9~~-12~~-5--2---2-2p0-2p0-----9~~-8~~-5--2--2--2p0-2p0---|
D|-9~~-12~~-5--2---2-2p0-2p0-----9~~-8~~-5--2--2--2p0-2p0---|


E|----------------------------------------------------------|
B|----------------------------------------------------------|
G|----------------------------------------------------------|
D|-9~~-8~~-5--2---2-2p0-2p0-----9~~-8~~-5--2--2--2p0-2p0----|
A|-9~~-8~~-5--2---2-2p0-2p0-----9~~-8~~-5--2--2--2p0-2p0----|
D|-9~~-8~~-5--2---2-2p0-2p0-----9~~-8~~-5--2--2--2p0-2p0----|

E|----------------------------------------------------------|
B|----------------------------------------------------------|
G|----------------------------------------------------------|
D|-9~~-12~~-5--2---2-2p0-2p0-----9~~-8~~-5--2--2--2p0-2p0---|
A|-9~~-12~~-5--2---2-2p0-2p0-----9~~-8~~-5--2--2--2p0-2p0---|
D|-9~~-12~~-5--2---2-2p0-2p0-----9~~-8~~-5--2--2--2p0-2p0---|

Fades out...

.............................................................................
                                 11. 3 Card
                                 Tuning: C#
.............................................................................

Intro

D#|-------------------------------------------------------------------------|
A#|-------------------------------------------------------------------------|
F#|-------------------------------------------------------------------------|
C#|-xxxxxxxx-xxxxxxxx-xxxxxxxx-xxxxxxxx-xxxxxxxx-xxxxxxxx-xxxxxxxx-xxxxxxxx-|
G#|-xxxxxxxx-xxxxxxxx-xxxxxxxx-xxxxxxxx-xxxxxxxx-xxxxxxxx-xxxxxxxx-xxxxxxxx-|
C#|-xxxxxxxx-xxxxxxxx-xxxxxxxx-xxxxxxxx-xxxxxxxx-xxxxxxxx-xxxxxxxx-xxxxxxxx-|

Verse 1:

D#|-------------------------------------------------------------------------|
A#|-------------------------------------------------------------------------|
F#|-------------------------------------------------------------------------|
C#|-66666666-00000000-66666666-00000000-88888888-33333333-66666666-00000000-|
G#|-66666666-00000000-66666666-00000000-88888888-33333333-66666666-00000000-|
C#|-66666666-00000000-66666666-00000000-88888888-33333333-66666666-00000000-|

D#|-------------------------------------------------------------------------|
A#|-------------------------------------------------------------------------|
F#|-------------------------------------------------------------------------|
C#|-xxxxxxxx-xxxxxxxx-xxxxxxxx-xxxxxxxx-66666666-00000000-66666666-00000000-|
G#|-xxxxxxxx-xxxxxxxx-xxxxxxxx-xxxxxxxx-66666666-00000000-66666666-00000000-|
C#|-xxxxxxxx-xxxxxxxx-xxxxxxxx-xxxxxxxx-66666666-00000000-66666666-00000000-|

D#|--------------------------------------|
A#|--------------------------------------|
F#|--------------------------------------|
C#|-xxxxxxxx-xxxxxxxx-xxxxxxxx-xxxxxxxx--|
G#|-xxxxxxxx-xxxxxxxx-xxxxxxxx-xxxxxxxx--|
C#|-xxxxxxxx-xxxxxxxx-xxxxxxxx-xxxxxxxx--|

D#|-------------------------------------------------------------------------|
A#|-------------------------------------------------------------------------|
F#|-------------------------------------------------------------------------|
C#|-66666666-00000000-66666666-00000000-88888888-33333333-66666666-00000000-|
G#|-66666666-00000000-66666666-00000000-88888888-33333333-66666666-00000000-|
C#|-66666666-00000000-66666666-00000000-88888888-33333333-66666666-00000000-|

Chorus 1:

D#|-------------------------------------------------------------------------|
A#|-------------------------------------------------------------------------|
F#|----------------------------77777777----------------------------77777777-|
C#|-33333333-55555555-00000000-77777777-33333333-55555555-00000000-77777777-|
G#|-33333333-55555555-00000000-55555555-33333333-55555555-00000000-55555555-|
C#|-33333333-55555555-00000000----------33333333-55555555-00000000----------|

D#|--------------------------------------------------------|
A#|--------------------------------------------------------|
F#|----------------------------77777777--------------------|
C#|-33333333-55555555-00000000-77777777-33333333-55555555--|
G#|-33333333-55555555-00000000-55555555-33333333-55555555--|
C#|-33333333-55555555-00000000----------33333333-55555555--|

Verse 2:

D#|--------------------------------------|
A#|--------------------------------------|
F#|--------------------------------------|
C#|-xxxxxxxx-xxxxxxxx-xxxxxxxx-xxxxxxxx--|
G#|-xxxxxxxx-xxxxxxxx-xxxxxxxx-xxxxxxxx--|
C#|-xxxxxxxx-xxxxxxxx-xxxxxxxx-xxxxxxxx--|

D#|-------------------------------------------------------------------------|
A#|-------------------------------------------------------------------------|
F#|-------------------------------------------------------------------------|
C#|-66666666-00000000-66666666-00000000-88888888-33333333-66666666-00000000-|
G#|-66666666-00000000-66666666-00000000-88888888-33333333-66666666-00000000-|
C#|-66666666-00000000-66666666-00000000-88888888-33333333-66666666-00000000-|

Chorus 2:
D#|-------------------------------------------------------------------------|
A#|-------------------------------------------------------------------------|
F#|----------------------------77777777----------------------------77777777-|
C#|-33333333-55555555-00000000-77777777-33333333-55555555-00000000-77777777-|
G#|-33333333-55555555-00000000-55555555-33333333-55555555-00000000-55555555-|
C#|-33333333-55555555-00000000----------33333333-55555555-00000000----------|

D#|--------------------------------------------------------|
A#|--------------------------------------------------------|
F#|----------------------------77777777--------------------|
C#|-33333333-55555555-00000000-77777777-33333333-55555555--|
G#|-33333333-55555555-00000000-55555555-33333333-55555555--|
C#|-33333333-55555555-00000000----------33333333-55555555--|

D#|--------------------------------------|
A#|--------------------------------------|
F#|--------------------------------------|
C#|-xxxxxxxx-xxxxxxxx-xxxxxxxx-xxxxxxxx--|
G#|-xxxxxxxx-xxxxxxxx-xxxxxxxx-xxxxxxxx--|
C#|-xxxxxxxx-xxxxxxxx-xxxxxxxx-xxxxxxxx--|

Bridge:

D#|--------------------------------------------------------------|
A#|--------------------------------------------------------------|
F#|-/77777777777777-77777777777777-77777777777777-77777777777777-|
C#|--------------------------------------------------------------|
G#|-/55555555555555-55555555555555-55555555555555-55555555555555-|
C#|--------------------------------------------------------------|

D#|--------------------------------------------------------------|
A#|--------------------------------------------------------------|
F#|-77777777777777-77777777777777-77777777777777-77777777777777--|
C#|--------------------------------------------------------------|
G#|-55555555555555-55555555555555-55555555555555-55555555555555--|
C#|--------------------------------------------------------------|

Chorus 3:

D#|-------------------------------------------------------------------------|
A#|-------------------------------------------------------------------------|
F#|----------------------------77777777----------------------------77777777-|
C#|-33333333-55555555-00000000-77777777-33333333-55555555-00000000-77777777-|
G#|-33333333-55555555-00000000-55555555-33333333-55555555-00000000-55555555-|
C#|-33333333-55555555-00000000----------33333333-55555555-00000000----------|

D#|--------------------------------------------------------|
A#|--------------------------------------------------------|
F#|----------------------------77777777--------------------|
C#|-33333333-55555555-00000000-77777777-33333333-55555555--|
G#|-33333333-55555555-00000000-55555555-33333333-55555555--|
C#|-33333333-55555555-00000000----------33333333-55555555--|

D#|--------------------------------------------------------------|
A#|--------------------------------------------------------------|
F#|-/77777777777777-77777777777777-77777777777777-77777777777777-|
C#|--------------------------------------------------------------|
G#|-/55555555555555-55555555555555-55555555555555-55555555555555-|
C#|--------------------------------------------------------------|

.............................................................................
                           12. A Fruitless End Ever.
                                 Tuning: Drop D
.............................................................................

Intro:

E|-----------------------------------------------------------|
B|-----------------------------------------------------------|
G|-----------------------------------------------------------|
D|-0--2--3--5--8--7--0-------0--2--3--5--8--7--0--x-x-0~-----|
A|-0--2--3--5--8--7--0-------0--2--3--5--8--7--0--x-x-0~-----|
D|-0--2--3--5--8--7--0-------0--2--3--5--8--7--0--x-x-0~-----|

E|-----------------------------------------------------------|
B|-----------------------------------------------------------|
G|-----------------------------------------------------------|
D|-0-2-3-5-8-7----0-2-3-5-8-7----0-2-3-5-8-7----0-2-3-5-8-7--|
A|-0-2-3-5-8-7----0-2-3-5-8-7----0-2-3-5-8-7----0-2-3-5-8-7--|
D|-0-2-3-5-8-7----0-2-3-5-8-7----0-2-3-5-8-7----0-2-3-5-8-7--|

Verse 1:

E|-------------------------------------------------------------------------|
B|-------------------------------------------------------------------------|
G|--7777777777777777--5555555555555555--7777777777777777-------------------|
D|-------------------------------------------------------------------------|
A|--5555555555555555--3333333333333333--5555555555555555---3-5-6-3-5-3h5---|
D|-------------------------------------------------------------------------|

E|-------------------------------------------------------------------------|
B|-------------------------------------------------------------------------|
G|--7777777777777777--5555555555555555--7777777777777777-------------------|
D|-------------------------------------------------------------------------|
A|--5555555555555555--3333333333333333--5555555555555555---3-5-6-3-5-3h5---|
D|-------------------------------------------------------------------------|

Pre-Chorus 1:

E|-------------------------------|
B|-------------------------------|
G|-------------------------------|
D|-0-2-3-5-8-7----0-2-3-5-8-7----|
A|-0-2-3-5-8-7----0-2-3-5-8-7----|
D|-0-2-3-5-8-7----0-2-3-5-8-7----|

Chorus 1:

E|------------------------------------------------------------------------|
B|------------------------------------------------------------------------|
G|---------3-3-3-3---------5-5-3-3--------------3-3-3-3---------5-5-5-5---|
D|-0-0-0-0-3-3-3-3-3-3-3-3-5-5-3-3------0-0-0-0-3-3-3-3-3-3-3-3-5-5-5-5---|
A|-0-0-0-0-1-1-1-1-3-3-3-3-3-3-1-1------0-0-0-0-1-1-1-1-3-3-3-3-3-3-3-3---|
D|-0-0-0-0---------3-3-3-3--------------0-0-0-0---------3-3-3-3-----------|

E|---------------|
B|---------------|
G|---------------|
D|-0-2-3-5-8-7---|
A|-0-2-3-5-8-7---|
D|-0-2-3-5-8-7---|

Verse 2:

E|-------------------------------------------------------------------------|
B|-------------------------------------------------------------------------|
G|--7777777777777777--5555555555555555--7777777777777777-------------------|
D|-------------------------------------------------------------------------|
A|--5555555555555555--3333333333333333--5555555555555555---3-5-6-3-5-3h5---|
D|-------------------------------------------------------------------------|

E|-------------------------------------------------------------------------|
B|-------------------------------------------------------------------------|
G|--7777777777777777--5555555555555555--7777777777777777-------------------|
D|-------------------------------------------------------------------------|
A|--5555555555555555--3333333333333333--5555555555555555---3-5-6-3-5-3h5---|
D|-------------------------------------------------------------------------|

Pre-Chorus 2:

E|-------------------------------|
B|-------------------------------|
G|-------------------------------|
D|-0-2-3-5-8-7----0-2-3-5-8-7----|
A|-0-2-3-5-8-7----0-2-3-5-8-7----|
D|-0-2-3-5-8-7----0-2-3-5-8-7----|

Chorus 2:

E|------------------------------------------------------------------------|
B|------------------------------------------------------------------------|
G|---------3-3-3-3---------5-5-3-3--------------3-3-3-3---------5-5-5-5---|
D|-0-0-0-0-3-3-3-3-3-3-3-3-5-5-3-3------0-0-0-0-3-3-3-3-3-3-3-3-5-5-5-5---|
A|-0-0-0-0-1-1-1-1-3-3-3-3-3-3-1-1------0-0-0-0-1-1-1-1-3-3-3-3-3-3-3-3---|
D|-0-0-0-0---------3-3-3-3--------------0-0-0-0---------3-3-3-3-----------|

E|------------------------------------------------------------------------|
B|------------------------------------------------------------------------|
G|---------3-3-3-3---------5-5-3-3--------------3-3-3-3---------5-5-5-5---|
D|-0-0-0-0-3-3-3-3-3-3-3-3-5-5-3-3------0-0-0-0-3-3-3-3-3-3-3-3-5-5-5-5---|
A|-0-0-0-0-1-1-1-1-3-3-3-3-3-3-1-1------0-0-0-0-1-1-1-1-3-3-3-3-3-3-3-3---|
D|-0-0-0-0---------3-3-3-3--------------0-0-0-0---------3-3-3-3-----------|

Bridge 1:

E|----------------------------------------------------|
B|----------------------------------------------------|
G|--------------------555---------------------5555----|
D|----------------------------------------------------|
A|-55-33-55-33-55-33-3333---55-33-55-33-55-33-3333----|
D|----------------------------------------------------|

E|-------------------------------------------------------------|
B|-------------------------------------------------------------|
G|--------------------555---------------------5555-------------|
D|----------------------------------------------------|--------|
A|-55-33-55-33-55-33-3333---55-33-55-33-55-33-3333----|     ---|
D|----------------------------------------------------|     ---|
                                                    *Plays same time.
E|----------------------------------------------------|     ---|
B|----------------------------------------------------|     ---|
G|-77-55-77-55-77-55-57---77-55-77-55-77-55-57--------|     ---|
D|----------------------------------------------------|--------|
A|-------------------35---------------------35-----------------|
D|-------------------------------------------------------------|

Bridge 2:

E|---------------------------------------------------|
B|---------------------------------------------------|
G|---------------------------------------------------|
D|---------------------------------------------------|
A|-12h13-12h13-12h13-12h13-12h13-12h13-12h13-12h13---|
D|---------------------------------------------------|

E|---------------------------------------------------|
B|---------------------------------------------------|
G|---------------------------------------------------|
D|---------------------------------------------------|
A|-12h13-12h13-12h13-12h13-12h13-12h13-12h13-12h13---|
D|---------------------------------------------------|

E|---------------------------------------------------|
B|---------------------------------------------------|
G|-14-14-14-14-14-14-14-14-14-14-14-14-14-14-14-14---|
D|---------------------------------------------------|
A|-12-12-12-12-12-12-12-12-12-12-12-12-12-12-12-12---|
D|---------------------------------------------------|

E|---------------------------------------------------|
B|---------------------------------------------------|
G|-15-15-15-15-15-15-15-15-17-17-17-17-17-17-17-17---|
D|---------------------------------------------------|
A|-13-13-13-13-13-13-13-13-15-15-15-15-15-15-15-15---|
D|---------------------------------------------------|

E|--------------------------------------------------------------------|
B|--------------------------------------------------------------------|
G|-----------------------------------------------------------|--------|
D|-0-2-3-5-8-7----0-2-3-5-8-7----0-2-3-5-8-7----0-2-3-5-8-7--|     ---|
A|-0-2-3-5-8-7----0-2-3-5-8-7----0-2-3-5-8-7----0-2-3-5-8-7--|     ---|
D|-0-2-3-5-8-7----0-2-3-5-8-7----0-2-3-5-8-7----0-2-3-5-8-7--|     ---|
                                                          *Plays same time.
E|-----------------------------------------------------------|     ---|
B|-----------------------------------------------------------|     ---|
G|-----------------------------------------------------------|     ---|
D|-0-----------xx-0-----------xx-0~~~~~~--------0-2-3-5-8-7--|--------|
A|-0-----------xx-0-----------xx-0~~~~~~--------0-2-3-5-8-7-----------|
D|-0-----------xx-0-----------xx-0~~~~~~--------0-2-3-5-8-7-----------|

E|----------------------|
B|----------------------|
G|----------3333-5555---|
D|-33333333-3333-5555---|
A|-33333333-1111-3333---|
D|-33333333-------------|

Chorus 3:

E|------------------------------------------------------------------------|
B|------------------------------------------------------------------------|
G|---------3-3-3-3---------5-5-3-3--------------3-3-3-3---------5-5-5-5---|
D|-0-0-0-0-3-3-3-3-3-3-3-3-5-5-3-3------0-0-0-0-3-3-3-3-3-3-3-3-5-5-5-5---|
A|-0-0-0-0-1-1-1-1-3-3-3-3-3-3-1-1------0-0-0-0-1-1-1-1-3-3-3-3-3-3-3-3---|
D|-0-0-0-0---------3-3-3-3--------------0-0-0-0---------3-3-3-3-----------|

E|------------------------------------------------------------------------|
B|------------------------------------------------------------------------|
G|---------3-3-3-3---------5-5-3-3--------------3-3-3-3---------5-5-5-5---|
D|-0-0-0-0-3-3-3-3-3-3-3-3-5-5-3-3------0-0-0-0-3-3-3-3-3-3-3-3-5-5-5-5---|
A|-0-0-0-0-1-1-1-1-3-3-3-3-3-3-1-1------0-0-0-0-1-1-1-1-3-3-3-3-3-3-3-3---|
D|-0-0-0-0---------3-3-3-3--------------0-0-0-0---------3-3-3-3-----------|


E|------------------------------------------------------------------------|
B|------------------------------------------------------------------------|
G|---------3-3-3-3---------5-5-3-3--------------3-3-3-3---------5-5-5-5---|
D|-0-0-0-0-3-3-3-3-3-3-3-3-5-5-3-3------0-0-0-0-3-3-3-3-3-3-3-3-5-5-5-5---|
A|-0-0-0-0-1-1-1-1-3-3-3-3-3-3-1-1------0-0-0-0-1-1-1-1-3-3-3-3-3-3-3-3---|
D|-0-0-0-0---------3-3-3-3--------------0-0-0-0---------3-3-3-3-----------|

E|------------------------------------------------------------------------|
B|------------------------------------------------------------------------|
G|---------3-3-3-3---------5-5-3-3--------------3-3-3-3---------5-5-5-5---|
D|-0-0-0-0-3-3-3-3-3-3-3-3-5-5-3-3------0-0-0-0-3-3-3-3-3-3-3-3-5-5-5-5---|
A|-0-0-0-0-1-1-1-1-3-3-3-3-3-3-1-1------0-0-0-0-1-1-1-1-3-3-3-3-3-3-3-3---|
D|-0-0-0-0---------3-3-3-3--------------0-0-0-0---------3-3-3-3-----------|

Outro:

E|----------------------------------|
B|----------------------------------|
G|----------------------------------|
D|-0-2-3-5-8-7----0-2-3-5-8-7---0---|
A|-0-2-3-5-8-7----0-2-3-5-8-7---0---|
D|-0-2-3-5-8-7----0-2-3-5-8-7---0---|

.............................................................................
                                  14. Solace
                                Tuning: Drop D
.............................................................................

Intro:

E|------------------------------------|
B|----------------------7-----9--7----|
G|---8------9------6------------------|
D|-6------6------6---------6----------| X2
A|------------------------------------|
D|------------------------------------|

Verse 1:

E|------------------------------------|
B|----------------------7-----9--7----|
G|---8------9------6------------------|
D|-6------6------6---------6----------| X4
A|------------------------------------|
D|------------------------------------|

Pre-Chorus 1:

E|---------------------------------------|
B|---------------------------------------|
G|---------------------------------------|
D|-66666666-66666666-66666666-66666666---|
A|-66666666-66666666-66666666-66666666---|
D|-66666666-66666666-66666666-66666666---|

Chorus 1:

E|----------------------------------------|
B|--------------------------9---7---7h9---|
G|---8------9------6----------------------|
D|-6------6------6------6-----------------| X4
A|----------------------------------------|
D|----------------------------------------|

After-Chorus Music:

E|---------------------------------|
B|---------------------------------|
G|---------------------------------|
D|-6~~~~~~~~~~~~~~~~~~~~~~~--------|
A|-6~~~~~~~~~~~~~~~~~~~~~~~--------|
D|-6~~~~~~~~~~~~~~~~~~~~~~~--------|

Verse 2:

E|------------------------------------|
B|----------------------7-----9--7----|
G|---8------9------6------------------|
D|-6------6------6---------6----------| X4
A|------------------------------------|
D|------------------------------------|

Pre-Chorus 2:

E|---------------------------------------|
B|---------------------------------------|
G|---------------------------------------|
D|-66666666-66666666-66666666-66666666---|
A|-66666666-66666666-66666666-66666666---|
D|-66666666-66666666-66666666-66666666---|

Chorus 2:

E|----------------------------------------|
B|--------------------------9---7---7h9---|
G|---8------9------6----------------------|
D|-6------6------6------6-----------------| X4
A|----------------------------------------|
D|----------------------------------------|

After-Chorus Music 2:

E|---------------------------------|
B|---------------------------------|
G|---------------------------------|
D|-6~~~----6~~~----6~~~----6~~~----|
A|-6~~~----6~~~----6~~~----6~~~----|
D|-6~~~----6~~~----6~~~----6~~~----|

Bridge 1:

E|---------------------------|
B|---------------------------|
G|---------------------------|
D|---------------------------| X24
A|----6-----7--6-------------|
D|-6-----6--------9--8--11---|

Bridge 2:

E|-------------------------------------------------------------------------|
B|-------------------------------------------------------------------------|
G|-------------------------------------------------------------------------|
D|-66-666-666-666-6\22-222-222-222-2/66-666-666-666-6\22-222-222-222-2/66--|
A|-66-666-666-666-6\22-222-222-222-2/66-666-666-666-6\22-222-222-222-2/66--|
D|-66-666-666-666-6\22-222-222-222-2/66-666-666-666-6\22-222-222-222-2/66--|

Chorus 3:

E|----------------------------------------|
B|--------------------------9---7---7h9---|
G|---8------9------6----------------------|
D|-6------6------6------6-----------------| X4
A|----------------------------------------|
D|----------------------------------------|

E|----------------------------------------|
B|--------------------------9---7---7h9---|
G|---8------9------6----------------------|
D|-6------6------6------6-----------------| X4
A|----------------------------------------|
D|----------------------------------------|

Outro:
E|-------------------------------|
B|-------------------------------|
G|-------------------------------|
D|-66-666-666-666-666-666-666----|
A|-66-666-666-666-666-666-666----|
D|-66-666-666-666-666-666-666----|


Well that didn't take long...only like 12 hours. :)
I sure hope people use this because I put alot of time into it. I hope to be putting up
videos of me playing these songs on Youtube soon, so look for them. I'm probably going
do another album tab aswell...maybe for the self-titled. I'd try Truthless Heroes, but I 
no idea how to play Bottom Feeder and no one has even attempted that song, unfortunetely.

But anyways, enjoy and God bless. :)
comments
print report bad tab
9 comments total. Showing first comments.
0 reply
Ash on fires wrote on August 4 2007, 01:38 pm

I won't rate it until I actually learn some of the songs, but just jamming along to the drop d ones sounds pretty much right on! The only thing I noticed was on the pre chorus to A Fruitless End Ever hes hitting those chords more than once. Anyway, if you'd tab Drawing Black Lines i'd love you forever.

0 reply
365_days_gone wrote on August 4 2007, 05:19 pm

I would try Drawing Black Lines, but the only problem is that I'm not sure about Open Hand, or Star...or even Sad Machines. I want to know EVERY song before doing an album tab.

0 reply
coltonbauman wrote on August 5 2007, 11:25 pm

Certainly not perfect, but close enough

I want to post or [tab]
guest
You may want to rate the tab now too:
select rating
Please do not post tabs as comments. Select "correction" instead!