Oops, an error
Loading. Please wait.

Truthless Heroes Tab

670 views 1 this week
2 commentsread comments
1 2 3 4 5
please rate
Autoscroll
+/-
esc
set tempo
stop
Contributor
Hey! There's an official Ultimate Guitar app which is ideal
for learning songs when you're away from computer. Get the app
WARNING: You are trying to view
                                    content from Ultimate-Guitar.com
                                    in an unauthorized application,
                                    which is prohibited.

                                    Please use an official Ultimate
                                    Guitar Tabs application for iPhone,
                                    iPad or Android to access legitimate
                                    chords, guitar, bass, and drum tabs
                                    from Ultimate-Guitar.com database.

                                    Type "ultimate guitar tabs" in Apple
                                    App Store's or Android Market's
                                    search to find the application.
=============================================================================
                                  INTRODUCTION
=============================================================================

Here it is...Truthless Heroes! Now I know alot of people are probably waiting for a 
Black Lines tab, and I'm working on it. But first I had to tab this!

This tab contains tabs for all the songs as well as the commercials:
...A Word From Our Sponsors
...To Brighten Your Day.
...And Help You Sleep
...With Regards, T.H

And also includes a tab for Bottom Feeder and Caught
In The Middle, which no one has yet to attempt. Now I
honestly am horrible at tabbing songs, but one day I
was just able to. So I made two album tabs for
Project 86 and tabbed atleast 2 songs 100% on my own.
I say that is the duing of God. But nevertheless...

=============================================================================
                                    TIPS
=============================================================================

I'll be putting "TIPS:" throughout the tab. Watch for
these,cause they include how to play certain parts, how
many times to hit strings, or other important information.

=============================================================================
                              CLEAN/DISTORTION
=============================================================================

As for different clean and distortion guitars. I will
only be listing it when a song has both a clean AND a
distortion guitar. And I will only list it when you switch
from one to the other. In other words it will only be
listed when you need to switch from a clean guitar to
a distortion guitar, or vice versa, so watch for it.

=============================================================================
                                 SHORTCUT
=============================================================================

Also, an easy way to find a certain song within this tab
is to hold CTRL and push "F",then type the name of the song.
Nice shortcut for this.
=============================================================================
                                  TUNINGS
=============================================================================

As for tunings, this entire CD is in Drop D tuning.

However if any songs say the top string in an E, ignore it,
because I used a pre-made template given by Ultimate-guitar,
so just ignore it -- it is really in Drop D!

=============================================================================
                                  SYMBOLS
=============================================================================

 /  slide up
 \  slide down
 h  hammer-on
 p  pull-off
 ~  Ring out
 *  harmonic
 x  Mute note
 b  Bend
 v  Vibrato

=============================================================================
                                TRACKLISTING
=============================================================================

1. Little Green Men
2. Caught In The Middle
3. Know What It Means
4. Salem's Suburbs
5. ...A Word From Our Sponsors
6. S.M.C.
7. Team Black
8. Your Hereos Are Dead
9. ...To Brighten Your Day.
10. Another Boredom Movement
11. Bottom Feeder
12. Shelter Me
13. ...And Help You Sleep
14. Last Meal
15. Soma
16. Hollow Again
17. ...With Regards, T.H

-----------------------------------------------------------------------------
                                Little Green Men
-----------------------------------------------------------------------------


Intro:
e|------|
B|------|
G|------|
D|-9/---|
A|-9/---|
D|-9/---|

e|------------------------------------------|
B|------------------------------------------|
G|-11----12-11-7-9-----11----12-11-7-9------|
D|----9-------------------9-----------------|
A|-9--9--10-9--5-7-----9--9--10-9--5-7------|
D|----9-------------------9-----------------|

e|------------------------------------------|
B|------------------------------------------|
G|-11----12-11-7-9-----11----12-11-7-9------|
D|----9-------------------9-------------9\--|
A|-9--9--10-9--5-7-----9--9--10-9--5-7--9\--|
D|----9-------------------9-------------9\--|

Verse 1:
e|------------------------------------|
B|------------------------------------|
G|------------------------------------|
D|-----4p0-3h4p3p0-----4p0-3h4p3p0----|X9
A|-22---------------2-----------------|
D|------------------------------------|

Pre-Chorus 1:
e|----------------------------------------------------------|
B|----------------------------------------------------------|
G|----------------------------------------------------------|
D|-5-5-5-5--7-7-7h9p7---------------------------------------|
A|-5-5-5-5--7-7-7h9p7-2--0h2-0h2h3p0-----2--0h2-0h2h3p2p0---|
D|-5-5-5-5--7-7-7h9p7---------------------------------------|

e|----------------------------------------------------------|
B|----------------------------------------------------------|
G|----------------------------------------------------------|
D|-5-5-5-5--7-7-7h9p7---------------------------------------|
A|-5-5-5-5--7-7-7h9p7-2--0h2-0h2h3p0-----2--0h2-0h2h3p2p0---|
D|-5-5-5-5--7-7-7h9p7---------------------------------------|

e|-----------------|
B|-----------------|
G|-4---7-7-7-------|
D|-4---7-7-7--7----|
A|-2---5-5-5--7----|
E|------------7----|

Chorus 1:
e|-------------------------------------------------------------------------|
B|-------------------------------------------------------------------------|
G|-------------------------------------------------------------------------|
D|-9-9-9-9--5-5-5-5--4-4-4-4-5p4-5p4----9-9-9-9--5-5-5-5--4-4-4-4-0h4-0h4--|
A|-9-9-9-9--5-5-5-5--4-4-4-4-5p4-5p4----9-9-9-9--5-5-5-5--4-4-4-4-0h4-0h4--|
D|-9-9-9-9--5-5-5-5--4-4-4-4-5p4-5p4----9-9-9-9--5-5-5-5--4-4-4-4-0h4-0h4--|

e|------|
B|------|
G|------|
D|-9\---|
A|-9\---|
D|-9\---|

Verse 2:
e|------------------------------------|
B|------------------------------------|
G|------------------------------------|
D|-----4p0-3h4p3p0-----4p0-3h4p3p0----|X9
A|-22---------------2-----------------|
D|------------------------------------|

Pre-Chorus 2:
e|----------------------------------------------------------|
B|----------------------------------------------------------|
G|----------------------------------------------------------|
D|-5-5-5-5--7-7-7h9p7---------------------------------------|
A|-5-5-5-5--7-7-7h9p7-2--0h2-0h2h3p0-----2--0h2-0h2h3p2p0---|
D|-5-5-5-5--7-7-7h9p7---------------------------------------|

e|----------------------------------------------------------|
B|----------------------------------------------------------|
G|----------------------------------------------------------|
D|-5-5-5-5--7-7-7h9p7---------------------------------------|
A|-5-5-5-5--7-7-7h9p7-2--0h2-0h2h3p0-----2--0h2-0h2h3p2p0---|
D|-5-5-5-5--7-7-7h9p7---------------------------------------|

e|-----------------|
B|-----------------|
G|-4---7-7-7-------|
D|-4---7-7-7--7----|
A|-2---5-5-5--7----|
E|------------7----|

Chorus 2:
e|-------------------------------------------------------------------------|
B|-------------------------------------------------------------------------|
G|-------------------------------------------------------------------------|
D|-9-9-9-9--5-5-5-5--4-4-4-4-5p4-5p4----9-9-9-9--5-5-5-5--4-4-4-4-0h4-0h4--|
A|-9-9-9-9--5-5-5-5--4-4-4-4-5p4-5p4----9-9-9-9--5-5-5-5--4-4-4-4-0h4-0h4--|
D|-9-9-9-9--5-5-5-5--4-4-4-4-5p4-5p4----9-9-9-9--5-5-5-5--4-4-4-4-0h4-0h4--|

e|------------------------------------------|
B|------------------------------------------|
G|-11----12-11-7-9-----11----12-11-7-9------|
D|----9-------------------9-----------------|
A|-9--9--10-9--5-7-----9--9--10-9--5-7------|
D|----9-------------------9-----------------|

e|---------------------------------------|
B|---------------------------------------|
G|-11----12-11-7-9-----11----12-11-7-----|
D|----9-------------------9-----------9--|
A|-9--9--10-9--5-7-----9--9--10-9--5--9--|
D|----9-------------------9-----------9--|


e|------------------------------------------|
B|------------------------------------------|
G|------------------------------------------|
D|-5-5-5-5-5-5-5-5---7-7-7-7-7-7-7-7---9\---|
A|-5-5-5-5-5-5-5-5---7-7-7-7-7-7-7-7---9\---|
E|-5-5-5-5-5-5-5-5---7-7-7-7-7-7-7-7---9\---|

Verse 3:
e|--------------------------------------------------------------------------|
B|--------------------------------------------------------------------------|
G|--------------------------------------------------------------------------|
D|-----4p0-3h4p3p0-----4p0-3h4p3p0-----------4p0-3h4p3p0-----4p0-3h4p3p0----|
A|-22---------------2--------------------22---------------2-----------------|
D|--------------------------------------------------------------------------|

e|--------------------------------------------------------------------------|
B|--------------------------------------------------------------------------|
G|--------------------------------------------------------------------------|
D|-----4p0-3h4p3p0-----4p0-3h4p3p0-----------4p0-3h4p3p0-----4p0-3h4p3p0----|
A|-22---------------2--------------------22---------------2-----------------|
D|--------------------------------------------------------------------------|

e|--------------------------------------------------------------------------|
B|--------------------------------------------------------------------------|
G|--------------------------------------------------------------------------|
D|-----4p0-3h4p3p0-----4p0-3h4p3p0-----------4p0-3h4p3p0-----4p0-3h4p3p0----|
A|-22---------------2--------------------22---------------2-----------------|
D|--------------------------------------------------------------------------|

e|---------------------------------------------|
B|---------------------------------------------|
G|---------------------------------------------|
D|-----4p0-3h4p3p0-----4p0-3h4p3p0----99--9-9--|
A|-22---------------2-----------------99--9-9--|
D|------------------------------------99--9-9--|

Pre-Chorus 1:
e|----------------------------------------------------------|
B|----------------------------------------------------------|
G|----------------------------------------------------------|
D|-5-5-5-5--7-7-7h9p7---------------------------------------|
A|-5-5-5-5--7-7-7h9p7-2--0h2-0h2h3p0-----2--0h2-0h2h3p2p0---|
D|-5-5-5-5--7-7-7h9p7---------------------------------------|

e|----------------------------------------------------------|
B|----------------------------------------------------------|
G|----------------------------------------------------------|
D|-5-5-5-5--7-7-7h9p7---------------------------------------|
A|-5-5-5-5--7-7-7h9p7-2--0h2-0h2h3p0-----2--0h2-0h2h3p2p0---|
D|-5-5-5-5--7-7-7h9p7---------------------------------------|

e|----------------------------------------------------------|
B|----------------------------------------------------------|
G|----------------------------------------------------------|
D|-5-5-5-5--7-7-7h9p7---------------------------------------|
A|-5-5-5-5--7-7-7h9p7-2--0h2-0h2h3p0-----2--0h2-0h2h3p2p0---|
D|-5-5-5-5--7-7-7h9p7---------------------------------------|

e|----------------------------------------------------------|
B|----------------------------------------------------------|
G|----------------------------------------------------------|
D|-5-5-5-5--7-7-7h9p7---------------------------------------|
A|-5-5-5-5--7-7-7h9p7-2--0h2-0h2h3p0-----2--0h2-0h2h3p2p0---|
D|-5-5-5-5--7-7-7h9p7---------------------------------------|

e|-----------------|
B|-----------------|
G|-4---7-7-7-------|
D|-4---7-7-7--7----|
A|-2---5-5-5--7----|
E|------------7----|

Chorus 1:
e|-------------------------------------------------------------------------|
B|-------------------------------------------------------------------------|
G|-------------------------------------------------------------------------|
D|-9-9-9-9--5-5-5-5--4-4-4-4-5p4-5p4----9-9-9-9--5-5-5-5--4-4-4-4-0h4-0h4--|
A|-9-9-9-9--5-5-5-5--4-4-4-4-5p4-5p4----9-9-9-9--5-5-5-5--4-4-4-4-0h4-0h4--|
D|-9-9-9-9--5-5-5-5--4-4-4-4-5p4-5p4----9-9-9-9--5-5-5-5--4-4-4-4-0h4-0h4--|

e|------------------------------------------|
B|------------------------------------------|
G|-11----12-11-7-9-----11----12-11-7-9------|
D|----9-------------------9-----------------|
A|-9--9--10-9--5-7-----9--9--10-9--5-7------|
D|----9-------------------9-----------------|

e|------------------------------------------|
B|------------------------------------------|
G|-11----12-11-7-9-----11----12-11-7-9------|
D|----9-------------------9-----------------|
A|-9--9--10-9--5-7-----9--9--10-9--5-7------|
D|----9-------------------9-----------------|

Outro:
e|------------------------------------------|
B|------------------------------------------|
G|-11----12-11-7-9-----11----12-11-7-9------|
D|----9-------------------9-----------------|
A|-9--9--10-9--5-7-----9--9--10-9--5-7------|
D|----9-------------------9-----------------|

e|------------------------------------------|
B|------------------------------------------|
G|-11----12-11-7-9-----11----12-11-7-9------|
D|----9-------------------9-----------------|
A|-9--9--10-9--5-7-----9--9--10-9--5-7------|
D|----9-------------------9-----------------|

e|-----------------------------------------------------------------------|
B|-----------------------------------------------------------------------|
G|-----------------------------------------------------------------------|
D|-----4p0-3h4p3p0-----4p0-3h4p3p0-------4p0-3h4p3p0----------------|----|
A|-22---------------2----------------22-----------------------------| ---|
D|------------------------------------------------------------------| ---|
                                                          *Plays together
e|------------------------------------------------------------------| ---|
B|------------------------------------------------------------------| ---|
G|------------------------------------------------------------------|----|
D|-99---------------99---------------99---------------12-12~~~~~~--------|
A|-99---------------99---------------99---------------12-12~~~~~~--------|
D|-99---------------99---------------99---------------12-12~~~~~~--------|

-----------------------------------------------------------------------------
                              Caught In The Middle
-----------------------------------------------------------------------------

Intro:
e|--------------------------------------------------------------------------|
B|--------------------------------------------------------------------------|
G|--------------------------------------------------------------------------|
D|-7-7-7-7-7-7-7-7---7-7-7-7-7-7-7-7---9-9-9-9-9-9-9-9---9-9-9-9-9-9-9-9----|
A|--------------------------------------------------------------------------|
D|--------------------------------------------------------------------------|
pm . . . . . . . .   . . . . . . . .   . . . . . . . .   . . . . . . . .

e|--------------------------------------------------------------------------|
B|--------------------------------------------------------------------------|
G|--------------------------------------------------------------------------|
D|-7-7-7-7-7-7-7-7---7-7-7-7-7-7-7-7---9-9-9-9-9-9-9-9---2-----5----10------|
A|-------------------------------------------------------2-----5----10------|
D|-------------------------------------------------------2-----5----10------|
pm . . . . . . . .   . . . . . . . .   . . . . . . . .

Chorus 1:
e|-----------------------------------------------------|
B|-----------------------------------------------------|
G|-----------------------------------------------------|
D|-77777-333-5555/10-10-10-9-----77777-333-5-2-2/5-5---|
A|-77777-333-5555/10-10-10-9-----77777-333-5-2-2/5-5---|
D|-77777-333-5555/10-10-10-9-----77777-333-5-2-2/5-5---|

e|-----------------------------------------------------|
B|-----------------------------------------------------|
G|-----------------------------------------------------|
D|-77777-333-5555/10-10-10-9-----77777-333--2--5--10---|
A|-77777-333-5555/10-10-10-9-----77777-333--2--5--10---|
D|-77777-333-5555/10-10-10-9-----77777-333--2--5--10---|

After Chorus 1 Music:
(Clean)
e|------------------------------------------------------------------------|
B|------------------------------------------------------------------------|
G|------------------------------------------------------------------------|
D|-------7-----5-7-----7-----7-10-9-----------7-----5-7-----7-----7-10-9--|
A|----7------------------------------------7------------------------------|
D|-7--------7-------7-----7-------------7--------7-------7-----7----------|
                         *Plays together
(distortion)
e|------------------------------------------------------------------------|
B|------------------------------------------------------------------------|
G|------------------------------------------------------------------------|
D|-7~~~~~~----------------------------------------------------------------|
A|-7~~~~~~----------------------------------------------------------------|
D|-7~~~~~~----------------------------------------------------------------|

Verse 1:
(Clean)
e|------------------------------------------------------------------------|
B|------------------------------------------------------------------------|
G|------------------------------------------------------------------------|
D|-------7-----5-7-----7-----7-10-9-----------7-----5-7-----7-----7-10-9--|
A|----7------------------------------------7------------------------------|
D|-7--------7-------7-----7-------------7--------7-------7-----7----------|
                         *Plays together
(Distortion)
e|------------------------------------------------------------------------|
B|------------------------------------------------------------------------|
G|------------------------------------------------------------------------|
D|-7\---------------------------------------------------------------------|
A|-7\---------------------------------------------------------------------|
D|-7\---------------------------------------------------------------------|

e|------------------------------------------------------------------------|
B|------------------------------------------------------------------------|
G|------------------------------------------------------------------------|
D|-------7-----5-7-----7-----7-10-9-----------7-----5-7-----7-----7-10-9--|
A|----7------------------------------------7------------------------------|
D|-7--------7-------7-----7-------------7--------7-------7-----7----------|


e|---------------------------------------------------|
B|---------------------------------------------------|
G|-------9--------10--------9--------9--------7------|
D|---------------------------------------------------|X4
A|----7--------7---------7--------7--------7---------|
D|-7--------7---------7--------7--------7------------|

Pre-Chorus 1:
(Distortion)
e|--------------------------------------------------------------------------|
B|--------------------------------------------------------------------------|
G|--------------------------------------------------------------------------|
D|-7-7-7-7-7-7-7-7---7-7-7-7-7-7-7-7---9-9-9-9-9-9-9-9---9-9-9-9-9-9-9-9----|
A|--------------------------------------------------------------------------|
D|--------------------------------------------------------------------------|
pm . . . . . . . .   . . . . . . . .   . . . . . . . .   . . . . . . . .

e|--------------------------------------------------------------------------|
B|--------------------------------------------------------------------------|
G|--------------------------------------------------------------------------|
D|-7-7-7-7-7-7-7-7---7-7-7-7-7-7-7-7---9-9-9-9-9-9-9-9---2-----5----10------|
A|-------------------------------------------------------2-----5----10------|
D|-------------------------------------------------------2-----5----10------|
pm . . . . . . . .   . . . . . . . .   . . . . . . . .

Chorus 2:
e|-----------------------------------------------------|
B|-----------------------------------------------------|
G|-----------------------------------------------------|
D|-77777-333-5555/10-10-10-9-----77777-333-5-2-2/5-5---|
A|-77777-333-5555/10-10-10-9-----77777-333-5-2-2/5-5---|
D|-77777-333-5555/10-10-10-9-----77777-333-5-2-2/5-5---|

e|-----------------------------------------------------|
B|-----------------------------------------------------|
G|-----------------------------------------------------|
D|-77777-333-5555/10-10-10-9-----77777-333--2--5--10---|
A|-77777-333-5555/10-10-10-9-----77777-333--2--5--10---|
D|-77777-333-5555/10-10-10-9-----77777-333--2--5--10---|

Verse 2:
(Clean)
e|------------------------------------------------------------------------|
B|------------------------------------------------------------------------|
G|------------------------------------------------------------------------|
D|-------7-----5-7-----7-----7-10-9-----------7-----5-7-----7-----7-10-9--|X2
A|----7------------------------------------7------------------------------|
D|-7--------7-------7-----7-------------7--------7-------7-----7----------|


e|---------------------------------------------------|
B|---------------------------------------------------|
G|-------9--------10--------9--------9--------7------|
D|---------------------------------------------------|X4
A|----7--------7---------7--------7--------7---------|
D|-7--------7---------7--------7--------7------------|


Pre-Chorus 2:
(Distortion)
e|--------------------------------------------------------------------------|
B|--------------------------------------------------------------------------|
G|--------------------------------------------------------------------------|
D|-7-7-7-7-7-7-7-7---7-7-7-7-7-7-7-7---9-9-9-9-9-9-9-9---9-9-9-9-9-9-9-9----|
A|--------------------------------------------------------------------------|
D|--------------------------------------------------------------------------|
pm . . . . . . . .   . . . . . . . .   . . . . . . . .   . . . . . . . .

e|--------------------------------------------------------------------------|
B|--------------------------------------------------------------------------|
G|--------------------------------------------------------------------------|
D|-7-7-7-7-7-7-7-7---7-7-7-7-7-7-7-7---9-9-9-9-9-9-9-9---2-----5----10------|
A|-------------------------------------------------------2-----5----10------|
D|-------------------------------------------------------2-----5----10------|
pm . . . . . . . .   . . . . . . . .   . . . . . . . .

Chorus 3:
e|-----------------------------------------------------|
B|-----------------------------------------------------|
G|-----------------------------------------------------|
D|-77777-333-5555/10-10-10-9-----77777-333-5-2-2/5-5---|
A|-77777-333-5555/10-10-10-9-----77777-333-5-2-2/5-5---|
D|-77777-333-5555/10-10-10-9-----77777-333-5-2-2/5-5---|

e|-----------------------------------------------------|
B|-----------------------------------------------------|
G|-----------------------------------------------------|
D|-77777-333-5555/10-10-10-9-----77777-333--2--5--10---|
A|-77777-333-5555/10-10-10-9-----77777-333--2--5--10---|
D|-77777-333-5555/10-10-10-9-----77777-333--2--5--10---|

Bridge:
e|----------------------------------------------------------|
B|----------------------------------------------------------|
G|-5-5-5-5--5/7-7--7/12-12-12-12\---------------------------|
D|-----------------------------------77777-333-5-2-2/10-10--|
A|-3-3-3-3--3/5-5--5/10-10-10-10\----77777-333-5-2-2/10-10--|
D|-----------------------------------77777-333-5-2-2/10-10--|

e|----------------------------------------------------------|
B|----------------------------------------------------------|
G|-5-5-5-5--5/7-7--7/12-12-12-12\---------------------------|
D|-----------------------------------77777-333-5-2-2/10-10--|
A|-3-3-3-3--3/5-5--5/10-10-10-10\----77777-333-5-2-2/10-10--|
D|-----------------------------------77777-333-5-2-2/10-10--|

e|----------------------------------------------------------|
B|----------------------------------------------------------|
G|-5-5-5-5--5/7-7--7/12-12-12-12\---------------------------|
D|-----------------------------------77777-333-5-2-2/10-10--|
A|-3-3-3-3--3/5-5--5/10-10-10-10\----77777-333-5-2-2/10-10--|
D|-----------------------------------77777-333-5-2-2/10-10--|

e|----------------------------------------------------------------------|
B|----------------------------------------------------------------------|
G|----------------------------------------------------------------------|
D|-77777-333-5-2-2/10-10---77777-333-5-2-2/10-10---77777-333-5-2-2/5-5--|
A|-77777-333-5-2-2/10-10---77777-333-5-2-2/10-10---77777-333-5-2-2/5-5--|
D|-77777-333-5-2-2/10-10---77777-333-5-2-2/10-10---77777-333-5-2-2/5-5--|

e|-----------------------------------------------------------------------|
B|-----------------------------------------------------------------------|
G|-----------------------------------------------------------------------|
D|-7~~~~~~------------------------------------------2--5--10----2--5-10--|
A|-7~~~~~~------------------------------------------2--5--10----2--5-10--|
D|-7~~~~~~------------------------------------------2--5--10----2--5-10--|
                   *Plays together
(Clean)
e|-----------------------------------------------------------------------|
B|-----------------------------------------------------------------------|
G|-----------------------------------------------------------------------|
D|-----7------7------7------7------7------7------7-----------------------|
A|---7------7------7------7------7------7------7-------------------------|
D|-7------7------7------7------7------7------7---------------------------|

Chorus 4:
e|-----------------------------------------------------|
B|-----------------------------------------------------|
G|-----------------------------------------------------|
D|-77777-333-5555/10-10-10-9-----77777-333-5-2-2/5-5---|
A|-77777-333-5555/10-10-10-9-----77777-333-5-2-2/5-5---|
D|-77777-333-5555/10-10-10-9-----77777-333-5-2-2/5-5---|

e|-----------------------------------------------------|
B|-----------------------------------------------------|
G|-----------------------------------------------------|
D|-77777-333-5555/10-10-10-9-----77777-333--2--5--10---|
A|-77777-333-5555/10-10-10-9-----77777-333--2--5--10---|
D|-77777-333-5555/10-10-10-9-----77777-333--2--5--10---|

Chorus 4 Repeat:
e|-----------------------------------------------------|
B|-----------------------------------------------------|
G|-----------------------------------------------------|
D|-77777-333-5555/10-10-10-9-----77777-333-5-2-2/5-5---|
A|-77777-333-5555/10-10-10-9-----77777-333-5-2-2/5-5---|
D|-77777-333-5555/10-10-10-9-----77777-333-5-2-2/5-5---|

e|-----------------------------------------------------|
B|-----------------------------------------------------|
G|-----------------------------------------------------|
D|-77777-333-5555/10-10-10-9-----77777-333--2--5--10---|
A|-77777-333-5555/10-10-10-9-----77777-333--2--5--10---|
D|-77777-333-5555/10-10-10-9-----77777-333--2--5--10---|

e|-------------|
B|-------------|
G|-------------|
D|-7~~~~~~-----|
A|-7~~~~~~-----|
D|-7~~~~~~-----|


-----------------------------------------------------------------------------
                               Know What It Means
-----------------------------------------------------------------------------

Intro 1:
e|-------------------------------------------------------------------------|
B|-------------------------------------------------------------------------|
G|-------------------------------------------------------------------------|
D|-5-5-5---0-0-00--3-2-22--0-0-00--5-5-5----0-0-00--3-2-22--0-0-00--5-5-5--|
A|-5-5-5---0-0-00--3-2-22--0-0-00--5-5-5----0-0-00--3-2-22--0-0-00--5-5-5--|
D|-5-5-5---0-0-00--3-2-22--0-0-00--5-5-5----0-0-00--3-2-22--0-0-00--5-5-5--|

Intro 2:
e|------------------------------------------------------|
B|------------------------------------------------------|
G|------------------------------------------------------|
D|--5-5-5--10-10-10--0~------5-5-5--10-10-10--0~~~------|
A|--5-5-5--10-10-10--0~------5-5-5--10-10-10--0~~~------|
D|--5-5-5--10-10-10--0~~~----5-5-5--10-10-10--0~~~------|

e|------------------------------------------------------|
B|------------------------------------------------------|
G|------------------------------------------------------|
D|--5-5-5--10-10-10--0~------5-5-5--10-10-10--0~~~------|
A|--5-5-5--10-10-10--0~------5-5-5--10-10-10--0~~~------|
D|--5-5-5--10-10-10--0~~~----5-5-5--10-10-10--0~~~------|

e|------------------------------------------|
B|------------------------------------------|
G|------------------------------------------|
D|------------------------------------------|
A|-3/5-5-0-8-7-7p0----3/5-5-5-10-10-10-10---|
D|------------------------------------------|

Verse 1:
e|--------------------------------------------|
B|--------------------------------------------|
G|--------------------------------------------|
D|-7--5--5h7--5-5-5------7--5h7--5h7--5-5-5---|
A|-5--5--5-5--3-3-3------5--5-5--5-5--3-3-3---|
D|--------------------------------------------|

e|--------------------------------------------|
B|--------------------------------------------|
G|--------------------------------------------|
D|-7--5--5h7--5-5-5------7---7--5h7--5-5-5----|
A|-5--5--5-5--3-3-3------5---5--5-5--3-3-3----|
D|--------------------------------------------|

Pre-Chorus 1:
e|------------------------------------------------------|
B|------------------------------------------------------|
G|------------------------------------------------------|
D|--5-5-5--10-10-10--0~~~----5-5-5--10-10-10--0~~~------|
A|--5-5-5--10-10-10--0~~~----5-5-5--10-10-10--0~~~------|
D|--5-5-5--10-10-10--0~~~----5-5-5--10-10-10--0~~~------|

e|------------------------------------------------------|
B|------------------------------------------------------|
G|------------------------------------------------------|
D|--5-5-5--10-10-10--0~~~----5-5-5--10-10-10------------|
A|--5-5-5--10-10-10--0~~~----5-5-5--10-10-10------------|
D|--5-5-5--10-10-10--0~~~----5-5-5--10-10-10------------|

Chorus 1:
e|------------------------------------------------|
B|------------------------------------------------|
G|------------------------------------------------|
D|------------------------------------------------|
A|-3/5-5-0-8-7-7-0----3/5-5-5-10-10-10-10---------|
D|------------------------------------------|-----|
                                               X2
e|------------------------------------------|-----|
B|------------------------------------------------|
G|------------------------------------------------|
D|------------------------------------------------|
A|-3/5-5-0-8-7-7-0----3/5-5-5-3~~~~~--------------|
D|------------------------------------------------|

Verse 2:
e|--------------------------------------------|
B|--------------------------------------------|
G|--------------------------------------------|
D|-7--5--5h7--5-5-5------7--5h7--5h7--5-5-5---|
A|-5--5--5-5--3-3-3------5--5-5--5-5--3-3-3---|
D|--------------------------------------------|

e|--------------------------------------------|
B|--------------------------------------------|
G|--------------------------------------------|
D|-7--5--5h7--5-5-5------7---7--5h7--5-5-5----|
A|-5--5--5-5--3-3-3------5---5--5-5--3-3-3----|
D|--------------------------------------------|

e|-------------------|
B|-------------------|
G|-------------------|
D|--5-5-5--10-10-10--|
A|--5-5-5--10-10-10--|
D|--5-5-5--10-10-10--|

Pre-Chorus 2:
e|------------------------------------------------------|
B|------------------------------------------------------|
G|------------------------------------------------------|
D|--5-5-5--10-10-10--0~~~----5-5-5--10-10-10--0~~~------|
A|--5-5-5--10-10-10--0~~~----5-5-5--10-10-10--0~~~------|
D|--5-5-5--10-10-10--0~~~----5-5-5--10-10-10--0~~~------|

e|------------------------------------------------------|
B|------------------------------------------------------|
G|------------------------------------------------------|
D|--5-5-5--10-10-10--0~~~----5-5-5--10-10-10------------|
A|--5-5-5--10-10-10--0~~~----5-5-5--10-10-10------------|
D|--5-5-5--10-10-10--0~~~----5-5-5--10-10-10------------|

Chorus 2:
e|------------------------------------------------|
B|------------------------------------------------|
G|------------------------------------------------|
D|------------------------------------------------|
A|-3/5-5-0-8-7-7-0----3/5-5-5-10-10-10-10---------|
D|------------------------------------------|-----|
                                               X2
e|------------------------------------------|-----|
B|------------------------------------------------|
G|------------------------------------------------|
D|------------------------------------------------|
A|-3/5-5-0-8-7-7-0----3/5-5-5-3~~~~~--------------|
D|------------------------------------------------|

Right before solo:
e|-1-1-1---1-1-1---|
B|-3-3-3---3-3-3---|
G|-2-2-2---2-2-2---|
D|-----------------|
A|-----------------|
D|-----------------|

Solo:
NOTE: You can only faintly here the hammer-ons in the
beginning of the solo. That is the reasoning for the brackets.

e|-(0h)1-(0h)3-----(3)----(3)----(3)---(3)----(3)----(3)---|
B|---------------3------1------0------------0------1-------|
G|-----------------------------------2---------------------|
D|---------------------------------------------------------|X4
A|---------------------------------------------------------|
D|---------------------------------------------------------|

Pre-Chorus 3:
e|------------------------------------------------------|
B|------------------------------------------------------|
G|------------------------------------------------------|
D|--5-5-5--10-10-10--0-------5-5-5--10-10-10--0---------|
A|--5-5-5--10-10-10--0-------5-5-5--10-10-10--0---------|
D|--5-5-5--10-10-10--0-------5-5-5--10-10-10--0---------|

e|------------------------------------------------------|
B|------------------------------------------------------|
G|------------------------------------------------------|
D|--5-5-5--10-10-10--0~~~----5-5-5--10-10-10------------|
A|--5-5-5--10-10-10--0~~~----5-5-5--10-10-10------------|
D|--5-5-5--10-10-10--0~~~----5-5-5--10-10-10------------|

Chorus 3:
e|------------------------------------------------|
B|------------------------------------------------|
G|------------------------------------------------|
D|------------------------------------------------|
A|-3/5-5-0-8-7-7-0----3/5-5-5-10-10-10-10---------|
D|------------------------------------------|-----|
                                               X4
e|------------------------------------------|-----|
B|------------------------------------------------|
G|------------------------------------------------|
D|------------------------------------------------|
A|-3/5-5-0-8-7-7-0----3/5-5-5-3~~~~~--------------|
D|------------------------------------------------|

e|-------------------------|
B|-------------------------|
G|-------------------------|
D|--5-5-5--10-10-10--0~~~--|
A|--5-5-5--10-10-10--0~~~--|
D|--5-5-5--10-10-10--0~~~--|

-----------------------------------------------------------------------------
                                Salem's Suburbs
-----------------------------------------------------------------------------

Intro
(Clean)
e|-----------------|
B|-----------------|
G|-10---10--9--7---|
D|-----------------|X4
A|-8----8---7--5---|
D|-----------------|

Intro 2
e|-----------------------|
B|-----------------------|
G|-10---10--9--7---------|
D|-----------------|-----|
A|-8----8---7--5---|  ---|
D|-----------------|  ---|X2
            *Plays together
(Distortion)           |
e|------------|       ---|
B|------------|       ---|
G|------------|----------|
D|----77-5~~-------------|
A|-55--------------------|

Verse 1a:
e|-----------------------------------|
B|-----------------------------------|
G|-----------------------------------|
D|----77-5~~~---------77-5~~~--------|
A|-55-------------55-----------------|
D|-----------------------------------|


Pre-Chorus 1a:
e|------------------------------------------|
B|------------------------------------------|
G|-xx-10---10--9--7--------10---10--9--7----|
D|-xx---------------------------------------|
A|-xx-8----8---7--5--------8----8---7--5----|
D|-xx---------------------------------------|


Verse 1b:
e|-----------------------------------|
B|-----------------------------------|
G|-----------------------------------|
D|----77-5~~~---------77-5~~~--------|
A|-55-------------55-----------------|
D|-----------------------------------|

Pre-Chorus 1b:
e|------------------------------------------|
B|------------------------------------------|
G|-xx-10---10--9--7--------10---10--9--7----|
D|-xx---------------------------------------|
A|-xx-8----8---7--5--------8----8---7--5----|
D|-xx---------------------------------------|

Chorus 1:
e|------------------------------------------------------------|
B|------------------------------------------------------------|
G|------------------------------------------------------------|
D|-12-12-12-12--12-12-12-12--12~---5-5-5-5--8-8-8-8-10~-------|
A|-12-12-12-12--12-12-12-12--12~---5-5-5-5--8-8-8-8-10~--|----|
D|-12-12-12-12--12-12-12-12--12~---5-5-5-5--8-8-8-8-10~--| ---|
                                                            X2
e|-------------------------------------------------------| ---|
B|-------------------------------------------------------|----|
G|------------------------------------------------------------|
D|-12-12-12-12--12-12-12-12--12~---5-5-5-5--8-8-8-8-3~--------|
A|-12-12-12-12--12-12-12-12--12~---5-5-5-5--8-8-8-8-3~--------|
D|-12-12-12-12--12-12-12-12--12~---5-5-5-5--8-8-8-8-3~--------|

Verse 2:
e|-----------------------------------|
B|-----------------------------------|
G|-----------------------------------|
D|----77-5~~~---------77-5~~~--------|
A|-55-------------55-----------------|
D|-----------------------------------|

Pre-Chorus 2:
e|------------------------------------------|
B|------------------------------------------|
G|-xx-10---10--9--7--------10---10--9--7----|
D|-xx---------------------------------------|
A|-xx-8----8---7--5--------8----8---7--5----|
D|-xx---------------------------------------|

Chorus 2:
e|------------------------------------------------------------|
B|------------------------------------------------------------|
G|------------------------------------------------------------|
D|-12-12-12-12--12-12-12-12--12~---5-5-5-5--8-8-8-8-10~-------|
A|-12-12-12-12--12-12-12-12--12~---5-5-5-5--8-8-8-8-10~--|----|
D|-12-12-12-12--12-12-12-12--12~---5-5-5-5--8-8-8-8-10~--| ---|
                                                            X2
e|-------------------------------------------------------| ---|
B|-------------------------------------------------------|----|
G|------------------------------------------------------------|
D|-12-12-12-12--12-12-12-12--12~---5-5-5-5--8-8-8-8-3~--------|
A|-12-12-12-12--12-12-12-12--12~---5-5-5-5--8-8-8-8-3~--------|
D|-12-12-12-12--12-12-12-12--12~---5-5-5-5--8-8-8-8-3~--------|

Bridge:
NOTE: This is done once when it goes quiet, then
section 2 is when it goes loud...which is done 8 times.

Section 1:
e|--------------------------------|
B|--------------------------------|
G|-7-7-7-----7-7-7-----7-7--------|
D|--------8---------7-------5-----|
A|-5-5-5--8--5-5-5--7--5-5--5-----|
D|--------8---------7-------5-----|

Section 2:
e|--------------------------------|
B|--------------------------------|
G|-7-7-7-----7-7-7-----7-7--------|
D|--------8---------7-------5-----|X8
A|-5-5-5--8--5-5-5--7--5-5--5-----|
D|--------8---------7-------5-----|

Pre-Chorus 3:
e|----------------------------------------|
B|----------------------------------------|
G|--10---10--9--7--------10---10--9--7----|
D|----------------------------------------|
A|--8----8---7--5--------8----8---7--5----|
D|----------------------------------------|

Chorus 2:
e|------------------------------------------------------------|
B|------------------------------------------------------------|
G|------------------------------------------------------------|
D|-12-12-12-12--12-12-12-12--12~---5-5-5-5--8-8-8-8-10~-------|
A|-12-12-12-12--12-12-12-12--12~---5-5-5-5--8-8-8-8-10~--|----|
D|-12-12-12-12--12-12-12-12--12~---5-5-5-5--8-8-8-8-10~--| ---|
                                                            X2
e|-------------------------------------------------------| ---|
B|-------------------------------------------------------|----|
G|------------------------------------------------------------|
D|-12-12-12-12--12-12-12-12--12~---5-5-5-5--8-8-8-8-3~--------|
A|-12-12-12-12--12-12-12-12--12~---5-5-5-5--8-8-8-8-3~--------|
D|-12-12-12-12--12-12-12-12--12~---5-5-5-5--8-8-8-8-3~--------|


e|------------------------------------------------------------|
B|------------------------------------------------------------|
G|------------------------------------------------------------|
D|-12-12-12-12--12-12-12-12--12~---5-5-5-5--8-8-8-8-10~-------|
A|-12-12-12-12--12-12-12-12--12~---5-5-5-5--8-8-8-8-10~--|----|
D|-12-12-12-12--12-12-12-12--12~---5-5-5-5--8-8-8-8-10~--| ---|
                                                            X2
e|-------------------------------------------------------|  |------|
B|-------------------------------------------------------|--|      |
G|-------------------------------------------------------|         |
D|-12-12-12-12--12-12-12-12--12~---5-5-5-5--8-8-8-8-3~---|         |
A|-12-12-12-12--12-12-12-12--12~---5-5-5-5--8-8-8-8-3~---|         |
D|-12-12-12-12--12-12-12-12--12~---5-5-5-5--8-8-8-8-3~---|         |
                                                        *Plays together.
e|---------------------------------------------|                  ---|
B|---------------------------------------------|                  ---|
G|-10-8-10-8-10-8-10-8---10-8-10-8-10-8-10-8---|---------------------|
D|-------------------------------------------------------------------|
A|-------------------------------------------------------------------|
E|-------------------------------------------------------------------|

-----------------------------------------------------------------------------
                         ...A Word From Our Sponsors
-----------------------------------------------------------------------------

Intro:
e|------------------------------------|
B|------------------------------------|
G|------------------------------------|
D|-----4p0-3h4p3p0-----4p0-3h4p3p0----|
A|-22---------------2-----------------|
D|------------------------------------|

NOTE: You can very faintly hear this...
it almost sound like a trinkling of water or something...
somehow I tabbed this and these notes below sound 100%
perfect!
e|-19-15-14-----19-15-14-------15-19-15-14-------15-19-15-14---|
B|-------------------------------------------------------------|
G|-------------------------------------------------------------|
D|-------------------------------------------------------------|
A|-------------------------------------------------------------|
D|-------------------------------------------------------------|

-----------------------------------------------------------------------------
                                     S.M.C.
                                     Drop D
-----------------------------------------------------------------------------

Intro:
e|-------------------------------------------------|
B|-------------------------------------------------|
G|-------------------------------------------------|
D|-000-333-55-666-555-33---000-333-55-666-555-33---|
A|-000-333-55-666-555-33---000-333-55-666-555-33---|
D|-000-333-55-666-555-33---000-333-55-666-555-33---|

e|-------------------------------------------------|
B|-------------------------------------------------|
G|-------------------------------------------------|
D|-000-333-55-666-555-33---000-333-55-666-555-33---|
A|-000-333-55-666-555-33---000-333-55-666-555-33---|
D|-000-333-55-666-555-33---000-333-55-666-555-33---|

Verse 1:
e|--------------------|
B|-15-------13--------|
G|-------14-----------|
D|---------------12\--|
A|---------------12\--|
d|---------------12\--|

e|-------------------------------------------------|
B|-------------------------------------------------|
G|-------------------------------------------------|
D|-000-333-55-666-555-33---000-333-55-666-555-33---|
A|-000-333-55-666-555-33---000-333-55-666-555-33---|
D|-000-333-55-666-555-33---000-333-55-666-555-33---|

e|--------------------|
B|-15-------13--------|
G|-------14-----------|
D|---------------12\--|
A|---------------12\--|
d|---------------12\--|

e|-------------------------------------------------|
B|-------------------------------------------------|
G|-------------------------------------------------|
D|-000-333-55-666-555-33---000-333-55-666-555-33---|
A|-000-333-55-666-555-33---000-333-55-666-555-33---|
D|-000-333-55-666-555-33---000-333-55-666-555-33---|

Pre-Chorus 1:
e|-------------------------------------------------------------|
B|-------------------------------------------------------------|
G|-------------------------------------------------------------|
D|-8-8-8-8-8-8-8-8-8/10-10-10-10-10-10-10---*10-*10---*10-*10--|
A|-8-8-8-8-8-8-8-8-8/10-10-10-10-10-10-10---*10-*10---*10-*10--|
D|-8-8-8-8-8-8-8-8-8/10-10-10-10-10-10-10---*10-*10---*10-*10--|

e|----------------------------------------------------------------------|
B|----------------------------------------------------------------------|
G|----------------------------------------------------------------------|
D|-8-8-8-8-8-8-8-8-8/10-10-10-10-10-10-10---12-12-12-12-0-12-12-0-0-12--|
A|-8-8-8-8-8-8-8-8-8/10-10-10-10-10-10-10---12-12-12-12-0-12-12-0-0-12--|
D|-8-8-8-8-8-8-8-8-8/10-10-10-10-10-10-10---12-12-12-12-0-12-12-0-0-12--|

Chorus 1:
e|------------------------------------------|
B|------------------------------------------|
G|------------------------------------------|
D|-0--6-5-33---6-5-12-12---0--6-5-33--8~----|X2
A|-0--6-5-33---6-5-12-12---0--6-5-33--8~----|
D|-0--6-5-33---6-5-12-12---0--6-5-33--8~----|

Verse 2:
e|--------------------|
B|-15-------13--------|
G|-------14-----------|
D|---------------12\--|
A|---------------12\--|
d|---------------12\--|

e|-------------------------------------------------|
B|-------------------------------------------------|
G|-------------------------------------------------|
D|-000-333-55-666-555-33---000-333-55-666-555-33---|
A|-000-333-55-666-555-33---000-333-55-666-555-33---|
D|-000-333-55-666-555-33---000-333-55-666-555-33---|

e|--------------------|
B|-15-------13--------|
G|-------14-----------|
D|---------------12\--|
A|---------------12\--|
d|---------------12\--|

e|-------------------------------------------------|
B|-------------------------------------------------|
G|-------------------------------------------------|
D|-000-333-55-666-555-33---000-333-55-666-555-33---|
A|-000-333-55-666-555-33---000-333-55-666-555-33---|
D|-000-333-55-666-555-33---000-333-55-666-555-33---|

Pre-Chorus 2:
e|-------------------------------------------------------------|
B|-------------------------------------------------------------|
G|-------------------------------------------------------------|
D|-8-8-8-8-8-8-8-8-8/10-10-10-10-10-10-10---*10-*10---*10-*10--|
A|-8-8-8-8-8-8-8-8-8/10-10-10-10-10-10-10---*10-*10---*10-*10--|
D|-8-8-8-8-8-8-8-8-8/10-10-10-10-10-10-10---*10-*10---*10-*10--|

e|----------------------------------------------------------------------|
B|----------------------------------------------------------------------|
G|----------------------------------------------------------------------|
D|-8-8-8-8-8-8-8-8-8/10-10-10-10-10-10-10---12-12-12-12-0-12-12-0-0-12--|
A|-8-8-8-8-8-8-8-8-8/10-10-10-10-10-10-10---12-12-12-12-0-12-12-0-0-12--|
D|-8-8-8-8-8-8-8-8-8/10-10-10-10-10-10-10---12-12-12-12-0-12-12-0-0-12--|

Chorus 2:
e|------------------------------------------|
B|------------------------------------------|
G|------------------------------------------|
D|-0--6-5-33---6-5-12-12---0--6-5-33--8~----|X4
A|-0--6-5-33---6-5-12-12---0--6-5-33--8~----|
D|-0--6-5-33---6-5-12-12---0--6-5-33--8~----|

e|-----------|
B|-----------|
G|-----------|
D|-0~~~~~~---|
A|-0~~~~~~---|
E|-0~~~~~~---|

Bridge 1 (solo):
NOTE: This solo is a mess...bare with me...
e|-18-18-18-17-17-17-16-16-16-15-15-15-14-14-14-13-13-13/--|
B|---------------------------------------------------------|
G|---------------------------------------------------------|
D|---------------------------------------------------------|X2
A|---------------------------------------------------------|
E|---------------------------------------------------------|
Ya...I know what you're thinking...

Bridge 2:
e|-----------------------------------------|
B|-----------------------------------------|
G|-----------------------------------------|
D|-----------------------------------------|X4
A|-----5-------6-------5-------------------|
E|-0-6-----0-6-----0-6-----0-3-5-6-5-3-5---|

Chorus 3 (quiet):
e|------------------------------------------------|
B|------------------------------------------------|
G|------------------------------------------------|
D|-0--6-5-33---6-5-12-12---0--6-5-33--6-5-12-12---|
A|-0--6-5-33---6-5-12-12---0--6-5-33--6-5-12-12---|
D|-0--6-5-33---6-5-12-12---0--6-5-33--6-5-12-12---|

e|------------------------------------------|
B|------------------------------------------|
G|------------------------------------------|
D|-0--6-5-33---6-5-12-12---0--6-5-33--8~----|
A|-0--6-5-33---6-5-12-12---0--6-5-33--8~----|
D|-0--6-5-33---6-5-12-12---0--6-5-33--8~----|

Chorus 3 (loud):
e|------------------------------------------|
B|------------------------------------------|
G|------------------------------------------|
D|-0--6-5-33---6-5-12-12---0--6-5-33--8~----|X4
A|-0--6-5-33---6-5-12-12---0--6-5-33--8~----|
D|-0--6-5-33---6-5-12-12---0--6-5-33--8~----|

e|------------------|
B|------------------|
G|------------------|
D|-6--6--6--6--6\---|
A|-6--6--6--6--6\---|
D|-6--6--6--6--6\---|

-----------------------------------------------------------------------------
                                  Team Black
-----------------------------------------------------------------------------

Intro:
(Clean)
e|----------------------------------------|
B|----------------------------------------|
G|----------------------------------------|
D|-----4------4-2-0---------4------4-2-0--|
A|---2------0-------------2------0--------|
D|-2------0-------------2------0----------|

Chorus 1:
(Distortion)
e|------------------------------------------------|
B|------------------------------------------------|
G|----------------------------12-12-12--12-11-11--|
D|-0-22202--2222-2p0-000000-0---------------------|
A|-0-22202--2222-2p0-000000-0-10-10-10--10-9--9---|
D|-0-22202--2222-2p0-000000-0---------------------|

e|------------------------------------------------|
B|------------------------------------------------|
G|------------------------------------------------|
D|-22202--2222-2p0-000000-055-5/10-10-------------|
A|-22202--2222-2p0-000000-055-5/10-10-------------|
D|-22202--2222-2p0-000000-055-5/10-10-------------|

After- Chorus 1 Music:
e|------------------------------------------------------------------------------------|
B|------------------------------------------------------------------------------------|
G|------------------------------------------------------------------------------------|
D|-2~~~~~~----------------------------------------------------------------------------|
A|-2~~~~~~----------------------------------------------------------------------------|
D|-2~~~~~~----------------------------------------------------------------------------|
       *Plays together.
(Clean)
e|-------------------|
B|-------------------|
G|-------------------|
D|-----4------4-2-0--|
A|---2------0--------|
D|-2------0----------|

Verse 1:
e|----------------------------------------|
B|----------------------------------------|
G|----------------------------------------|
D|-----4------4-2-0---------4------4-2-0--|
A|---2------0-------------2------0--------|
D|-2------0-------------2------0----------|

e|-------------------|
B|-------------------|
G|-------------------|
D|-----4------4-2-0--|
A|---2------0--------|
D|-2------0----------|

Pre-Chorus 1:
(Distortion)
e|--------------------------------------|
B|--------------------------------------|
G|--------------------------------------|
D|-22202-xxxxxxxxxx-22202---------------|
A|-22202-xxxxxxxxxx-22202---------------|
D|-22202-xxxxxxxxxx-22202-*Pick-scrape--|

Chorus 2:
e|------------------------------------------------------------------|
B|------------------------------------------------------------------|
G|--------------------------------------------12-12-12-12\11-11-11--|
D|-0h222---0h222---0h222---0h22-22p0000000-0------------------------|
A|-0h222---0h222---0h222---0h22-22p0000000-0--10-10-10-10\9--9--9---|
D|-0h222---0h222---0h222---0h22-22p0000000-0------------------------|

e|------------------------------------------------------------------|
B|------------------------------------------------------------------|
G|--------------------------------------------12-12-12-12\11-11-11--|
D|-0h222---0h222---0h222---0h22-22p0000000-0------------------------|
A|-0h222---0h222---0h222---0h22-22p0000000-0--10-10-10-10\9--9--9---|
D|-0h222---0h222---0h222---0h22-22p0000000-0------------------------|

e|------------------------------------------------|
B|------------------------------------------------|
G|------------------------------------------------|
D|-22202--2222-2p0-000000-055-5/10-10-------------|
A|-22202--2222-2p0-000000-055-5/10-10-------------|
D|-22202--2222-2p0-000000-055-5/10-10-------------|

e|------------------------------------------------|
B|------------------------------------------------|
G|------------------------------------------------|
D|-22202--2222-2p0-000000-055-5/10-10-------------|
A|-22202--2222-2p0-000000-055-5/10-10-------------|
D|-22202--2222-2p0-000000-055-5/10-10-------------|

After- Chorus 2 Music:
e|------------------------------------------------------------------------------------|
B|------------------------------------------------------------------------------------|
G|------------------------------------------------------------------------------------|
D|-2~~~~~~----------------------------------------------------------------------------|
A|-2~~~~~~----------------------------------------------------------------------------|
D|-2~~~~~~----------------------------------------------------------------------------|
       *Plays together.
(Clean)
e|-------------------|
B|-------------------|
G|-------------------|
D|-----4------4-2-0--|
A|---2------0--------|
D|-2------0----------|

Verse 2:
e|----------------------------------------|
B|----------------------------------------|
G|----------------------------------------|
D|-----4------4-2-0---------4------4-2-0--|
A|---2------0-------------2------0--------|
D|-2------0-------------2------0----------|

e|-------------------|
B|-------------------|
G|-------------------|
D|-----4------4-2-0--|
A|---2------0--------|
D|-2------0----------|

Pre-Chorus 2:
(Distortion)
e|--------------------------------------|
B|--------------------------------------|
G|--------------------------------------|
D|-22202-xxxxxxxxxx-22202---------------|
A|-22202-xxxxxxxxxx-22202---------------|
D|-22202-xxxxxxxxxx-22202-*Pick-scrape--|

Chorus 2:
e|------------------------------------------------------------------|
B|------------------------------------------------------------------|
G|--------------------------------------------12-12-12-12\11-11-11--|
D|-0h222---0h222---0h222---0h22-22p0000000-0------------------------|
A|-0h222---0h222---0h222---0h22-22p0000000-0--10-10-10-10\9--9--9---|
D|-0h222---0h222---0h222---0h22-22p0000000-0------------------------|

e|------------------------------------------------------------------|
B|------------------------------------------------------------------|
G|--------------------------------------------12-12-12-12\11-11-11--|
D|-0h222---0h222---0h222---0h22-22p0000000-0------------------------|
A|-0h222---0h222---0h222---0h22-22p0000000-0--10-10-10-10\9--9--9---|
D|-0h222---0h222---0h222---0h22-22p0000000-0------------------------|


e|------------------------------------------------|
B|------------------------------------------------|
G|------------------------------------------------|
D|-22202--2222-2p0-000000-055-5/10-10-------------|
A|-22202--2222-2p0-000000-055-5/10-10-------------|
D|-22202--2222-2p0-000000-055-5/10-10-------------|

e|------------------------------------------------|
B|------------------------------------------------|
G|------------------------------------------------|
D|-22202--2222-2p0-000000-055-5/10-10-------------|
A|-22202--2222-2p0-000000-055-5/10-10-------------|
D|-22202--2222-2p0-000000-055-5/10-10-------------|

Bridge:
e|----------------------|
B|----------------------|
G|----------------------|
D|-2~~~~~~--------------|
A|-2~~~~~~--------------|
E|-2~~~~~~---12\--------|

Pre-Chorus 2:
e|--------------------------------------|
B|-------xxxxxxxxxx---------------------|
G|-------xxxxxxxxxx---------------------|
D|-22202-xxxxxxxxxx-22202---------------|
A|-22202-xxxxxxxxxx-22202---------------|
D|-22202-xxxxxxxxxx-22202-*Pick-scrape--|

Chorus 4:
e|------------------------------------------------------------------|
B|------------------------------------------------------------------|
G|--------------------------------------------12-12-12-12\11-11-11--|
D|-0h222---0h222---0h222---0h22-22p0000000-0------------------------|
A|-0h222---0h222---0h222---0h22-22p0000000-0--10-10-10-10\9--9--9---|
D|-0h222---0h222---0h222---0h22-22p0000000-0------------------------|

e|------------------------------------------------------------------|
B|------------------------------------------------------------------|
G|--------------------------------------------12-12-12-12\11-11-11--|
D|-0h222---0h222---0h222---0h22-22p0000000-0------------------------|
A|-0h222---0h222---0h222---0h22-22p0000000-0--10-10-10-10\9--9--9---|
D|-0h222---0h222---0h222---0h22-22p0000000-0------------------------|

e|-------------------------------------------------------|
B|-------------------------------------------------------|
G|------/12-12-12-12-12----------------------------------|
D|-22202/------------------2222-2p0-000000-055-5/10-10---|
A|-22202/10-10-10-10-10----2222-2p0-000000-055-5/10-10---|
D|-22202/------------------2222-2p0-000000-055-5/10-10---|

e|-------------------------------------------------------|
B|-------------------------------------------------------|
G|------/12-12-12-12-12----------------------------------|
D|-22202/------------------2222-2p0-000000-055-5/10-10---|
A|-22202/10-10-10-10-10----2222-2p0-000000-055-5/10-10---|
D|-22202/------------------2222-2p0-000000-055-5/10-10---|

Outro:
e|-----------------------------------------------|
B|-----------------------------------------------|
G|-----------------------------------------------|
D|-22202--------------------------------2220-14--|
A|-22202-*5-*5-*5-*5-*5-*5-*5-*5-*5-*5--2220-14--|
D|-22202--------------------------------2220-14--|


-----------------------------------------------------------------------------
                             Your Heroes Are Dead
-----------------------------------------------------------------------------

Intro 1:
NOTE: Some sort of harmonics and phaser effect. Very hard to replicate.
e|--------------------------------------|
B|--------------------------------------|
G|--------------------------------------|
D|-x-x-x-x-x-x-x-x-x-x-x-x-x-x-x-x-x-x--|
A|-x-x-x-x-x-x-x-x-x-x-x-x-x-x-x-x-x-x--|
D|-x-x-x-x-x-x-x-x-x-x-x-x-x-x-x-x-x-x--|

Intro 2:
NOTE: Strum each of these. The only help I can offer
to help with when to strum each is to see my guitar pro
tab for this song.
e|-------------------------------------------------------------------|
B|-------------------------------------------------------------------|
G|-------------------------------------------------------------------|
D|-0--3--0--8--5----0--3--0--8--5--0----3--0--8--5----0--3--0--8--5--|
A|-0--3--0--8--5----0--3--0--8--5--0----3--0--8--5----0--3--0--8--5--|
D|-0--3--0--8--5----0--3--0--8--5--0----3--0--8--5----0--3--0--8--5--|

Verse 1:
e|-------------------------------------------------------------------|
B|-------------------------------------------------------------------|
G|-------------------------------------------------------------------|
D|-0--3--0--8--5----0--3--0--8--5--0----3--0--8--5----0--3--0--8--5--|
A|-0--3--0--8--5----0--3--0--8--5--0----3--0--8--5----0--3--0--8--5--|
D|-0--3--0--8--5----0--3--0--8--5--0----3--0--8--5----0--3--0--8--5--|

Pre-Chorus 1:
e|-----------------------|
B|-----------------------|
G|-----------------------|
D|-10-10-xxx-10-10-xxxx--|
A|-10-10-xxx-10-10-xxxx--|
D|-10-10-xxx-10-10-xxxx--|

(Phaser)
e|----------------------------------------------------------------------|
B|----------------------------------------------------------------------|
G|-7-7-7-7-7-7-7-7---10-10-10-10--7-7-7-7---9-9-9-9-9/12-12---12/14-14--|
D|----------------------------------------------------------------------|
A|-5-5-5-5-5-5-5-5----8--8--8--8--5-5-5-5---7-7-7-7-7/10-10---10/12-12--|
D|----------------------------------------------------------------------|

Chorus 1:
e|------------------------------------------------------------------------|
B|------------------------------------------------------------------------|
G|------------------------------------------------------------------------|
D|-0-0-0-0-0-0-0-0---8-8-8-8-8-8-8-8---3-3-3-3-3-3-3-3---7-7-7-7-7-7-7-7--|
A|-0-0-0-0-0-0-0-0---8-8-8-8-8-8-8-8---3-3-3-3-3-3-3-3---7-7-7-7-7-7-7-7--|
D|-0-0-0-0-0-0-0-0---8-8-8-8-8-8-8-8---3-3-3-3-3-3-3-3---7-7-7-7-7-7-7-7--|
                 ^*Above and below play together and X2
(Phaser)
e|------------------------------------------------------------------------|
B|------------------------------------------------------------------------|
G|-7~~~--------------12~~----10~~------14-*play-rapidly-to-the-end--------|
D|------------------------------------------------------------------------|
A|-5~~~--------------10~~-----8~~------12---------------------------------|
D|------------------------------------------------------------------------|

e|-------------------|
B|-------------------|
G|-------------------|
D|-3-3-xxx-3-3-xxxx--|
A|-3-3-xxx-3-3-xxxx--|
D|-3-3-xxx-3-3-xxxx--|

Verse 2:
e|-------------------------------------------------------------------|
B|-------------------------------------------------------------------|
G|-------------------------------------------------------------------|
D|-0--3--0--8--5----0--3--0--8--5--0----3--0--8--5----0--3--0--8--5--|
A|-0--3--0--8--5----0--3--0--8--5--0----3--0--8--5----0--3--0--8--5--|
D|-0--3--0--8--5----0--3--0--8--5--0----3--0--8--5----0--3--0--8--5--|

Pre-Chorus 2:
e|-----------------------|
B|-----------------------|
G|-----------------------|
D|-10-10-xxx-10-10-xxxx--|
A|-10-10-xxx-10-10-xxxx--|
D|-10-10-xxx-10-10-xxxx--|

(Phaser)
e|----------------------------------------------------------------------|
B|----------------------------------------------------------------------|
G|-7-7-7-7-7-7-7-7---10-10-10-10--7-7-7-7---9-9-9-9-9/12-12---12/14-14--|
D|----------------------------------------------------------------------|
A|-5-5-5-5-5-5-5-5----8--8--8--8--5-5-5-5---7-7-7-7-7/10-10---10/12-12--|
D|----------------------------------------------------------------------|

Chorus 2:
e|------------------------------------------------------------------------|
B|------------------------------------------------------------------------|
G|------------------------------------------------------------------------|
D|-0-0-0-0-0-0-0-0---8-8-8-8-8-8-8-8---3-3-3-3-3-3-3-3---7-7-7-7-7-7-7-7--|
A|-0-0-0-0-0-0-0-0---8-8-8-8-8-8-8-8---3-3-3-3-3-3-3-3---7-7-7-7-7-7-7-7--|
D|-0-0-0-0-0-0-0-0---8-8-8-8-8-8-8-8---3-3-3-3-3-3-3-3---7-7-7-7-7-7-7-7--|
                 ^*Above and below play together and X2
e|------------------------------------------------------------------------|
B|------------------------------------------------------------------------|
G|-7~~~--------------12~~----10~~------14-*play-rapidly-to-the-end--------|
D|------------------------------------------------------------------------|
A|-5~~~--------------10~~-----8~~------12---------------------------------|
D|------------------------------------------------------------------------|

Bridge 1:
(Phaser)
e|----------------------------------------------|
B|----------------------------------------------|
G|----------------------------------------------|
D|-12-7-8-----8-7-0-----12-8-7-----8-7-0--------|
A|-12-7-8-----8-7-0-----12-8-7-----8-7-0--------|
D|-12-7-8-----8-7-0-----12-8-7-----8-7-0--12b---|

e|----------------------------------------------|
B|----------------------------------------------|
G|----------------------------------------------|
D|-12-7-8-----8-7-0-----12-8-7-----8-10-12------|
A|-12-7-8-----8-7-0-----12-8-7-----8-10-12------|
D|-12-7-8-----8-7-0-----12-8-7-----8-10-12------|

Bridge 2 (Solo):
NOTE: The "~" lines here mean to repeatedly
play the chord until the next chord.
e|------------------------------------------------------------------------|
B|------------------------------------------------------------------------|
G|-10---7---14~~~~~12~~~~~/15--15~~~~--10---7---14~~~~~12~~~~~/17--17~~~~~|
D|------------------------------------------------------------------------|X2
A|--8---5---12~~~~~10~~~~~/13--13~~~~~--8---5---12~~~~~10~~~~~/15--15~~~~~|
D|------------------------------------------------------------------------|

Pre-Chorus 3:
e|---------------------------------------------|
B|---------------------------------------------|
G|---------------------------------------------|
D|-7-7-7-7-7-7-7-7-------10-10-xxx-10-10-xxxx--|
A|-7-7-7-7-7-7-7-7-------10-10-xxx-10-10-xxxx--|
D|-7-7-7-7-7-7-7-7-------10-10-xxx-10-10-xxxx--|

(Phaser)
e|----------------------------------------------------------------------|
B|----------------------------------------------------------------------|
G|-7-7-7-7-7-7-7-7---10-10-10-10--7-7-7-7---9-9-9-9-9/12-12---12/14-14--|
D|----------------------------------------------------------------------|
A|-5-5-5-5-5-5-5-5----8--8--8--8--5-5-5-5---7-7-7-7-7/10-10---10/12-12--|
D|----------------------------------------------------------------------|

e|---------------------------------------------------|
B|---------------------------------------------------|
G|---------------------------------------------------|
D|-10-10--xxx--12-12--xxx--14-14--xxxx--9/10--10/12--|
A|-10-10--xxx--12-12--xxx--14-14--xxxx--7/8----8/10--|
D|-10-10--xxx--12-12--xxx--14-14--xxxx---------------|

Chorus 3:
e|------------------------------------------------------------------------|
B|------------------------------------------------------------------------|
G|------------------------------------------------------------------------|
D|-0-0-0-0-0-0-0-0---8-8-8-8-8-8-8-8---3-3-3-3-3-3-3-3---7-7-7-7-7-7-7-7--|
A|-0-0-0-0-0-0-0-0---8-8-8-8-8-8-8-8---3-3-3-3-3-3-3-3---7-7-7-7-7-7-7-7--|
D|-0-0-0-0-0-0-0-0---8-8-8-8-8-8-8-8---3-3-3-3-3-3-3-3---7-7-7-7-7-7-7-7--|
                 ^*Above and below play together and X2
e|------------------------------------------------------------------------|
B|------------------------------------------------------------------------|
G|-7~~~--------------12~~----10~~------14-*play-rapidly-to-the-end--------|
D|------------------------------------------------------------------------|
A|-5~~~--------------10~~-----8~~------12---------------------------------|
D|------------------------------------------------------------------------|


NOTE: The solo from above starts playing here
and plays in its entirety.
e|------------------------------------------------------------------------|
B|------------------------------------------------------------------------|
G|------------------------------------------------------------------------|
D|-0-0-0-0-0-0-0-0---8-8-8-8-8-8-8-8---3-3-3-3-3-3-3-3---7-7-7-7-7-7-7-7--|
A|-0-0-0-0-0-0-0-0---8-8-8-8-8-8-8-8---3-3-3-3-3-3-3-3---7-7-7-7-7-7-7-7--|
D|-0-0-0-0-0-0-0-0---8-8-8-8-8-8-8-8---3-3-3-3-3-3-3-3---7-7-7-7-7-7-7-7--|
                 ^*Above and below play together and X2
e|------------------------------------------------------------------------|
B|------------------------------------------------------------------------|
G|-7~~~--------------12~~----10~~------14-*play-rapidly-to-the-end--------|
D|------------------------------------------------------------------------|
A|-5~~~--------------10~~-----8~~------12---------------------------------|
D|------------------------------------------------------------------------|

Outro:
e|------------------------------|
B|------------------------------|
G|------------------------------|
D|-3-3-xxx-3-3-xxx-3-3-xxx-*3\--|
A|-3-3-xxx-3-3-xxx-3-3-xxx-*3\--|
D|-3-3-xxx-3-3-xxx-3-3-xxx-*3\--|

-----------------------------------------------------------------------------
                           ...To Brighten Your Day
-----------------------------------------------------------------------------

(Piano)
E|-----------------------------------------------|
B|-----------------------------------------------|
G|-----------------------------------------------|
D|--15--14--17--12-------------------------------| x11
A|-----------------------------------------------|
D|-----------------------------------------------|

-----------------------------------------------------------------------------
                            Another Boredom Movement
-----------------------------------------------------------------------------

Intro 1:
NOTE: This whole song is layered to death! There are
also a ton of effects used. The 17's in the beginning
here sounds right on if you can change the amount of
a bend your giving and which direction in accordance
with the song. Good luck though. ;)
e|----------------------------------|
B|----------------17b^^^^^^---------|
G|----------------------------------|
D|-0---0~~~~~~----------------------|
A|-0---0~~~~~~----------------------|
D|-0---0~~~~~~----------------------|

Intro 2:
e|------------------------------------------|
B|------------------------------------------|
G|------------------------------------------|
D|------------------------------------------|X4
A|------------------------------------------|
D|-0-12-12-0~-12h13p12------0-12-12-0~-10---|

Verse 1:
NOTE: This note is just going up the entire verse which
is pretty much impossible to do without a recording studio.
Just bend until the note dies, and let the open strings ring out.
e|------------------------------|
B|----------------17b-----------|
G|------------------------------|
D|-0~~~~~~----------------------|
A|-0~~~~~~----------------------|
D|-0~~~~~~----------------------|

Chorus 1:
e|-------------------------------------------|
B|-------------------------------------------|
G|----------7-7------------------7-7---------|
D|-5--6--0--------------5--6--0--------------|
A|-5--6--0--5-5-5h6p5---5--6--0--5-5-5h6p5---|
D|-5--6--0--------------5--6--0--------------|

e|-------------------------------------------|
B|-------------------------------------------|
G|----------7-7------------------7-7---------|
D|-5--6--0--------------5--6--0--------------|
A|-5--6--0--5-5-5h6p5---5--6--0--5-5---------|
D|-5--6--0--------------5--6--0-------12\----|

After-Chorus Music 1:
e|--------------------------------------|
B|--------------------------------------|
G|--------------------------------------|
D|--------------------------------------|X3
A|--------------------------------------|
D|-0-12-12-0~-12h13p12--0-12-12-0~-10---|

e|--------------------------------------|
B|--------------------------------------|
G|--------------------------------------|
D|--------------------------------------|
A|--------------------------------------|
D|-0-12-12-0~-12h13p12--0-12-12-0~-10\--|

Verse 2:
e|-----------------0~~~-----------------|
B|-----------------0~~~--------20b------|
G|-----------------0~~~-----------------|
D|-0~~~~~~------------------------------|
A|-0~~~~~~------------------------------|
D|-0~~~~~~--12b-------------------------|

Chorus 1:
e|-------------------------------------------|
B|-------------------------------------------|
G|----------7-7------------------7-7---------|
D|-5--6--0--------------5--6--0--------------|
A|-5--6--0--5-5-5h6p5---5--6--0--5-5-5h6p5---|
D|-5--6--0--------------5--6--0--------------|

e|-------------------------------------------|
B|-------------------------------------------|
G|----------7-7------------------7-7---------|
D|-5--6--0--------------5--6--0--------------|
A|-5--6--0--5-5-5h6p5---5--6--0--5-5---------|
D|-5--6--0--------------5--6--0------12\-----|

After-Chorus Music 1:
e|--------------------------------------|
B|--------------------------------------|
G|--------------------------------------|
D|--------------------------------------|X3
A|--------------------------------------|
D|-0-12-12-0~-12h13p12--0-12-12-0~-10---|

e|--------------------------------------|
B|--------------------------------------|
G|--------------------------------------|
D|--------------------------------------|
A|--------------------------------------|
D|-0-12-12-0~-12h13p12--0-12-12-0~-10\--|

Bridge 1 (Quiet)
NOTE: The 17 is a feedback sound, but sounds
exactly like the note being played.
e|------------|
B|--------17--|
G|------------|
D|-0----------|
A|-0----------|
E|-0----------|

Bridge 2 (Solo):
e|----------------------------------------|
B|-20b\----17b\----20b\----17b------------|
G|----------------------------------------|
D|--------------------------------14b-----|
A|----------------------------------------|
D|----------------------------------------|

Build-up:
NOTE: Mute each of these open strings.
e|---------------------------------------|
B|---------------------------------------|
G|---------------------------------------|
D|-0-0-0-0-0-0-0-0--0-0-0-0-0-0-0--------|
A|-0-0-0-0-0-0-0-0--0-0-0-0-0-0-0--------|
E|-0-0-0-0-0-0-0-0--0-0-0-0-0-0-0-12\----|

After-Chorus Music 2:
e|--------------------------------------|
B|--------------------------------------|
G|--------------------------------------|
D|--------------------------------------|X4
A|--------------------------------------|
D|-0-12-12-0~-12h13p12--0-12-12-0~-10---|

e|---------------------------------------------|
B|---------------------------------------------|
G|---------------------------------------------|
D|-0-000----0-000------0-000-------0-000-------|
A|-0-000----0-000------0-000-------0-000-------|
E|-0-000----0-000-10---0-000-12\---0-000-10----|

e|---------------------------------------------|
B|---------------------------------------------|
G|---------------------------------------------|
D|-0-000----0-000------0-000----0-000----------|
A|-0-000----0-000------0-000----0-000----------|
E|-0-000----0-000-10---0-000----0-000----------|

-----------------------------------------------------------------------------
                                 Bottom Feeder
-----------------------------------------------------------------------------

Intro:
e|---------------------------------------------|
B|---------------------------------------------|
G|---------------------------------------------|
D|-2--0--2--0--3--0--------2--0--2--0--3--0----|
A|-3-----3-----3-----------3-----3-----3-------|
D|-3-----3-----3-----------3-----3-----3-------|

Verse 1:
e|-----------------------------------------------------------|
B|-----------------------------------------------------------|
G|-----------------------------------------------------------|
D|--0-2-3--2--2-0----2-0-----2--2-0----0-2-3-----0-----2-0---|X3
A|---------3-----------------3----------------3--------------|
D|---------3-------3-----33--3----------------3-----3--------|

Chorus 1:
(Distortion)
e|-------------------------------------------------------------------------|
B|-------------------------------------------------------------------------|
G|-------------------------------------------------------------------------|
D|-3--3--/7--\2-0--------3-3-3-3-5-5----3--3---/7---\2-0------3-3-3-3-5-5--|
A|-3--3--/7--\2-0---3-5-----------------3--3---/7---\2-0--3-5--------------|
D|-3--3--/7--\2-0-----------------------3--3---/7---\2-0-------------------|

e|-------------------------------------------------------------------------|
B|-------------------------------------------------------------------------|
G|-------------------------------------------------------------------------|
D|-3--3--/7--\2-0--------3-3-3-3-5-5----3--3---/7---\2-0~~~~~~-------------|
A|-3--3--/7--\2-0---3-5-----------------3--3---/7---\2-0~~~~~~-------------|
D|-3--3--/7--\2-0-----------------------3--3---/7---\2-0~~~~~~-------------|

Verse 2:
(Clean)
NOTE: Don't be thrown off by the vocals and when
they enter. Play exaclty what is here one time.
e|-----------------------------------------------------------|
B|-----------------------------------------------------------|
G|-----------------------------------------------------------|
D|--0-2-3--2--2-0----2-0-----2--2-0----0-2-3--2-------3-0----|X3
A|---------3-----------------3----------------3--------------|
D|---------3-------3-----33--3----------------3-----3--------|

e|-----------------------------------------------------------|
B|-----------------------------------------------------------|
G|-----------------------------------------------------------|
D|--0-2-3--2--2-0------------2--2-0----0-2-3-----------3-2---|
A|---------3---------33------3----------------3--------------|
D|---------3-------3-33-33---3----------------3-----3--------|

Chorus 2:
(Distortion)
e|-------------------------------------------------------------------------|
B|-------------------------------------------------------------------------|
G|-------------------------------------------------------------------------|
D|-3--3--/7--\2-0--------3-3-3-3-5-5----3--3---/7---\2-0------3-3-3-3-5-5--|
A|-3--3--/7--\2-0---3-5-----------------3--3---/7---\2-0--3-5--------------|
D|-3--3--/7--\2-0-----------------------3--3---/7---\2-0-------------------|

e|-------------------------------------------------------------------------|
B|-------------------------------------------------------------------------|
G|-------------------------------------------------------------------------|
D|-3--3--/7--\2-0--------3-3-3-3-5-5----3--3---/7---\2-0~~~~~~-------------|
A|-3--3--/7--\2-0---3-5-----------------3--3---/7---\2-0~~~~~~-------------|
D|-3--3--/7--\2-0-----------------------3--3---/7---\2-0~~~~~~-------------|

Bridge 1:
NOTE: Some sort of a phaser or wah-wah effect,
but most likely just some techniques used when
the song was mixed.
e|--------------------------------------------------------------------|
B|--------------------------------------------------------------------|
G|--------------------------------------------------------------------|
D|--0-0-0-0-0-0-0---2-2-2-3-3-0-0-----0-0-0-0-0-0-0---2-2-2-3-3-0-0---|
A|--------------------------------------------------------------------|
D|--------------------------------------------------------------------|

e|--------------------------------------------------------------------|
B|--------------------------------------------------------------------|
G|--------------------------------------------------------------------|
D|--0-0-0-0-0-0-0---2-2-2-3-3-0-0-----0-0-0-0-0-0-0---2-2-2-3-3-------|
A|--------------------------------------------------------------------|
D|--------------------------------------------------------------------|

Bridge 2 (Solo):
e|--------------------------------------------------------------------|
B|--------------------------------------------------------------------|
G|--------------------------------------------------------------------|
D|--------------------------------------------------------------------|
A|-3/-8-5--5-7-0----3/-8-5--5-7-0-----3/-8-5--5-7-0----3/-8-5---------|
D|--------------------------------------------------------------------|

Build-up
e|----------------------|
B|----------------------|
G|----------------------|
D|-00000000-3333-7777---|
A|-00000000-3333-7777---|
D|-00000000-3333-7777---|
pm ........ .... ....

Chorus 3:
e|-------------------------------------------------------------------------|
B|-------------------------------------------------------------------------|
G|-------------------------------------------------------------------------|
D|-3--3--/7--\2-0--------3-3-3-3-5-5----3--3---/7---\2-0------3-3-3-3-5-5--|
A|-3--3--/7--\2-0---3-5-----------------3--3---/7---\2-0--3-5--------------|
D|-3--3--/7--\2-0-----------------------3--3---/7---\2-0-------------------|

e|-------------------------------------------------------------------------|
B|-------------------------------------------------------------------------|
G|-------------------------------------------------------------------------|
D|-3--3--/7--\2-0--------3-3-3-3-5-5----3--3---/7---\2-0~~~~~~-------------|
A|-3--3--/7--\2-0---3-5-----------------3--3---/7---\2-0~~~~~~-------------|
D|-3--3--/7--\2-0-----------------------3--3---/7---\2-0~~~~~~-------------|

Piano is playing this through the whole chorus above.
e|--------------------|
B|-3-5-6-----3-5-6-3--|
G|--------------------|
D|--------------------|
A|--------------------|
D|--------------------|


Outro:
NOTE: This is more likely bass playing,
but sounds exactly like it on guitar.
e|---------------------------------------------------------------|
B|---------------------------------------------------------------|
G|---------------------------------------------------------------|
D|---------------------------------------------------------------|
A|---------------------------------------------------------------|
D|-2h3p2-0~~~-----2h3p2-0~~~-----2h3p2-0~~~-----2h3p2-0~~~-------|

e|---------------------------------------------------------------|
B|---------------------------------------------------------------|
G|---------------------------------------------------------------|
D|---------------------------------------------------------------|
A|---------------------------------------------------------------|
D|-2h3p2-0~~~-----2h3p2-0~~~-----2h3p2-0~~~----------------------|


-----------------------------------------------------------------------------
                                   Shelter Me
-----------------------------------------------------------------------------

Intro 1:
Phaser effect
e|-------------------------------------------------|
B|-------------------------------------------------|
G|-------------------------------------------------|
D|-5---------3-5---------8-5---------3-5---------8-|
A|-5-5h6p5p0-3-5-5h6p5p0-8-5-5h6p5p0-3-5-5h6p5p0-8-|
D|-5---------3-5---------8-5---------3-5---------8-|

e|-------------------------------------------------|
B|-------------------------------------------------|
G|-------------------------------------------------|
D|-5---------3-5---------8-5---------3-5-----------|
A|-5-5h6p5p0-3-5-5h6p5p0-8-5-5h6p5p0-3-5-5h6p5p0---|
D|-5---------3-5---------8-5---------3-5-----------|

Intro 2
Distortion
e|-------------------------------------------------|
B|-------------------------------------------------|
G|-------------------------------------------------|
D|-5---------3-5---------8-5---------3-5---------8-|
A|-5-5h6p5p0-3-5-5h6p5p0-8-5-5h6p5p0-3-5-5h6p5p0-8-|
D|-5---------3-5---------8-5---------3-5---------8-|

e|-------------------------------------------------|
B|-------------------------------------------------|
G|-------------------------------------------------|
D|-5---------3-5---------8-5---------3-5---------8-|
A|-5-5h6p5p0-3-5-5h6p5p0-8-5-5h6p5p0-3-5-5h6p5p0-8-|
D|-5---------3-5---------8-5---------3-5---------8-|

Verse 1:
BASS ONLY

Pre-Chorus 1:
e|-------------------------------------------------------|
B|-------------------------------------------------------|
G|-*7----------------------------------------------------|
D|-------5---------3-5---------8-5---------3-5--88-8-88--|
A|-------5-5h6p5p0-3-5-5h6p5p0-8-5-5h6p5p0-3-5--88-8-88--|
D|-------5---------3-5---------8-5---------3-5--88-8-88--|

Chorus 1:
E|------------------------------------------------------|
B|------------------------------------------------------|
G|---------------7h8p7p0---------------7h8p7p0----------|
D|-55-5-5-1-3-0----------55-5-5-1-0-0-------------------|
A|-55-5-5-1-3-0----------55-5-5-1-0-0-------------------|
D|-55-5-5-1-3-0----------55-5-5-1-0-0-------------------|
p.m   . .                   . .
E|------------------------------------------------------|
B|------------------------------------------------------|
G|---------------7h8p7p0--------------------------------|
D|-55-5-5-1-3-0-----------5-5-5-1-3-5-8-7---------------|
A|-55-5-5-1-3-0-----------5-5-5-1-3-5-8-7---------------|
D|-55-5-5-1-3-0-----------5-5-5-1-3-5-8-7---------------|
p.m   . .                   . .

E|------------------------------------------------------|
B|------------------------------------------------------|
G|---------------7h8p7p0---------------7h8p7p0----------|
D|-55-5-5-1-3-0----------55-5-5-1-0-0-------------------|
A|-55-5-5-1-3-0----------55-5-5-1-0-0-------------------|
D|-55-5-5-1-3-0----------55-5-5-1-0-0-------------------|
p.m   . .                   . .
E|------------------------------------------------------|
B|------------------------------------------------------|
G|---------------7h8p7p0--------------------------------|
D|-55-5-5-1-3-0-----------5-5-5-1-3-5-8-7----5\---------|
A|-55-5-5-1-3-0-----------5-5-5-1-3-5-8-7----5\---------|
D|-55-5-5-1-3-0-----------5-5-5-1-3-5-8-7----5\---------|
p.m   . .                   . .

Verse 2:
BASS ONLY

Pre-Chorus 2:
e|------------------------------------------------------------|
B|------------------------------------------------------------|
G|-*7---------------------------------------------------------|
D|-------5---------3-5---------8-5---------3-5--88-8-88-8-88--|
A|-------5-5h6p5p0-3-5-5h6p5p0-8-5-5h6p5p0-3-5--88-8-88-8-88--|
D|-------5---------3-5---------8-5---------3-5--88-8-88-8-88--|

Chorus 2:
E|------------------------------------------------------|
B|------------------------------------------------------|
G|---------------7h8p7p0---------------7h8p7p0----------|
D|-55-5-5-1-3-0----------55-5-5-1-0-0-------------------|
A|-55-5-5-1-3-0----------55-5-5-1-0-0-------------------|
D|-55-5-5-1-3-0----------55-5-5-1-0-0-------------------|
p.m   . .                   . .
E|------------------------------------------------------|
B|------------------------------------------------------|
G|---------------7h8p7p0--------------------------------|
D|-55-5-5-1-3-0-----------5-5-5-1-3-5-8-7---------------|
A|-55-5-5-1-3-0-----------5-5-5-1-3-5-8-7---------------|
D|-55-5-5-1-3-0-----------5-5-5-1-3-5-8-7---------------|
p.m   . .                   . .

E|------------------------------------------------------|
B|------------------------------------------------------|
G|---------------7h8p7p0---------------7h8p7p0----------|
D|-55-5-5-1-3-0----------55-5-5-1-0-0-------------------|
A|-55-5-5-1-3-0----------55-5-5-1-0-0-------------------|
D|-55-5-5-1-3-0----------55-5-5-1-0-0-------------------|
p.m   . .                   . .
E|------------------------------------------------------|
B|------------------------------------------------------|
G|---------------7h8p7p0--------------------------------|
D|-55-5-5-1-3-0-----------5-5-5-1-3-5-8-7---------------|
A|-55-5-5-1-3-0-----------5-5-5-1-3-5-8-7---------------|
D|-55-5-5-1-3-0-----------5-5-5-1-3-5-8-7---------------|
p.m   . .                   . .

Bridge:
NOTE: I broke these up based on the bars.
The song uses a 4/4 time signature, so wherever
there is a dash, means that it goes into the
next bar. That should help you figure this piece
out, because the a weird phaser effect
playing throughout it.
e|---------------------------------------------------------------------------|
B|---------------------------------------------------------------------------|
G|--------------0000-22222222-20000000---------------------------------------|
D|-33333333-3333-----------------------33333333-33333333---------------------|
A|-------------------------------------------------------33333333-3/555-3/55-|
D|---------------------------------------------------------------------------|

e|---------------------------------------------------------------------------|
B|---------------------------------------------------------------------------|
G|--------------0000-22222222-20000000---------------------------------------|
D|-33333333-3333-----------------------33333333-33333333---------------------|
A|---------------------------------------------------------------------------|
D|---------------------------------------------------------------------------|

Bridge 2:
Phaser effect
e|-------------------------------------------------|
B|-------------------------------------------------|
G|-------------------------------------------------|
D|-5---------3-5---------8-5---------3-5---------8-|
A|-5-5h6p5p0-3-5-5h6p5p0-8-5-5h6p5p0-3-5-5h6p5p0-8-|
D|-5---------3-5---------8-5---------3-5---------8-|

Phaser effect off
e|-------------------------------------------------|
B|-------------------------------------------------|
G|-------------------------------------------------|
D|-5---------3-5---------8-5---------3-5---------8-|
A|-5-5h6p5p0-3-5-5h6p5p0-8-5-5h6p5p0-3-5-5h6p5p0-8-|
D|-5---------3-5---------8-5---------3-5---------8-|


e|-------------------------------------------------|
B|-------------------------------------------------|
G|-------------------------------------------------|
D|-5---------3-5---------8-5---------3-5--88-8-88--|
A|-5-5h6p5p0-3-5-5h6p5p0-8-5-5h6p5p0-3-5--88-8-88--|
D|-5---------3-5---------8-5---------3-5--88-8-88--|

Chorus 3:
E|------------------------------------------------------|
B|------------------------------------------------------|
G|---------------7h8p7p0---------------7h8p7p0----------|
D|-55-5-5-1-3-0----------55-5-5-1-0-0-------------------|
A|-55-5-5-1-3-0----------55-5-5-1-0-0-------------------|
D|-55-5-5-1-3-0----------55-5-5-1-0-0-------------------|
p.m   . .                   . .
E|------------------------------------------------------|
B|------------------------------------------------------|
G|---------------7h8p7p0--------------------------------|
D|-55-5-5-1-3-0-----------5-5-5-1-3-5-8-7---------------|
A|-55-5-5-1-3-0-----------5-5-5-1-3-5-8-7---------------|
D|-55-5-5-1-3-0-----------5-5-5-1-3-5-8-7---------------|
p.m   . .                   . .

E|------------------------------------------------------|
B|------------------------------------------------------|
G|---------------7h8p7p0---------------7h8p7p0----------|
D|-55-5-5-1-3-0----------55-5-5-1-0-0-------------------|
A|-55-5-5-1-3-0----------55-5-5-1-0-0-------------------|
D|-55-5-5-1-3-0----------55-5-5-1-0-0-------------------|
p.m   . .                   . .
E|------------------------------------------------------|
B|------------------------------------------------------|
G|---------------7h8p7p0--------------------------------|
D|-55-5-5-1-3-0-----------5-5-5-1-3-5-8-7---------------|
A|-55-5-5-1-3-0-----------5-5-5-1-3-5-8-7---------------|
D|-55-5-5-1-3-0-----------5-5-5-1-3-5-8-7---------------|
p.m   . .                   . .

Outro:
E|--------------------------------------------------------|
B|--------------------------------------------------------|
G|--------------------------------------------------------|
D|-55-5-5-1-3-0-xx-x-----55-5-5-1-3-0-xx-x----------------|
A|-55-5-5-1-3-0-xx-x-----55-5-5-1-3-0-xx-x----------------|
D|-55-5-5-1-3-0-xx-x-----55-5-5-1-3-0-xx-x----------------|
p.m   . .                   . .

E|--------------------------------------------------------|
B|--------------------------------------------------------|
G|----------------------------------------------------7\--|
D|-55-5-5-1-3-0-xx-x-------5-5-5-1-3-5-8-7----5~~~~~~-5\--|
A|-55-5-5-1-3-0-xx-x-------5-5-5-1-3-5-8-7----5~~~~~~-5\--|
D|-55-5-5-1-3-0-xx-x-------5-5-5-1-3-5-8-7----5~~~~~~-5\--|
p.m   . .                   . .


-----------------------------------------------------------------------------
                             ...And Help You Sleep
-----------------------------------------------------------------------------

Intro:
e|--------------------------------------------------------------------------|
B|--------------------------------------------------------------------------|
G|--------------------------------------------------------------------------|
D|-7-10-9---7-10-9---7-10-9-----10-9-----7-10-9---7-10-9---7-10-9-----10-9--|
A|-7-------------------------10------------------------------------10-------|
D|--------------------------------------------------------------------------|

e|--------------------------------------------------------------------------|
B|--------------------------------------------------------------------------|
G|--------------------------------------------------------------------------|
D|-7-10-9---7-10-9---7-10-9-----10-9-----7-10-9---7-10-9---7-10-9-----10-9--|
A|-7-------------------------10------------------------------------10-------|
D|--------------------------------------------------------------------------|


Verse 1:
e|--------------------------------------------------------------------------|
B|--------------------------------------------------------------------------|
G|--------------------------------------------------------------------------|
D|-7-10-9---7-10-9---7-10-9--7-10-9-----7-10-9---7-10-9---7-10-9-----10-9---|
A|-7--------------------------------------------------------------10--------|
D|--------------------------------------------------------------------------|

e|--------------------------------------------------------------------------|
B|--------------------------------------------------------------------------|
G|--------------------------------------------------------------------------|
D|-7-10-9---7-10-9---7-10-9--7-10-9-----7-10-9---7-10-9---7-10-9-----10-9---|
A|-7--------------------------------------------------------------10--------|
D|--------------------------------------------------------------------------|

e|--------------------------------------------------------------------------|
B|--------------------------------------------------------------------------|
G|--------------------------------------------------------------------------|
D|-7-10-9---7-10-9---7-10-9--7-10-9-----7-10-9---7-10-9---7-10-9-----10-9---|
A|-7--------------------------------------------------------------10--------|
D|--------------------------------------------------------------------------|

e|--------------------------------------------------------------------------|
B|--------------------------------------------------------------------------|
G|--------------------------------------------------------------------------|
D|-7-10-9---7-10-9---7-10-9--7-10-9-----7-10-9---7-10-9---7-10-9-----10-9---|
A|-7--------------------------------------------------------------10--------|
D|--------------------------------------------------------------------------|

e|--------------------------------------------------------------------------|
B|--------------------------------------------------------------------------|
G|--------------------------------------------------------------------------|
D|-7-10-9---7-10-9---7-10-9--7-10-9-----7-10-9---7-10-9---7-10-9-----10-9---|
A|-7--------------------------------------------------------------10--------|
D|--------------------------------------------------------------------------|

e|--------------------------------------------------------------------------|
B|--------------------------------------------------------------------------|
G|--------------------------------------------------------------------------|
D|-7-10-9---7-10-9---7-10-9--7-10-9-----7-10-9---7-10-9---7-10-9-----10-9---|
A|-7--------------------------------------------------------------10--------|
D|--------------------------------------------------------------------------|

e|-------|
B|-------|
G|-------|
D|-------|
A|-------|
D|-7~~~--|


-----------------------------------------------------------------------------
                                   Last Meal
-----------------------------------------------------------------------------

Intro:
NOTE: I broke the chorus and verses up based on the
bars. The song uses a 4/4 time signature, so wherever
there is a dash, that means that it goes into the
next bar.
e|--------------------------------------------------------|
B|--------------------------------------------------------|
G|-22222222-22222222-22222222-22222222-22222222-22222222--|
D|--------------------------------------------------------|
A|--------------------------------------------------------|
D|--------------------------------------------------------|

Verse 1:
e|--------------------------------------------------------------------------|
B|-22222222-22222222-22222222-22222222-22222222-22222222-22222222-22222222--|
G|--------------------------------------------------------------------------|
D|--------------------------------------------------------------------------|
A|--------------------------------------------------------------------------|
D|--------------------------------------------------------------------------|

e|--------------------------------------------------------------------------|
B|-22222222-22222222-22222222-22222222-22222222-22222222-22222222-22222222--|
G|--------------------------------------------------------------------------|
D|--------------------------------------------------------------------------|
A|--------------------------------------------------------------------------|
D|--------------------------------------------------------------------------|

Chorus 1:
e|--------------------------------------------------------------------------|
B|--------------------------------------------------------------------------|
G|--------------------------------------------------------------------------|
D|-00000000-00000000-00000000-00000000-00000000-00000000-33333333-88888888--|
A|-00000000-00000000-00000000-00000000-00000000-00000000-33333333-88888888--|
D|-00000000-00000000-00000000-00000000-00000000-00000000-33333333-88888888--|

e|--------------------------------------------------------------------------|
B|--------------------------------------------------------------------------|
G|--------------------------------------------------------------------------|
D|-00000000-00000000-00000000-00000000-00000000-00000000-33333333-88888888--|
A|-00000000-00000000-00000000-00000000-00000000-00000000-33333333-88888888--|
D|-00000000-00000000-00000000-00000000-00000000-00000000-33333333-88888888--|

Verse 2:
e|--------------------------------------------------------------------------|
B|-22222222-22222222-22222222-22222222-22222222-22222222-22222222-22222222--|
G|--------------------------------------------------------------------------|
D|--------------------------------------------------------------------------|
A|--------------------------------------------------------------------------|
D|--------------------------------------------------------------------------|

e|--------------------------------------------------------------------------|
B|-22222222-22222222-22222222-22222222-22222222-22222222-22222222-22222222--|
G|--------------------------------------------------------------------------|
D|--------------------------------------------------------------------------|
A|--------------------------------------------------------------------------|
D|--------------------------------------------------------------------------|

Chorus 2:
e|--------------------------------------------------------------------------|
B|--------------------------------------------------------------------------|
G|--------------------------------------------------------------------------|
D|-00000000-00000000-00000000-00000000-00000000-00000000-33333333-88888888--|
A|-00000000-00000000-00000000-00000000-00000000-00000000-33333333-88888888--|
D|-00000000-00000000-00000000-00000000-00000000-00000000-33333333-88888888--|

e|--------------------------------------------------------------------------|
B|--------------------------------------------------------------------------|
G|--------------------------------------------------------------------------|
D|-00000000-00000000-00000000-00000000-00000000-00000000-33333333-88888888--|
A|-00000000-00000000-00000000-00000000-00000000-00000000-33333333-88888888--|
D|-00000000-00000000-00000000-00000000-00000000-00000000-33333333-88888888--|

Bridge 1:
e|----5~~~~~~---5~~~~~~---5~~~~~~----5~~~~~~---5~~~~~~---5~~~~~~---|
B|----6~~~~~~---6~~~~~~---6~~~~~~----6~~~~~~---6~~~~~~---6~~~~~~---|
G|----7~~~~~~---7~~~~~~---7~~~~~~----7~~~~~~---7~~~~~~---7~~~~~~---|
D|----7~~~~~~---7~~~~~~---7~~~~~~----7~~~~~~---7~~~~~~---7~~~~~~---|
A|-----------------------------------------------------------------|
D|-0---------------------------------------------------------------|

Bridge 2:
e|--------------------------------------------------------------------------|
B|--------------------------------------------------------------------------|
G|-3-3-3-3-3-3-3-3----3-3-3-3-0-0-0-0----2-2-2-2-2-2-2-2----2-2-2-2-2-2-2-2-|
D|--------------------------------------------------------------------------|
A|--------------------------------------------------------------------------|
D|--------------------------------------------------------------------------|
p.m. . . . . . . .    . . . . . . . .    . . . . . . . .    . . . . . . . .


e|--------------------------------------------------------------------------|
B|--------------------------------------------------------------------------|
G|-3-3-3-3-3-3-3-3----3-3-3-3-0-0-0-0----2-2-2-2-2-2-2-2----2-2-2-2-2-2-2-2-|
D|--------------------------------------------------------------------------|
A|--------------------------------------------------------------------------|
D|--------------------------------------------------------------------------|
p.m. . . . . . . .    . . . . . . . .    . . . . . . . .    . . . . . . . .


e|--------------------------------------------------------------------------|
B|--------------------------------------------------------------------------|
G|-3-3-3-3-3-3-3-3----3-3-3-3-0-0-0-0----2-2-2-2-2-2-2-2----2-2-2-2-2-2-2-2-|
D|--------------------------------------------------------------------------|
A|--------------------------------------------------------------------------|
D|--------------------------------------------------------------------------|
p.m. . . . . . . .    . . . . . . . .    . . . . . . . .    . . . . . . . .

Bridge 3:
e|------------------------------------------------------|
B|------------------------------------------------------|
G|------------------------------------------------------|
D|--------------------------------------------------0---|
A|-5-1-0-5-----1-0---0------5-1-0-5-----1-0---0-----0---|
D|-----------------5---5--------------------5---5---0---|

Bridge 4
e|--------------------------------|
B|--------------------------------|
G|-7--7/9--9/10--12--14--17--19---|
D|--------------------------------|
A|-5--5/7--7/8---10--12--15--17---|
D|--------------------------------|

Bridge 5 (Solo):
e|---------------------------------------------------------------------|
B|---------------------------------------------------------------------|
G|---------------------------------------------------------------------|
D|---------------------------------------------------------------------|
A|---------------------------------------------------------------------|
D|-0---3-5-7--5h7--10---8-7--8p7------0---3-5-7--5h7--10--12-----------|


e|----------------------------------------------------------------------|
B|----------------------------------------------------------------------|
G|----------------------------------------------------------------------|
D|----------------------------------------------------------------------|
A|----------------------------------------------------------------------|
D|-0---3-5-7--5h7--10---8-7--8p7------0---3-5-7--5h7--10-8-7-8-7-5-3-2--|

Chorus 3
e|-----------------------------------------|
B|-3-----3-------------3-----3-------------|
G|---3-2---3-2-0-2p0-----3-2---3-2-0-2p0---|
D|-----------------------------------------|
A|-----------------------------------------|
D|-----------------------------------------|

e|-----------------------------------------|
B|-3-----3---------------------------------|
G|---3-2---3-2-0-2p0-----------------------|
D|---------------------33333333-88888888---|
A|---------------------33333333-88888888---|
D|---------------------33333333-88888888---|

e|-----------------------------------------|
B|-3-----3-------------3-----3-------------|
G|---3-2---3-2-0-2p0-----3-2---3-2-0-2p0---|
D|-----------------------------------------|
A|-----------------------------------------|
D|-----------------------------------------|

e|-----------------------------------------|
B|-3-----3---------------------------------|
G|---3-2---3-2-0-2p0-----------------------|
D|---------------------33333333-88888888---|
A|---------------------33333333-88888888---|
D|---------------------33333333-88888888---|

Outro:
e|-------------------------------|
B|-3-----3-----------------------|
G|---3-2---3-2-0-2p0-------------|
D|---------------------0~~~~~~---|
A|---------------------0~~~~~~---|
D|---------------------0~~~~~~---|

-----------------------------------------------------------------------------
                                      Soma
-----------------------------------------------------------------------------

Intro:
(Distortion)
e|--------------------------------------------------------------------------|
B|--------------------------------------------------------------------------|
G|--------------------------------------------------------------------------|
D|-7/9-9-9--9\7-7-7--7-7-7-7--2-2-2-2----7/9-9-9--9\7-7-7--7-7-7-7--2-2-2-2-|
A|-7/9-9-9--9\7-7-7--7-7-7-7--2-2-2-2----7/9-9-9--9\7-7-7--7-7-7-7--2-2-2-2-|
D|-7/9-9-9--9\7-7-7--7-7-7-7--2-2-2-2----7/9-9-9--9\7-7-7--7-7-7-7--2-2-2-2-|


e|--------------------------------------------------------------------------|
B|--------------------------------------------------------------------------|
G|--------------------------------------------------------------------------|
D|-7/9-9-9--9\7-7-7--7-7-7-7--2-2-2-2----7/9-9-9--9\7-7-7--7-7-7-7--2-2-2-2-|
A|-7/9-9-9--9\7-7-7--7-7-7-7--2-2-2-2----7/9-9-9--9\7-7-7--7-7-7-7--2-2-2-2-|
D|-7/9-9-9--9\7-7-7--7-7-7-7--2-2-2-2----7/9-9-9--9\7-7-7--7-7-7-7--2-2-2-2-|
                          *Above and below play together
e|--------------------------------------------------------------------------|
B|---------------------------------------------------------7---9----11--12--|
G|--------------------------------------------------------------------------|
D|---------------------------------------------------------5---7-----9--10--|
A|--------------------------------------------------------------------------|
D|--------------------------------------------------------------------------|


e|--------------------------------------------------------------------------|
B|--------------------------------------------------------------------------|
G|--------------------------------------------------------------------------|
D|-7/9-9-9--9\7-7-7--7-7-7-7--2-2-2-2----7/9-9-9--9\7-7-7--7-7-7-7--2-2-2-2-|
A|-7/9-9-9--9\7-7-7--7-7-7-7--2-2-2-2----7/9-9-9--9\7-7-7--7-7-7-7--2-2-2-2-|
D|-7/9-9-9--9\7-7-7--7-7-7-7--2-2-2-2----7/9-9-9--9\7-7-7--7-7-7-7--2-2-2-2-|
                          *Above and below play together
e|--------------------------------------------------------------------------|
B|--------------------------------------------------------------------------|
G|-11~~~--------------------------------------------------------------------|
D|--------------------------------------------------------------------------|
A|--9~~~--------------------------------------------------------------------|
D|--------------------------------------------------------------------------|

Verse 1:
(Clean)
e|--------2------------------|
B|---------------------------|
G|---------------------------|
D|-----0---------2------4----|X7
A|---0---------2------4------|
D|-0---------2------4--------|

(Distortion on the powerchords)
e|--------2--------------------------------------|
B|-----------------------------------------------|
G|------------------------------------------*9---|
D|-----0---------2------4----2-2-2--4-4-4---*9---|
A|---0---------2------4------2-2-2--4-4-4--------|
D|-0---------2------4--------2-2-2--4-4-4--------|

Chorus 1:
e|--------------------------------------------------------------------------|
B|--------------------------------------------------------------------------|
G|--------------------------------------------------------------------------|
D|-7/9-9-9--9\7-7-7--7-7-7-7--2-2-2-2----7/9-9-9--9\7-7-7--7-7-7-7--2-2-2-2-|
A|-7/9-9-9--9\7-7-7--7-7-7-7--2-2-2-2----7/9-9-9--9\7-7-7--7-7-7-7--2-2-2-2-|
D|-7/9-9-9--9\7-7-7--7-7-7-7--2-2-2-2----7/9-9-9--9\7-7-7--7-7-7-7--2-2-2-2-|

e|--------------------------------------------------------------------------|
B|--------------------------------------------------------------------------|
G|--------------------------------------------------------------------------|
D|-7/9-9-9--9\7-7-7--7-7-7-7--2-2-2-2----7/9-9-9--9\7-7-7--7-7-7-7--2-2-2-2-|
A|-7/9-9-9--9\7-7-7--7-7-7-7--2-2-2-2----7/9-9-9--9\7-7-7--7-7-7-7--2-2-2-2-|
D|-7/9-9-9--9\7-7-7--7-7-7-7--2-2-2-2----7/9-9-9--9\7-7-7--7-7-7-7--2-2-2-2-|

Verse 2:
(Clean)
e|--------2------------------|
B|---------------------------|
G|---------------------------|
D|-----0---------2------4----|X7
A|---0---------2------4------|
D|-0---------2------4--------|

(Distortion on the powerchords)
e|--------2--------------------------------------|
B|-----------------------------------------------|
G|------------------------------------------*9---|
D|-----0---------2------4----2-2-2--4-4-4---*9---|
A|---0---------2------4------2-2-2--4-4-4--------|
D|-0---------2------4--------2-2-2--4-4-4--------|

Chorus 2:
e|--------------------------------------------------------------------------|
B|--------------------------------------------------------------------------|
G|--------------------------------------------------------------------------|
D|-7/9-9-9--9\7-7-7--7-7-7-7--2-2-2-2----7/9-9-9--9\7-7-7--7-7-7-7--2-2-2-2-|
A|-7/9-9-9--9\7-7-7--7-7-7-7--2-2-2-2----7/9-9-9--9\7-7-7--7-7-7-7--2-2-2-2-|
D|-7/9-9-9--9\7-7-7--7-7-7-7--2-2-2-2----7/9-9-9--9\7-7-7--7-7-7-7--2-2-2-2-|

e|--------------------------------------------------------------------------|
B|--------------------------------------------------------------------------|
G|--------------------------------------------------------------------------|
D|-7/9-9-9--9\7-7-7--7-7-7-7--2-2-2-2----7/9-9-9--9\7-7-7--7-7-7-7--2-2-2-2-|
A|-7/9-9-9--9\7-7-7--7-7-7-7--2-2-2-2----7/9-9-9--9\7-7-7--7-7-7-7--2-2-2-2-|
D|-7/9-9-9--9\7-7-7--7-7-7-7--2-2-2-2----7/9-9-9--9\7-7-7--7-7-7-7--2-2-2-2-|

Bridge 1:
(Sawtooth Snyth)
e|-----------------------------|
B|-----------------------------|
G|-----------------------------|
D|-----9------5------5--5------|X4
A|---9------5------5------5----|
D|-9------5------5----------5--|

(Piano)
e|-14-12-10-9-10--10-9-10-----14-12-10-9---5-7--|
B|----------------------------------------------|
G|----------------------------------------------|
D|----------------------------------------------|X4
A|----------------------------------------------|
D|----------------------------------------------|

(Distortion)
E--------------------------------------------------------------|
B--------------------------------------------------------------|
G--------------------------------------------------------------|
D--------------------------------------------------------------|
A-9-9-9-9-9-9---4-4-4-4-4-4---7-7-7-7-7-7---12-12-12-11-11-11--|
D-9-9-9-9-9-9---4-4-4-4-4-4---7-7-7-7-7-7---12-12-12-11-11-11--|
pm. . . . . .   . . . . . .   . . . . . .   .  .  .  .  .  .

E---------------------------------------------------|
B---------------------------------------------------|
G---------------------------------------------------|
D-------------------------------------------44--44--|
A-9-9-9-9-9-9---4-4-4-4-4-4---7-7-7-7-7-7---44--44--|
D-9-9-9-9-9-9---4-4-4-4-4-4---7-7-7-7-7-7---44--44--|
pm. . . . . .   . . . . . .   . . . . . .

E--------------------------------------------------------------|
B--------------------------------------------------------------|
G--------------------------------------------------------------|
D--------------------------------------------------------------|
A-9-9-9-9-9-9---4-4-4-4-4-4---7-7-7-7-7-7---12-12-12-11-11-11--|
D-9-9-9-9-9-9---4-4-4-4-4-4---7-7-7-7-7-7---12-12-12-11-11-11--|
pm. . . . . .   . . . . . .   . . . . . .   .  .  .  .  .  .

E----------------------------------------------|
B----------------------------------------------|
G----------------------------------------------|
D-------------------------------------------4--|
A-9-9-9-9-9-9---4-4-4-4-4-4---7-7-7-7-7-7---4--|
D-9-9-9-9-9-9---4-4-4-4-4-4---7-7-7-7-7-7---4--|
pm. . . . . .   . . . . . .   . . . . . .


Chorus 3:
e|--------------------------------------------------------------------------|
B|--------------------------------------------------------------------------|
G|--------------------------------------------------------------------------|
D|-7/9-9-9--9\7-7-7--7-7-7-7--2-2-2-2----7/9-9-9--9\7-7-7--7-7-7-7--2-2-2-2-|
A|-7/9-9-9--9\7-7-7--7-7-7-7--2-2-2-2----7/9-9-9--9\7-7-7--7-7-7-7--2-2-2-2-|
D|-7/9-9-9--9\7-7-7--7-7-7-7--2-2-2-2----7/9-9-9--9\7-7-7--7-7-7-7--2-2-2-2-|


e|--------------------------------------------------------------------------|
B|--------------------------------------------------------------------------|
G|--------------------------------------------------------------------------|
D|-7/9-9-9--9\7-7-7--7-7-7-7--2-2-2-2----7/9-9-9--9\7-7-7--7-7-7-7--2-2-2-2-|
A|-7/9-9-9--9\7-7-7--7-7-7-7--2-2-2-2----7/9-9-9--9\7-7-7--7-7-7-7--2-2-2-2-|
D|-7/9-9-9--9\7-7-7--7-7-7-7--2-2-2-2----7/9-9-9--9\7-7-7--7-7-7-7--2-2-2-2-|
                          *Above and below play together
e|--------------------------------------------------------------------------|
B|---------------------------------------------------------7---9----11--12--|
G|--------------------------------------------------------------------------|
D|---------------------------------------------------------5---7-----9--10--|
A|--------------------------------------------------------------------------|
D|--------------------------------------------------------------------------|


e|--------------------------------------------------------------------------|
B|--------------------------------------------------------------------------|
G|--------------------------------------------------------------------------|
D|-7/9-9-9--9\7-7-7--7-7-7-7--2-2-2-2----7/9-9-9--9\7-7-7--7-7-7-7--2-2-2-2-|
A|-7/9-9-9--9\7-7-7--7-7-7-7--2-2-2-2----7/9-9-9--9\7-7-7--7-7-7-7--2-2-2-2-|
D|-7/9-9-9--9\7-7-7--7-7-7-7--2-2-2-2----7/9-9-9--9\7-7-7--7-7-7-7--2-2-2-2-|
                          *Above and below play together
e|--------------------------------------------------------------------------|
B|--------------------------------------------------------------------------|
G|-11~~~--------------------------------------------------------------------|
D|--------------------------------------------------------------------------|
A|--9~~~--------------------------------------------------------------------|
D|--------------------------------------------------------------------------|

e|--------------------------------------------------------------------------|
B|--------------------------------------------------------------------------|
G|--------------------------------------------------------------------------|
D|-7/9-9-9--9\7-7-7--7-7-7-7--2-2-2-2----7/9-9-9--9\7-7-7--7-7-7-7--2-2-2-2-|
A|-7/9-9-9--9\7-7-7--7-7-7-7--2-2-2-2----7/9-9-9--9\7-7-7--7-7-7-7--2-2-2-2-|
D|-7/9-9-9--9\7-7-7--7-7-7-7--2-2-2-2----7/9-9-9--9\7-7-7--7-7-7-7--2-2-2-2-|

e|-----------|
B|-----------|
G|-----------|
D|-0~~~~~~---|
A|-0~~~~~~---|
D|-0~~~~~~---|

-----------------------------------------------------------------------------
                                  Hollow Again
-----------------------------------------------------------------------------

Intro:
(Clean)
e|---------------------------------------|
B|---------------------------------------|
G|---------------------------------------|
D|-5--9--2----5--9--2----5--9--2----5----|
A|-5--9--2----5--9--2----5--9--2----5----|
D|-5--9--2----5--9--2----5--9--2----5----|

Verse 1a:
(Distortion)
e|-0-0-0--0-0-0--0-0-0---0--0--0--0--0--0--0--------|
B|-5-5-5--7-7-7--8-8-8-/10-10-10-10-10-10-10--------|
G|--------------------------------------------------|
D|--------------------------------------------|-----|
A|--------------------------------------------|  ---|
D|--------------------------------------------|  ---|
                                                  |X2
e|-0-0-0--0-0-0--0-0-0---0--0--0--0--0--0--0--|  ---|
B|-5-5-5--7-7-7--8-8-8-/12-12-12-12-12-12-12--|  ---|
G|--------------------------------------------|-----|
D|--------------------------------------------------|
A|--------------------------------------------------|
D|--------------------------------------------------|

Pre-Chorus 1a:
e|-------------------------------------------------------------------|
B|-------------------------------------------------------------------|
G|-------------------------------------------------------------------|
D|-2--2222--*9--2-2----2222------2-2----2222--*9--2-2-----2222-xxxx--|
A|-2--2222------2-2----2222--*7--2-2----2222------2-2-----2222-xxxx--|
D|-2--2222------2-2----2222------2-2----2222------2-2-----2222-xxxx--|


Verse 1b:
e|-0-0-0--0-0-0--0-0-0---0--0--0--0--0--0--0--------|
B|-5-5-5--7-7-7--8-8-8-/10-10-10-10-10-10-10--------|
G|--------------------------------------------------|
D|--------------------------------------------|-----|
A|--------------------------------------------|  ---|
D|--------------------------------------------|  ---|
                                                  |X2
e|-0-0-0--0-0-0--0-0-0---0--0--0--0--0--0--0--|  ---|
B|-5-5-5--7-7-7--8-8-8-/12-12-12-12-12-12-12--|  ---|
G|--------------------------------------------|-----|
D|--------------------------------------------------|
A|--------------------------------------------------|
D|--------------------------------------------------|

Pre-Chorus 1b:
e|-------------------------------------------------------------------|
B|-------------------------------------------------------------------|
G|-------------------------------------------------------------------|
D|-2--2222--*9--2-2----2222------2-2----2222--*9--2-2-----2222-xxxx--|
A|-2--2222------2-2----2222--*7--2-2----2222------2-2-----2222-xxxx--|
D|-2--2222------2-2----2222------2-2----2222------2-2-----2222-xxxx--|


Chorus 1:
e|-------------------------------------------------------------------|
B|-5--7--8--10-----5--7--8--12----5--7--8--10------------------------|
G|-------------------------------------------------------------------|
D|-2--4--5--7------2--4--5--9-----2--4--5--7----5-2--222--4-2-0-0-0--|
A|-------------------------------------------------------------------|
D|-------------------------------------------------------------------|

e|-------------------------------------------------------------------|
B|-5--7--8--10-----5--7--8--12----5--7--8--10------------------------|
G|-------------------------------------------------------------------|
D|-2--4--5--7------2--4--5--9-----2--4--5--7----5-2--222--4-2-0-0-0--|
A|-------------------------------------------------------------------|
D|-------------------------------------------------------------------|

After-Chorus 1 Music:
e|-00000000-00000000----00000000-00000~~~--|
B|-55555555-55554444----55555555-55554~~~--|
G|-----------------------------------------|
D|-----------------------------------------|
A|-----------------------------------------|
D|-----------------------------------------|

Verse 2:
e|-0-0-0--0-0-0--0-0-0---0--0--0--0--0--0--0--------|
B|-5-5-5--7-7-7--8-8-8-/10-10-10-10-10-10-10--------|
G|--------------------------------------------------|
D|--------------------------------------------|-----|
A|--------------------------------------------|  ---|
D|--------------------------------------------|  ---|
                                                  |X2
e|-0-0-0--0-0-0--0-0-0---0--0--0--0--0--0--0--|  ---|
B|-5-5-5--7-7-7--8-8-8-/12-12-12-12-12-12-12--|  ---|
G|--------------------------------------------|-----|
D|--------------------------------------------------|
A|--------------------------------------------------|
D|--------------------------------------------------|

Pre-Chorus 2:
e|-------------------------------------------------------------------|
B|-------------------------------------------------------------------|
G|-------------------------------------------------------------------|
D|-2--2222--*9--2-2----2222------2-2----2222--*9--2-2-----2222-xxxx--|
A|-2--2222------2-2----2222--*7--2-2----2222------2-2-----2222-xxxx--|
D|-2--2222------2-2----2222------2-2----2222------2-2-----2222-xxxx--|

Chorus 1:
e|-------------------------------------------------------------------|
B|-5--7--8--10-----5--7--8--12----5--7--8--10------------------------|
G|-------------------------------------------------------------------|
D|-2--4--5--7------2--4--5--9-----2--4--5--7----5-2--222--4-2-0-0-0--|
A|-------------------------------------------------------------------|
D|-------------------------------------------------------------------|

e|-------------------------------------------------------------------|
B|-5--7--8--10-----5--7--8--12----5--7--8--10------------------------|
G|-------------------------------------------------------------------|
D|-2--4--5--7------2--4--5--9-----2--4--5--7----5-2--222--4-2-0-0-0--|
A|-------------------------------------------------------------------|
D|-------------------------------------------------------------------|

e|--------------------------------|
B|--------------------------------|
G|--------------------------------|
D|-4h5p4-2--2-4h5p4-2-2-2--2~~~---|
A|-------------------------2~~~---|
D|-------------------------2~~~---|

Bridge 1:
(Clean)
e|---------------------------------------|
B|---------------------------------------|
G|---------------------------------------|
D|-5--9--2----5--9--2----5--9--2---------|
A|-5--9--2----5--9--2----5--9--2---------|
D|-5--9--2----5--9--2----5--9--2---------|

e|---------------------------------------|
B|---------------------------------------|
G|---------------------------------------|
D|-5--9--2----5--9--2----5--9--2----5----|
A|-5--9--2----5--9--2----5--9--2----5----|
D|-5--9--2----5--9--2----5--9--2----5----|

Bridge 2 (Solo):
(Distortion)
e|------|
B|------|
G|------|
D|-10---|
A|-10---|
D|-10---|

e|-----0--0--0--0--0--0--0--0--0--0--0--0---|
B|-----12-12-12-12-12-12-12-12-12-12-12-12--|
G|------------------------------------------|
D|-2----------------------------------------|
A|-2----------------------------------------|
D|-2----------------------------------------|

e|-----0--0--0--0--0--0--0--0--0--0--0--0---|
B|-----12-12-12-12-11-11-11-11-8--8--8--8---|
G|------------------------------------------|
D|-0----------------------------------------|
A|-0----------------------------------------|
D|-0----------------------------------------|


Pre-Chorus 3:
e|-------------------------------------------------|
B|-------------------------------------------------|
G|-------------------------------------------------|
D|-2----2-2-2-2--*9-------2-2---2-2-2-2------|-----|
A|-2----2-2-2-2-----------2-2---2-2-2-2--*7--|  ---|
D|-2----2-2-2-2-----------2-2---2-2-2-2------|  ---|
                                    *Plays together
e|-00000000-00000000------00000000-00000000--|  ---|
B|-55555555-55554444------55555555-55554444--|  ---|
G|-------------------------------------------|-----|
D|-------------------------------------------------|
A|-------------------------------------------------|
D|-------------------------------------------------|


e|-------------------------------------------------|
B|-------------------------------------------------|
G|-------------------------------------------------|
D|-2-2--2-2-2-2--*9-------2-2---2-2-2-2-xxxx-|-----|
A|-2-2--2-2-2-2-----------2-2---2-2-2-2-xxxx-|  ---|
D|-2-2--2-2-2-2-----------2-2---2-2-2-2-xxxx-|  ---|
                                    *Plays together
e|-00000000-00000000------00000000-0000------|  ---|
B|-55555555-55554444------55555555-5555------|  ---|
G|-------------------------------------------|-----|
D|-------------------------------------------------|
A|-------------------------------------------------|
D|-------------------------------------------------|

Chorus 3:
e|-------------------------------------------------------------------|
B|-5--7--8--10-----5--7--8--12----5--7--8--10------------------------|
G|-------------------------------------------------------------------|
D|-2--4--5--7------2--4--5--9-----2--4--5--7----5-2--222--4-2-0-0-0--|
A|-------------------------------------------------------------------|
D|-------------------------------------------------------------------|

e|-------------------------------------------------------------------|
B|-5--7--8--10-----5--7--8--12----5--7--8--10------------------------|
G|-------------------------------------------------------------------|
D|-2--4--5--7------2--4--5--9-----2--4--5--7----5-2--222--4-2-0-0-0--|
A|-------------------------------------------------------------------|
D|-------------------------------------------------------------------|

e|-------------------------------------------------------------------|
B|-5--7--8--10-----5--7--8--12----5--7--8--10------------------------|
G|-------------------------------------------------------------------|
D|-2--4--5--7------2--4--5--9-----2--4--5--7----5-2--222--4-2-0-0-0--|
A|-------------------------------------------------------------------|
D|-------------------------------------------------------------------|

Chorus 3 Repeat:
e|-------------------------------------------------------------------|
B|-5--7--8--10-----5--7--8--12----5--7--8--10------------------------|
G|-------------------------------------------------------------------|
D|-2--4--5--7------2--4--5--9-----2--4--5--7----5-2--222--4-2-0-0-0--|
A|-------------------------------------------------------------------|
D|-------------------------------------------------------------------|

e|-------------------------------------------------------------------|
B|-5--7--8--10-----5--7--8--12----5--7--8--10------------------------|
G|-------------------------------------------------------------------|
D|-2--4--5--7------2--4--5--9-----2--4--5--7----5-2--222--4-2-0-0-0--|
A|-------------------------------------------------------------------|
D|-------------------------------------------------------------------|

e|--------------------------------|
B|--------------------------------|
G|--------------------------------|
D|-4h5p4-2--2-4h5p4-2-2-2--2~~~---|
A|-------------------------2~~~---|
D|-------------------------2~~~---|


-----------------------------------------------------------------------------
                             ...With Regards, T.H.
-----------------------------------------------------------------------------

NOTE: The two tracks over top of eachother based
on TIME. Meaning that when one track plays a note,
if the second track is playing a note in the same spot,
they are played together. Understand? :)

Intro:
e|-----------------|
B|-----------------|
G|-----------------|
D|-----------------|
A|-12--12--12--12--|
D|-----------------|


Verse 1:
e|-----------------------------------------------------------------------|
B|-----------------------------------------------------------------------|
G|-----------------------------------------------------------------------|
D|-----------------------------------------------------------------------|
A|-12-----12-12-12-12---12-12-12---12-----12-12-12-12----12-12-12--------|
D|-----------------------------------------------------------------------|
                        *Played together
e|-----------------------------------------------------------------------|
B|-----------------------------------------------------------------------|
G|-11--9--7--6--4--2---------------11--9--7--6--4--2---------------------|
D|-----------------------------------------------------------------------|
A|-----------------------------------------------------------------------|
D|-----------------------------------------------------------------------|


e|-----------------------------------------------------------------------|
B|-----------------------------------------------------------------------|
G|-----------------------------------------------------------------------|
D|-----------------------------------------------------------------------|
A|-12-----12-12-12-12---12-12-12-12--12-----12-12-12-12----12-12-12-12---|
D|-----------------------------------------------------------------------|
                        *Played together
e|-----------------------------------------------------------------------|
B|-----------------------------------------------------------------------|
G|-11--9--7--6--4--2-----------------11--9--7--6--4--2-------------------|
D|-----------------------------------------------------------------------|
A|-----------------------------------------------------------------------|
D|-----------------------------------------------------------------------|

Outro:
e|-----------------------------------------------------------------------|
B|-----------------------------------------------------------------------|
G|-11--9--7--6--4--2-----------------11--9--7--6--4----------------------|
D|-----------------------------------------------------------------------|
A|-----------------------------------------------------------------------|
D|-----------------------------------------------------------------------|

Wow...ya I know what you're saying...pretty much the
greatest tab ever huh!? :)
I am proud.

So...I want to share a story now.
One day a long time ago, there once lived a boy. And this boy played
guitar. But the boy, no matter what he did, could not tab out a song.
Not even a note. Then one day, this boy was blessed with a gift.
The gift brought him such joy and hapiness into his life.

He asked his mother..."mommy...why did God give me this gift?"
"For plessure?" the boy asked..."for happiness?" ... "for wealth?"
The mother replied..."No son. God gave you this gift to share with
the world. God gave you this gift to share with others, and bring
joy and hapiness into their lives, just like the Lord has brought
into your life by giving you this gift. That is why son."

The mother then said to the son..."now go and share this gift
with the world." So the boy ran to his nearest computer and went
to www.ultimate-gutar.com and wrote three album tabs for Project 86.

The end.

Anyways...any comments, e-mail me here: Prototyepbrad@hotmail.com

ha :) God bless.
comments
We did not receive enough feedback on this tab! Please rate:
print report bad tab
1 2 3 4 5
2 comments total.
+1 reply
365_days_gone wrote on September 1 2007, 06:27 am

OK, so, I've already got some changes...


...A Word From Our Sponsors is atually like this...

e|-19-17-16----16-19-17-16-------16-19-17-16------17-19-17-16--|
B|-------------------------------------------------------------|
G|-------------------------------------------------------------|
D|-------------------------------------------------------------|
A|-------------------------------------------------------------|
D|-------------------------------------------------------------|

Team Black:

Bridge:
e|----------------------|
B|----------------------|
G|----------------------|
D|-2~~~~~~--------------|
A|-2~~~~~~--------------|
E|-2~~~~~~---14\--------|

In Bottom Feeder, ignore the "X3" in verse 2!!




In Last Meal, the bridge 3 should be like this:

Bridge 3:
e|--------------------------------------------------------|
B|--------------------------------------------------------|
G|--------------------------------------------------------|
D|----------------------------------------------------0---|
A|-5-------5-----------------5---------5--------------0---|
D|---8-7-----8-7-5-5h7----------8-7-------8-7-5-5h7---0---|

+1 reply
365_days_gone wrote on September 1 2007, 06:28 am

Sorry, Last Meal is like THIS:

e|--------------------------------------------------------|
B|--------------------------------------------------------|
G|--------------------------------------------------------|
D|----------------------------------------------------0---|
A|-5-------5-----------------5---------5--------------0---|
D|---8-7-----8-7-5-7p5----------8-7-------8-7-5-7p5---0---|

I want to post or [tab]
guest
You may want to rate the tab now too:
select rating
Please do not post tabs as comments. Select "correction" instead!