Oops, an error
Loading. Please wait.

A Plateful Of Our Dead Tab

ver1
ver1

Whole song

Interactive

More versions @911Tabs.com
4,877 views 1 this week
1 commentread comment
1 2 3 4 5
excellent!
x 2
Autoscroll
+/-
esc
set tempo
stop
Contributor
Difficulty
Tuning
advanced
C# G# C# F# A# D#
WARNING: You are trying to view
                                    content from Ultimate-Guitar.com
                                    in an unauthorized application,
                                    which is prohibited.

                                    Please use an official Ultimate
                                    Guitar Tabs application for iPhone,
                                    iPad or Android to access legitimate
                                    chords, guitar, bass, and drum tabs
                                    from Ultimate-Guitar.com database.

                                    Type "ultimate guitar tabs" in Apple
                                    App Store's or Android Market's
                                    search to find the application.
A Plateful of Our Dead - Protest the Hero

Sorry that it's so long, I exported it from Guitar Pro. Luke's part is shown first, then 
In general Luke does the lead, and Tim the rhythm and harmonies, but that's not always 
case. Enjoy.

Luke Hoskin

      PM PM PM
      |--3--|
      S  S  S  S S E  S S S S S S S S E     S S S S E  S S S S S S S S E
D#||-------------------------------------|--------------------------------|
A#||-------------------------------------|--------------------------------|
F#||--7--7--7--7---7----7---7---7-7------|--7---7---7----7---7---7-7------|
C#||--6--6--6--6---6----6---6---6-6------|--6---6---6----6---6---6-6------|
G#||--5--5--5--5---5----5---5---5-5------|--5---5---5----5---5---5-5------|
C#||-------------------------------------|--------------------------------|


  PM PM PM                              PM PM PM          ^
  |--3--|                               |--3--|
  S  S  S  S S E  S S S S S S S S E     S  S  S  S S E  S Q.     E.
-------------------------------------|-------------------------------|
-------------------------------------|--------------------9------L---|
--7--7--7--7---7----7---7---7-7------|--7--7--7--7---7----7------L---|
--6--6--6--6---6----6---6---6-6------|--6--6--6--6---6----6------L---|
--5--5--5--5---5----5---5---5-5------|--5--5--5--5---5----5------L---|
-------------------------------------|-------------------------------|


                   |--3-|
  S S S S  S S S S S S  S  S  S S  S S  S
------------------------------------------|
------------------------------------------|
------------------------------------------|
------7------8-------7h-8-10p-7-8-11-8----|
--9-9---9-10---9-9-8-------------------10-|
------------------------------------------|


                   |--3-|
  S S S S  S S S S S S  S  S  S S  S S  S
------------------------------------------|
------------------------------------------|
------------------------------------------|
------7------8-------7h-8-10p-7-8-11-8----|
--9-9---9-10---9-9-8-------------------10-|
------------------------------------------|


                   |--3-|
  S S S S  S S S S S S  S  S  S S  S S  S
------------------------------------------|
------------------------------------------|
------------------------------------------|
------7------8-------7h-8-10p-7-8-11-8----|
--9-9---9-10---9-9-8-------------------10-|
------------------------------------------|


                   |--3-|
  S S S S  S S S S S S  S  S  S S  S S  S    S S  S  S S  S S S
------------------------------------------|---------------------|
------------------------------------------|---------------------|
------------------------------------------|---------------------|
------7------8-------7h-8-10p-7-8-11-8----|----7-10----8-11---5-|
--9-9---9-10---9-9-8-------------------10-|--8------10------7---|
------------------------------------------|---------------------|


     PM PM    PM PM
  E  S  S  E  S  S  S  S  S S S S S S
--------------------------------------|
--------------------------------------|
----------------------------8-7---6---|
--0--0--0--0--0--0--8----10-----8-----|
--0--0--0--0--0--0----10--------------|
--0--0--0--0--0--0--------------------|


  PM PM PM PM     PM PM
  S  S  S  S  S S S  S  S S S S S  S   E
-------------------------------------------|
------------------------------6-8-10-------|
--------------8-7-------6-7-9--------<>6b--|
--------8--7------5--8---------------------|
--5--8-------------------------------------|
-------------------------------------------|


     PM PM    PM PM
  E  S  S  E  S  S  S  S  S S S S S S
--------------------------------------|
--------------------------------------|
----------------------------8-7---6---|
--0--0--0--0--0--0--8----10-----8-----|
--0--0--0--0--0--0----10--------------|
--0--0--0--0--0--0--------------------|


  PM PM PM PM     PM PM
  S  S  S  S  S S S  S  S S S S S  S    E
--------------------------------------------|
------------------------------6-8-10--------|
--------------8-7-------6-7-9---------------|
--------8--7------5--8---------------<>10b--|
--5--8--------------------------------------|
--------------------------------------------|


          |--3--| |--3--|
  S  E  S S  S  S S  S  S S Q    S E     H
--------------------------------------|-----------|
--------------------------------------|-----------|
-----------------------------------6--|--7--------|
--L\-------------------------------x--|--x--------|
----------5h-7h-8-5h-7h-8-8--------4--|--5--------|
--------------------------------------|-----------|


  PM PM   PM      PM      PM
  S  S  S S  S  S S  S  S S  S  S S S S S
------------------------------------------|
------------------------------------------|
------------------------------------------|
--------7----7s-5----5s-3----3s-2-7-8-8-8-|
--5--5----5-------5-------5-------7-8-8-8-|
----------------------------------7-8-8-8-|


  PM PM   PM      PM      PM
  S  S  S S  S  S S  S  S S  S  S S  S  S  S
---------------------------------------------|
---------------------------------------------|
---------------------------------------------|
--------7----7s-5----5s-3----3s-2-8-10-10-10-|
--5--5----5-------5-------5-------8-10-10-10-|
----------------------------------8-10-10-10-|


  PM PM   PM      PM      PM
  S  S  S S  S  S S  S  S S  S  S S S S S    S S S S S S S S S S S S
------------------------------------------|--------------------------|
------------------------------------------|--------------------------|
------------------------------------------|--------------------------|
--------7----7s-5----5s-3----3s-2-7-8-8-8-|--5---5---5-3---5---5---5-|
--5--5----5-------5-------5-------7-8-8-8-|--5---5---5-3---5---5---5-|
----------------------------------7-8-8-8-|--5---5---5-3---5---5---5-|


  PM PM   PM      PM      PM
  S  S  S S  S  S S  S  S S  S  S S S S S
------------------------------------------|
------------------------------------------|
------------------------------------------|
--------7----7s-5----5s-3----3s-2-7-8-8-8-|
--5--5----5-------5-------5-------7-8-8-8-|
----------------------------------7-8-8-8-|


  PM PM   PM      PM      PM
  S  S  S S  S  S S  S  S S  S  S S  S  S  S
---------------------------------------------|
---------------------------------------------|
---------------------------------------------|
--------7----7s-5----5s-3----3s-2-8-10-10-10-|
--5--5----5-------5-------5-------8-10-10-10-|
----------------------------------8-10-10-10-|


  PM PM   PM      PM      PM
  S  S  S S  S  S S  S  S S  S  S S S S S    S S S S S S S S S S S S
------------------------------------------|--------------------------|
------------------------------------------|--------------------------|
------------------------------------------|--------------------------|
--------7----7s-5----5s-3----3s-2-7-8-8-8-|--5---5---5-3---5---5---5-|
--5--5----5-------5-------5-------7-8-8-8-|--5---5---5-3---5---5---5-|
----------------------------------7-8-8-8-|--5---5---5-3---5---5---5-|


       PM PM                       PM PM
  Q    T  T  S Q.     Q       Q    T  T  S Q.     Q
---------------------------|---------------------------|
---------------------------|---------------------------|
---------------------------|---------------5-----------|
--5----5--5----3------0----|--1----1--1----5------0----|
--5----5--5----3------0----|--1----1--1----3-----------|
--5----5--5----3------0----|--1----1--1----------------|


       PM PM
  Q    T  T  S Q.     Q       S S S S S S S S S S S S S E  S
---------------------------|---------------------------------|
---------------------------|---------------------------------|
---------------------------|--7---7---7-7---7---7---7-7------|
--5----5--5----3------0----|--6---6---6-6---6---6---6-6------|
--5----5--5----3------0----|--5---5---5-5---5---5---5-5------|
--5----5--5----3------0----|---------------------------------|


                   |--3-|                            |--3-|
  S S S S  S S S S S S  S Q.        S S S S  S S S S S S  S  Q.
---------------------------------|----------------------------------|
---------------------------------|----------------------------------|
---------------------------------|----------------------------------|
------7------8-------7h-8-8------|------7------8-------7h-8-10------|
--9-9---9-10---9-9-8------8------|--9-9---9-10---9-9-8------10------|
--------------------------8------|--------------------------10------|


                   |--3-|
  S S S S  S S S S S S  S Q.        S S S S S S S S S S S S
---------------------------------|--------------------------|
---------------------------------|--------------------------|
---------------------------------|--------------------------|
------7------8-------7h-8-8------|--0---0---0-0---0---0---0-|
--9-9---9-10---9-9-8------8------|--0---0---0-0---0---0---0-|
--------------------------8------|--0---0---0-0---0---0---0-|


  PM    PM PM    PM PM
  S  E  T  T  E  S  S  S  S S S S S S S
----------------------------------------|
----------------------------------------|
-----------------------7-10-9-7-5-9-7-5-|
--0-----0--0-----0--0-------------------|
--0-----0--0-----0--0-------------------|
--0-----0--0-----0--0-------------------|


  PM    PM PM    PM PM
  S  E  T  T  E  S  S   S  S  S  S S  S   E
--------------------------10----10---10--------|
-----------------------13----11----8-----------|
----------------------------------------<>9b~--|
--0-----0--0-----0--0--------------------------|
--0-----0--0-----0--0--------------------------|
--0-----0--0-----0--0--------------------------|


  PM    PM PM    PM PM
  S  E  T  T  E  S  S  S  S S S S S S S
----------------------------------------|
----------------------------------------|
-----------------------7-10-9-7-5-9-7-5-|
--0-----0--0-----0--0-------------------|
--0-----0--0-----0--0-------------------|
--0-----0--0-----0--0-------------------|


  S  S S S S  S  S S  S  S  S  S S  S  S S
-------------------------------------------|
-------------------------------------------|
--7-10-9-7-9-12-10-9-10-14-12-10-9-12-10-9-|
-------------------------------------------|
-------------------------------------------|
-------------------------------------------|


  PM    PM    PM
  S  E  S  E  S  S S  S S S S S S S
------------------------------------|
------------------------------------|
-------------------7-10-9-7-5-9-7-5-|
--0-----0-----0---------------------|
--0-----0-----0---------------------|
--0-----0-----0---------------------|


  PM    PM    PM
  S  E  S  E  S  S  S  S  S  S S  S    E
----------------------10----10---10--------|
-------------------13----11----8-----------|
------------------------------------<>10~--|
--0-----0-----0----------------------------|
--0-----0-----0----------------------------|
--0-----0-----0----------------------------|


  PM PM PM PM PM PM PM PM
  S  S  S  S  S  S  S  S  S  S S S S S S S
-------------------------------------------|
-------------------------------------------|
--------------------------7-10-9-7-5-9-7-5-|
--0--0--0--0--0--0--0--0-------------------|
--0--0--0--0--0--0--0--0-------------------|
--0--0--0--0--0--0--0--0-------------------|


   S  S  S  S S  S  S S  S  S  S  S  T   T  E.     W
------------------------------------------------|-------------------|
------------------------------------------------|-------------------|
--10-14-12-10-9-12-10-9-12-15-14-12-15s-19~-L---|-------------------|
------------------------------------------------|-------------------|
------------------------------------------------|-------------------|
------------------------------------------------|-------------------|


  W                   W
-------------------|-------------------|
-------------------|-------------------|
-------------------|-------------------|
-------------------|-------------------|
-------------------|-------------------|
-------------------|-------------------|


  |--3--| |--3--| |---3--| |---3--| |---3---| |---3---|  |---3---|  |---3---|
  S  S  S S  S  S S  S   S S  S   S S   S   S S   S   S  S   S   S  S   S   S
------------------------------------------------------------------------------|
------------------------------------------------------------------------------|
------------------------------------------------------------------------------|
----------5h-7h-8----------7h-8h-10-----------8h-10h-12------------10h-12h-13-|
--5h-7h-8---------7h-8h-10----------8h-10h-12-----------10h-12h-13------------|
------------------------------------------------------------------------------|


   Q.      Q.     Q        S  S  S  S  S   S   S   S  S  S  S  S  S  S  S  S
-----------------------|--------------13h-15p-13s-12-------------17-15-13-12-|
-----------------------|--------11-13----------------------15-16-------------|
--14------12------L----|--12-14----------------------15-17-------------------|
-----------------------|-----------------------------------------------------|
-----------------------|-----------------------------------------------------|
-----------------------|-----------------------------------------------------|


   E   E   S  S  S  E   S  S  E   S  S  S
------------------------------------------|
------------------------------------------|
--15--15--15-15-15-14--14-14-14--14-14-14-|
---x---x---x--x--x--x---x--x--x---x--x--x-|
--13--13--13-13-13-12--12-12-12--12-12-12-|
------------------------------------------|


   E   E   S  S  S  E   S  S  E   S  S  S    E  E  S S S E  S S E  S S S
------------------------------------------|------------------------------|
------------------------------------------|------------------------------|
--12--12--12-12-12-11--11-11-11--11-11-11-|------------------------------|
---x---x---x--x--x--x---x--x--x---x--x--x-|--5--5--5-5-5-5--5-5-5--5-5-5-|
--10--10--10-10-10--9---9--9--9---9--9--9-|--5--5--5-5-5-5--5-5-5--5-5-5-|
------------------------------------------|--5--5--5-5-5-5--5-5-5--5-5-5-|


  E  E  S S S E  S S E  S S S    S S E  S S E  S S E  S S S S
------------------------------|-------------------------------|
------------------------------|-------------------------------|
------------------------------|-------------------------------|
--1--1--1-1-1-1--1-1-1--1-1-3-|--L-3-3--3-3-3--3-3-3--3-3-3-3-|
--1--1--1-1-1-1--1-1-1--1-1-3-|--L-3-3--3-3-3--3-3-3--3-3-3-3-|
--1--1--1-1-1-1--1-1-1--1-1-3-|--L-3-3--3-3-3--3-3-3--3-3-3-3-|


  PM PM PM PM             PM PM PM PM
  S  S  S  S   S  S  S  S S  S  S  S   S  S  S  S
--------------------------------------------------|
--------------------------------------------------|
--------------11-11-11-11-------------14-14-14-14-|
--0--0--0--0---x--x--x--x-0--0--0--0---x--x--x--x-|
--0--0--0--0---9--9--9--9-0--0--0--0--12-12-12-12-|
--0--0--0--0--------------0--0--0--0--------------|


  S S  S  S S  S S S S S  S  S S  S S S    E  E  S S S E  S S E  S S S
----------------------------------------|------------------------------|
----------------------------------------|------------------------------|
----------------------------------------|------------------------------|
----7-10----8-11---5---7-10----8-11---5-|--5--5--5-5-5-5--5-5-5--5-5-5-|
--8------10------7---8------10------7---|--5--5--5-5-5-5--5-5-5--5-5-5-|
----------------------------------------|--5--5--5-5-5-5--5-5-5--5-5-5-|


  E  E  S S S E  S S E  S S S    S S E  S S E  S S E  S S S S
------------------------------|-------------------------------|
------------------------------|-------------------------------|
------------------------------|-------------------------------|
--1--1--1-1-1-1--1-1-1--1-1-3-|--L-3-3--3-3-3--3-3-3--3-3-3-3-|
--1--1--1-1-1-1--1-1-1--1-1-3-|--L-3-3--3-3-3--3-3-3--3-3-3-3-|
--1--1--1-1-1-1--1-1-1--1-1-3-|--L-3-3--3-3-3--3-3-3--3-3-3-3-|


  PM PM PM PM             PM PM PM PM
  S  S  S  S   S  S  S  S S  S  S  S   S  S  S  S    H        Q
--------------------------------------------------|----------------|
--------------------------------------------------|----------------|
--------------11-11-11-11-------------14-14-14-14-|----------------|
--0--0--0--0---x--x--x--x-0--0--0--0---x--x--x--x-|----------------|
--0--0--0--0---9--9--9--9-0--0--0--0--12-12-12-12-|----------------|
--0--0--0--0--------------0--0--0--0--------------|----------------|


    PM PM PM   PM   PM PM PM   PM      PM PM PM   PM     PM PM   PM
  S S  S  S  S S  S S  S  S  S S     S S  S  S  S S  S S S  S  S S
----------------------------------|---------------------------------|
----------------------------------|---------------------------------|
--5----------5----5----------5----|--5----------5----7-7-------7----|
--5----------5----5----------5----|--5----------5----7-7-------7----|
--3-3--3--3--3-3--3-3--3--3--3-3--|--3-3--3--3--3-3--5-5-5--5--5-5--|
----------------------------------|---------------------------------|


      PM PM   PM   PM PM PM   PM
  S S S  S  S S  S S  S  S  S S     T T T T T T T T T T T T
---------------------------------|--------------------------|
---------------------------------|--------------------------|
--5-5-------5----5----------5----|--5-5-5-5-5-5-5-5-5-5-5-5-|
--5-5-------5----5----------5----|--5-5-5-5-5-5-5-5-5-5-5-5-|
--3-3-3--3--3-3--3-3--3--3--3-3--|--3-3-3-3-3-3-3-3-3-3-3-3-|
---------------------------------|--------------------------|


      PM PM   PM   PM PM PM   PM      PM PM PM   PM     PM PM   PM
  S S S  S  S S  S S  S  S  S S     S S  S  S  S S  S S S  S  S S
---------------------------------|---------------------------------|
---------------------------------|---------------------------------|
--5-5-------5----5----------5----|--5----------5----7-7-------7----|
--5-5-------5----5----------5----|--5----------5----7-7-------7----|
--3-3-3--3--3-3--3-3--3--3--3-3--|--3-3--3--3--3-3--5-5-5--5--5-5--|
---------------------------------|---------------------------------|


      PM PM   PM     PM PM   PM
  S S S  S  S S  S S S  S  S S     T T T T T T T T E  T T T T T T T T E
--------------------------------|----------------------------------------|
--------------------------------|----------------------------------------|
--5-5-------5----5-5-------5----|--5-5-5-5-5-5-5-5----5-5-5-5-5-5-5-5----|
--5-5-------5----5-5-------5----|--5-5-5-5-5-5-5-5----5-5-5-5-5-5-5-5----|
--3-3-3--3--3-3--3-3-3--3--3-3--|--3-3-3-3-3-3-3-3----3-3-3-3-3-3-3-3----|
--------------------------------|----------------------------------------|


  S S S S S S S S S S S S
--------------------------|
--------------------------|
--------------------------|
--7-7-7-7-7-7-7-7-7-7-7-7-|
--7-7-7-7-7-7-7-7-7-7-7-7-|
--7-7-7-7-7-7-7-7-7-7-7-7-|


  PM PM PM PM PM PM PM PM     PM PM PM PM PM PM PM PM
  T  T  T  T  T  T  T  T  S S T  T  T  T  T  T  T  T  S S S S
--------------------------------------------------------------|
--------------------------------------------------------------|
--------------------------------------------------------------|
--7--7--7--7--7--7--7--7--7---7--7--7--7--7--7--7--7--7---7---|
--7--7--7--7--7--7--7--7--7---7--7--7--7--7--7--7--7--7---7---|
--7--7--7--7--7--7--7--7--7---7--7--7--7--7--7--7--7--7---7---|


  S S S S S S S S S S S S S S S S
----------------------------------|
----------------------------------|
----------------------------------|
--3-3-3-3-3-3-3-3-0-0-0-0-0-0-0-0-|
--3-3-3-3-3-3-3-3-0-0-0-0-0-0-0-0-|
--3-3-3-3-3-3-3-3-0-0-0-0-0-0-0-0-|


  PM PM PM PM PM PM PM PM     PM PM PM PM PM PM PM PM
  T  T  T  T  T  T  T  T  S S T  T  T  T  T  T  T  T  S S S S
--------------------------------------------------------------|
--------------------------------------------------------------|
--------------------------------------------------------------|
--7--7--7--7--7--7--7--7--7---7--7--7--7--7--7--7--7--7---7---|
--7--7--7--7--7--7--7--7--7---7--7--7--7--7--7--7--7--7---7---|
--7--7--7--7--7--7--7--7--7---7--7--7--7--7--7--7--7--7---7---|


  S S S S S S S S S S S S S S S S
----------------------------------|
----------------------------------|
----------------------------------|
--3-3-3-3-3-3-3-3-0-0-0-0-0-0-0-0-|
--3-3-3-3-3-3-3-3-0-0-0-0-0-0-0-0-|
--3-3-3-3-3-3-3-3-0-0-0-0-0-0-0-0-|


   S  S  S  S  S  S  S  S  S  S  S  S  S  S  S  S
--10----------------------------------------------|
-----11-------------------------------------------|
--------12-------------------------------------11-|
-----------13-12----------15-------12----12-13----|
-----------------13-10-13----12-13----13----------|
--------------------------------------------------|


   S  S  S  S  S  S  S  S  S  S  S  S  S  S  S  S
--10----------------------------------------------|
-----11-------------------------------------------|
--------12-------------------------------------11-|
-----------13-12----------15-------12----12-13----|
-----------------13-10-13----12-13----13----------|
--------------------------------------------------|


   S  S  S  S  S  S  S  S  S  S  S  S  S  S  S  S
--10----------------------------------------------|
-----11-------------------------------------------|
--------12----------------------------------------|
-----------13-12----------15-------12----10-13-12-|
-----------------13-10-13----12-13----13----------|
--------------------------------------------------|


   S  S  S  S  S  S  S  S  S  S  S  S  S  S  S  S
-----10-------------------------------------------|
--11----11-10-------------------------------------|
--------------12-14-12-11-14-11-12-14-12-14-15-14-|
--------------------------------------------------|
--------------------------------------------------|
--------------------------------------------------|


   S  S  S  S  S  S  S  S  S  S  S  S  S  S  S  S
--10----------------------------------------------|
-----11-------------------------------------------|
--------12-------------------------------------11-|
-----------13-12----------15-------12----12-13----|
-----------------13-10-13----12-13----13----------|
--------------------------------------------------|


   S  S  S  S  S  S  S  S  S  S  S  S  S  S  S  S
--10----------------------------------------------|
-----11-------------------------------------------|
--------12-------------------------------------11-|
-----------13-12----------15-------12----12-13----|
-----------------13-10-13----12-13----13----------|
--------------------------------------------------|


   S  S  S  S  S  S  S  S  S  S  S  S  S  S  S  S
--10----------------------------------------------|
-----11-------------------------------------------|
--------12----------------------------------------|
-----------13-12----------15-------12----10-13-12-|
-----------------13-10-13----12-13----13----------|
--------------------------------------------------|


   S  S  S  S  S  S  S  S  S T   T  S  T   T  S  T   T  S  S
-----10---------------------------------------------------11-|
--11----11----------------10-8h-10-11-10h-11-13-11h-13-15----|
-----------11-12-14-12-11------------------------------------|
-------------------------------------------------------------|
-------------------------------------------------------------|
-------------------------------------------------------------|


   S  S  S  S  S  S  S  S  S  S  S  S  S  S  S  S
--10----------------------------------------------|
-----11-------------------------------------------|
--------12-------------------------------------11-|
-----------13-12----------15-------12----12-13----|
-----------------13-10-13----12-13----13----------|
--------------------------------------------------|


   S  S  S  S  S  S  S  S  S  S  S  S  S  S  S  S
--10----------------------------------------------|
-----11-------------------------------------------|
--------12-------------------------------------11-|
-----------13-12----------15-------12----12-13----|
-----------------13-10-13----12-13----13----------|
--------------------------------------------------|


   S  S  S  S  S  S  S  S  S  S  S  S  S  S  S  S
--10----------------------------------------------|
-----11-------------------------------------------|
--------12----------------------------------------|
-----------13-12----------15-------12----10-13-12-|
-----------------13-10-13----12-13----13----------|
--------------------------------------------------|


   S  S  S  S  S  S  S  S  S  S  S  S  S  S  S  S
-----10-------------------------------------------|
--11----11-10-------------------------------------|
--------------12-14-12-11-14-11-12-14-12-14-15-14-|
--------------------------------------------------|
--------------------------------------------------|
--------------------------------------------------|


   E  S  S  E  S  S  E  S  S  E   E      W                    W
-------------------------------------|---------------------|-------------------|
-------------------------------------|---------------------|-------------------|
--15--L-14-14--L----------14-14b--L--|---------------------|-------------------|
-----------------17-17--L------------|--16~----------------|-------------------|
-------------------------------------|---------------------|-------------------|
-------------------------------------|---------------------|-------------------|


   *Acoustic
   E         E   E   E   E   E   E   E   E   E   E   E   E   E
------------------------10--------------------------10----------|
----------------11----------11--------------11----------11------|
------------12------12----------12------12------12----------12--|
----------------------------------------------------------------|
----------------------------------------------------------------|
--12--------------------------------12--------------------------|


   E   E   E   E   E   E   E   E   E   E   E   E   E   E
------------------10--------------------------------------|
----------11----------11--------------11----------11------|
------12------12----------12------12------12----------12--|
--13--------------------------13--------------14----------|
----------------------------------------------------------|
----------------------------------------------------------|


   E   E   E   E   E   E   E   E   E   E   E   E   E   E
------------------10--------------------------10----------|
----------11----------11--------------11----------11------|
------12------12----------12------12------12----------12--|
----------------------------------------------------------|
----------------------------------------------------------|
--12--------------------------12--------------------------|


   E   E   E   E   E   E   E   E   E   E   E   E   E   E
------------------10--------------------------------------|
----------11----------11--------------11----------11------|
------12------12----------12------12------12----------12--|
--13--------------------------13--------------14----------|
----------------------------------------------------------|
----------------------------------------------------------|


   E   E   E   E   E   E   E   E   E   E   E   E   E   E
------------------10--------------------------10----------|
----------11----------11--------------11----------11------|
------12------12----------12------12------12----------12--|
----------------------------------------------------------|
----------------------------------------------------------|
--12--------------------------12--------------------------|


   E   E   E   E   E   E   E   E   E   E   E   E   E   E
------------------10--------------------------------------|
----------11----------11--------------11----------11------|
------12------12----------12------12------12----------12--|
--13--------------------------13--------------14----------|
----------------------------------------------------------|
----------------------------------------------------------|


   E   E   E   E   E   E   E   E   E   E   E   E   E   E
------------------10--------------------------10----------|
----------11----------11--------------11----------11------|
------12------12----------12------12------12----------12--|
----------------------------------------------------------|
----------------------------------------------------------|
--12--------------------------12--------------------------|


   E   E   E   E   E   E   E   E   E   E   E   E   E   E
------------------10--------------------------------------|
----------11----------11--------------11----------11------|
------12------12----------12------12------12----------12--|
--13--------------------------13--------------14----------|
----------------------------------------------------------|
----------------------------------------------------------|


   E   E   E   E   E   E   E   E   E   E   E   E   E   E
------------------10--------------------------10----------|
----------11----------11--------------11----------11------|
------12------12----------12------12------12----------12--|
----------------------------------------------------------|
----------------------------------------------------------|
--12--------------------------12--------------------------|


   E   E   E   E   E   E   E   E   E   E   E   E   E   E
------------------10--------------------------------------|
----------11----------11--------------11----------11------|
------12------12----------12------12------12----------12--|
--13--------------------------13--------------14----------|
----------------------------------------------------------|
----------------------------------------------------------|


   E   E   E   E   E   E   E   E   E   E   E   E   E   E
------------------10--------------------------10----------|
----------11----------11--------------11----------11------|
------12------12----------12------12------12----------12--|
----------------------------------------------------------|
----------------------------------------------------------|
--12--------------------------12--------------------------|


   E   E   E   E   E   E   E   E   E   E   E   E   E   E
------------------10--------------------------------------|
----------11----------11--------------11----------11------|
------12------12----------12------12------12----------12--|
--13--------------------------13--------------14----------|
----------------------------------------------------------|
----------------------------------------------------------|


   E   E   E   E   E   E   E   E   E   E   E   E   E   E
------------------10--------------------------10----------|
----------11----------11--------------11----------11------|
------12------12----------12------12------12----------12--|
----------------------------------------------------------|
----------------------------------------------------------|
--12--------------------------12--------------------------|


   E   E   E   E   E   E   E   E   E   E   E   E   E   E
------------------10--------------------------------------|
----------11----------11--------------11----------11------|
------12------12----------12------12------12----------12--|
--13--------------------------13--------------14----------|
----------------------------------------------------------|
----------------------------------------------------------|


   E   E   E   E   E   E   E   E   E   E   E   E   E   E
------------------10--------------------------10----------|
----------11----------11--------------11----------11------|
------12------12----------12------12------12----------12--|
----------------------------------------------------------|
----------------------------------------------------------|
--12--------------------------12--------------------------|


   E   E   E   E   E   E   E   E   E   E   E   E   E   E
------------------10--------------------------------------|
----------11----------11--------------11----------11------|
------12------12----------12------12------12----------12--|
--13--------------------------13--------------14----------|
----------------------------------------------------------|
----------------------------------------------------------|


   E   E   E   E   E   E   E   E   E   E   E   E   E   E
------------------10--------------------------10----------|
----------11----------11--------------11----------11------|
------12------12----------12------12------12----------12--|
----------------------------------------------------------|
----------------------------------------------------------|
--12--------------------------12--------------------------|


   E   E   E   E   E   E   E   E   E   E   E   E   E   E
------------------10--------------------------------------|
----------11----------11--------------11----------11------|
------12------12----------12------12------12----------12--|
--13--------------------------13--------------14----------|
----------------------------------------------------------|
----------------------------------------------------------|


   E   E   E   E   E   E   E   E   E   E   E   E   E   E
------------------10--------------------------10----------|
----------11----------11--------------11----------11------|
------12------12----------12------12------12----------12--|
----------------------------------------------------------|
----------------------------------------------------------|
--12--------------------------12--------------------------|


   E   E   E   E   E   E   E   E   E   E   E   E   E   E
------------------10--------------------------------------|
----------11----------11--------------11----------11------|
------12------12----------12------12------12----------12--|
--13--------------------------13--------------14----------|
----------------------------------------------------------|
----------------------------------------------------------|


   E   E   E   E   E   E   E   E   E   E   E   E   E   E
------------------10--------------------------10----------|
----------11----------11--------------11----------11------|
------12------12----------12------12------12----------12--|
----------------------------------------------------------|
----------------------------------------------------------|
--12--------------------------12--------------------------|


   E   E   E   E   E   E   E   E   E   E   E   E   E   E
------------------10--------------------------------------|
----------11----------11--------------11----------11------|
------12------12----------12------12------12----------12--|
--13--------------------------13--------------14----------|
----------------------------------------------------------|
----------------------------------------------------------|


   E   E   E   E   E   E   E   E   E   E   E   E   E   E
------------------10--------------------------10----------|
----------11----------11--------------11----------11------|
------12------12----------12------12------12----------12--|
----------------------------------------------------------|
----------------------------------------------------------|
--12--------------------------12--------------------------|


   E   E   E   E   E   E   E   E   E   E   E   E   E   E
------------------10--------------------------------------|
----------11----------11--------------11----------11------|
------12------12----------12------12------12----------12--|
--13--------------------------13--------------14----------|
----------------------------------------------------------|
----------------------------------------------------------|


   E   E   E   E   E   E   E   E   E   E   E   E   E   E
------------------10--------------------------10----------|
----------11----------11--------------11----------11------|
------12------12----------12------12------12----------12--|
----------------------------------------------------------|
----------------------------------------------------------|
--12--------------------------12--------------------------|


   E   E   E   E   E   E   E   E   E   E   E   E   E   E
------------------10--------------------------------------|
----------11----------11--------------11----------11------|
------12------12----------12------12------12----------12--|
--13--------------------------13--------------14----------|
----------------------------------------------------------|
----------------------------------------------------------|


   E   E   E   E   E   E   E   E   E   E   E   E   E   E
------------------10--------------------------10----------|
----------11----------11--------------11----------11------|
------12------12----------12------12------12----------12--|
----------------------------------------------------------|
----------------------------------------------------------|
--12--------------------------12--------------------------|


   E   E   E   E   E   E   E   E   E   E   E   E   E   E
------------------10--------------------------------------|
----------11----------11--------------11----------11------|
------12------12----------12------12------12----------12--|
--13--------------------------13--------------14----------|
----------------------------------------------------------|
----------------------------------------------------------|


   E   E   E   E   E   E   E   E   E   E   E   E   E   E
------------------10--------------------------10----------|
----------11----------11--------------11----------11------|
------12------12----------12------12------12----------12--|
----------------------------------------------------------|
----------------------------------------------------------|
--12--------------------------12--------------------------|


   E   E   E   E   E   E   E   E   E   E   E   E   E   E
------------------10--------------------------------------|
----------11----------11--------------11----------11------|
------12------12----------12------12------12----------12--|
--13--------------------------13--------------14----------|
----------------------------------------------------------|
----------------------------------------------------------|


   E   E   E   E   E   E   E   E   E   E   E   E   E   E
------------------10--------------------------10----------|
----------11----------11--------------11----------11------|
------12------12----------12------12------12----------12--|
----------------------------------------------------------|
----------------------------------------------------------|
--12--------------------------12--------------------------|


   E   E   E   E   E   E   E   E   E   E   E   E   E   E
------------------10--------------------------------------||
----------11----------11--------------11----------11------||
------12------12----------12------12------12----------12--||
--13--------------------------13--------------14----------||
----------------------------------------------------------||
----------------------------------------------------------||

Tim Millar

      H        Q    E  E     H        Q    E  E     H        Q    E  E
D#||----------------------|----------------------|----------------------|
A#||----------------------|----------------------|----------------------|
F#||-------------------8--|-------------------8--|-------------------8--|
C#||-------------------7--|-------------------7--|-------------------7--|
G#||-------------------6--|-------------------6--|-------------------6--|
C#||----------------------|----------------------|----------------------|


                      PM   PM   PM PM   PM   PM PM PM   PM PM PM
  W                   S  S S  S S  S  S S  S S  S  S  S S  S  S
-------------------|---------------------------------------------|
-------------------|---------------------------------------------|
-------------------|---------------------------------------------|
-------------------|--0----0----0--0----0----0--0--0----0--0--0--|
-------------------|--0----0----0--0----0----0--0--0----0--0--0--|
-------------------|--0----0----0--0----0----0--0--0----0--0--0--|


  PM   PM   PM PM   PM   PM PM PM   PM PM PM
  S  S S  S S  S  S S  S S  S  S  S S  S  S
---------------------------------------------|
---------------------------------------------|
---------------------------------------------|
--0----0----0--0----0----0--0--0----0--0--0--|
--0----0----0--0----0----0--0--0----0--0--0--|
--0----0----0--0----0----0--0--0----0--0--0--|


  PM   PM   PM PM   PM   PM PM PM   PM PM PM
  S  S S  S S  S  S S  S S  S  S  S S  S  S
---------------------------------------------|
---------------------------------------------|
---------------------------------------------|
--0----0----0--0----0----0--0--0----0--0--0--|
--0----0----0--0----0----0--0--0----0--0--0--|
--0----0----0--0----0----0--0--0----0--0--0--|


  PM   PM   PM PM   PM   PM PM PM   PM PM PM
  S  S S  S S  S  S S  S S  S  S  S S  S  S     S S S S S S S S
---------------------------------------------|------------------|
---------------------------------------------|------------------|
---------------------------------------------|------------------|
--0----0----0--0----0----0--0--0----0--0--0--|----3-7---5-8---2-|
--0----0----0--0----0----0--0--0----0--0--0--|--5-----7-----3---|
--0----0----0--0----0----0--0--0----0--0--0--|------------------|


     PM PM    PM PM PM PM PM PM PM PM PM PM
  E  S  S  E  S  S  S  S  S  S  S  S  S  S     S E  E  E  S S E  S S E  S
--------------------------------------------|-----------------------------|
--------------------------------------------|-----------------------------|
--------------------------------------------|--3-3--3--3--3-2-2--2--------|
--0--0--0--0--0--0--0--0--0--0--0--0--0--0--|--3-3--3--3--3-2-2--2-1-1--1-|
--0--0--0--0--0--0--0--0--0--0--0--0--0--0--|--1-1--1--1--1-0-0--0-1-1--1-|
--0--0--0--0--0--0--0--0--0--0--0--0--0--0--|----------------------1-1--1-|


     PM PM    PM PM PM PM PM PM PM PM PM PM
  E  S  S  E  S  S  S  S  S  S  S  S  S  S     S E  E  E  S S E  S S E  S
--------------------------------------------|-----------------------------|
--------------------------------------------|-----------------------------|
--------------------------------------------|--3-3--3--3--3-2-2--2--------|
--0--0--0--0--0--0--0--0--0--0--0--0--0--0--|--3-3--3--3--3-2-2--2-1-1--1-|
--0--0--0--0--0--0--0--0--0--0--0--0--0--0--|--1-1--1--1--1-0-0--0-1-1--1-|
--0--0--0--0--0--0--0--0--0--0--0--0--0--0--|----------------------1-1--1-|


         |---3---| |---3---|
  S E  S S   S   S S   S   S S E  S  S S E      H
--------------------------------------------|------------|
--------------------------------------------|------------|
--------------------------------------------|--10--------|
--0-----------------------------------------|---x--------|
--0------8h-10h-12-8h-10h-12-8------10------|---8--------|
--0-----------------------------------------|------------|


  PM PM   PM      PM      PM
  S  S  S S  S  S S  S  S S  S  S S S S S
------------------------------------------|
------------------------------------------|
------------------------------------------|
--------7----7s-5----5s-3----3s-2-7-8-8-8-|
--5--5----5-------5-------5-------7-8-8-8-|
----------------------------------7-8-8-8-|


  PM PM   PM      PM      PM
  S  S  S S  S  S S  S  S S  S  S S  S  S  S
---------------------------------------------|
---------------------------------------------|
---------------------------------------------|
--------7----7s-5----5s-3---------8-10-10-10-|
--5--5----5-------5-------5--8s-7-8-10-10-10-|
----------------------------------8-10-10-10-|


  PM PM   PM      PM      PM
  S  S  S S  S  S S  S  S S  S  S S S S S    S S S S S S S S S S S S
------------------------------------------|--------------------------|
------------------------------------------|--------------------------|
------------------------------------------|--------------------------|
--------7----7s-5----5s-3---------7-8-8-8-|--5---5---5-3---5---5---5-|
--5--5----5-------5-------5--8s-7-7-8-8-8-|--5---5---5-3---5---5---5-|
----------------------------------7-8-8-8-|--5---5---5-3---5---5---5-|


  PM PM    PM       PM      PM      PM PM
  S  S   S S   S  S S  S  S S  S  S S  S   E
----------------------------------------------|
----------------------------------------------|
------------------------------------------10--|
--------10----10s-8----8s-7----7s-5-----------|
--8--8-----8--------8-------8-------8--8------|
----------------------------------------------|


  PM PM    PM       PM      PM      PM PM
  S  S   S S   S  S S  S  S S  S  S S  S   E
----------------------------------------------|
----------------------------------------------|
------------------------------------------12--|
--------10----10s-8----8s-7----7s-5-----------|
--8--8-----8--------8-------8-------8--8------|
----------------------------------------------|


  PM PM    PM       PM      PM      PM PM
  S  S   S S   S  S S  S  S S  S  S S  S   E     S S S S S S S S S S S S
----------------------------------------------|--------------------------|
----------------------------------------------|--------------------------|
------------------------------------------10--|--------------------------|
--------10----10s-8----8s-7----7s-5-----------|--5---5---5-3---5---5---5-|
--8--8-----8--------8-------8-------8--8------|--5---5---5-3---5---5---5-|
----------------------------------------------|--5---5---5-3---5---5---5-|


   Q     T  T S  Q.     Q        Q     T  T S  Q.     Q
-----------------------------|-----------------------------|
-----------------------------|-----------------------------|
--15-----x--x---14-----------|--12-----x--x---14-----------|
---x-----x--x----x------0----|---x-----x--x----x------0----|
--13-----x--x---12-----------|--10-----x--x---12-----------|
-----------------------------|-----------------------------|


   Q     T  T S  Q.     Q       S H        Q    E  S
-----------------------------|-----------------------|
-----------------------------|-----------------------|
--15-----x--x---14-----------|-----------------------|
---x-----x--x----x------0----|--0--------------------|
--13-----x--x---12-----------|--0--------------------|
-----------------------------|--0--------------------|


  PM   PM   PM PM   PM   PM           PM   PM   PM PM   PM   PM
  S  S S  S S  S  S S  S S  Q.        S  S S  S S  S  S S  S S   Q.
-----------------------------------|------------------------------------|
-----------------------------------|------------------------------------|
-----------------------------------|------------------------------------|
--0----0----0--0----0----0--8------|--0----0----0--0----0----0--10------|
--0----0----0--0----0----0--8------|--0----0----0--0----0----0--10------|
--0----0----0--0----0----0--8------|--0----0----0--0----0----0--10------|


  PM   PM   PM PM   PM   PM
  S  S S  S S  S  S S  S S  Q.        S S S S S S S S S S S S
-----------------------------------|--------------------------|
-----------------------------------|--------------------------|
-----------------------------------|--------------------------|
--0----0----0--0----0----0--8------|--0---0---0-0---0---0---0-|
--0----0----0--0----0----0--8------|--0---0---0-0---0---0---0-|
--0----0----0--0----0----0--8------|--0---0---0-0---0---0---0-|


  PM    PM PM    PM PM
  S  E  T  T  E  S  S   S  S  S  S S  S  S S
---------------------------------------------|
---------------------------------------------|
-----------------------10-14-12-10-9-12-10-9-|
--0-----0--0-----0--0------------------------|
--0-----0--0-----0--0------------------------|
--0-----0--0-----0--0------------------------|


  PM    PM PM    PM PM
  S  E  T  T  E  S  S   S  S S  S S  S    E
-----------------------------------------------|
-----------------------10-11-8-11---11---------|
----------------------------------9------------|
--0-----0--0-----0--0------------------<>11b~--|
--0-----0--0-----0--0--------------------------|
--0-----0--0-----0--0--------------------------|


  PM    PM PM    PM PM
  S  E  T  T  E  S  S   S  S  S  S S  S  S S
---------------------------------------------|
---------------------------------------------|
-----------------------10-14-12-10-9-12-10-9-|
--0-----0--0-----0--0------------------------|
--0-----0--0-----0--0------------------------|
--0-----0--0-----0--0------------------------|


   S  S  S  S  S  S  S  S  S  S  S  S  S  S  S  S
--------------------------------------------------|
--------------------------------------------------|
--10-14-12-10-12-15-14-12-14-17-15-14-12-15-14-12-|
--------------------------------------------------|
--------------------------------------------------|
--------------------------------------------------|


  PM    PM    PM
  S  E  S  E  S  S  S  S  S  S S  S  S S
-----------------------------------------|
-----------------------------------------|
-------------------10-14-12-10-9-12-10-9-|
--0-----0-----0--------------------------|
--0-----0-----0--------------------------|
--0-----0-----0--------------------------|


  PM    PM    PM
  S  E  S  E  S  S  S  S S  S S  S    E
------------------------------------------|
-------------------10-11-8-11---11--------|
------------------------------9-----------|
--0-----0-----0--------------------<>12~--|
--0-----0-----0---------------------------|
--0-----0-----0---------------------------|


  PM PM PM PM PM PM PM PM
  S  S  S  S  S  S  S  S   S  S  S  S S  S  S S
------------------------------------------------|
------------------------------------------------|
--------------------------10-14-12-10-9-12-10-9-|
--0--0--0--0--0--0--0--0------------------------|
--0--0--0--0--0--0--0--0------------------------|
--0--0--0--0--0--0--0--0------------------------|


   S  S  S  S  S  S  S  S  S  S  S  S  T   T  E.     W
--------------------------------------------------|-------------------|
--------------------------------------------------|-------------------|
--14-17-15-14-12-15-14-12-15-19-17-15-17s-21~-L---|-------------------|
--------------------------------------------------|-------------------|
--------------------------------------------------|-------------------|
--------------------------------------------------|-------------------|


  W                   W
-------------------|-------------------|
-------------------|-------------------|
-------------------|-------------------|
-------------------|-------------------|
-------------------|-------------------|
-------------------|-------------------|


  |---3---| |---3---|  |---3---|  |---3---|  |---3---|  |---3---|  |---3---|  |-
  S   S   S S   S   S  S   S   S  S   S   S  S   S   S  S   S   S  S   S   S  S
---------------------------------------------------------------------------------|
---------------------------------------------------------------------------------|
---------------------------------------------------------------------------------|
------------8h-10h-12------------10h-12h-13------------12h-13h-15------------13--|h
--8h-10h-12-----------10h-12h-13------------12h-13h-15------------13h-15h-17-----|
---------------------------------------------------------------------------------|


   Q.      Q.     Q        S  S  S  S  S   S   S   S  S  S  S  S  S  S  S  S
-----------------------|--------------17h-18p-17s-15-------------20-18-17-15-|
--13-------------------|--------15-16----------------------18-20-------------|
----------15------L----|--15-17----------------------19-20-------------------|
-----------------------|-----------------------------------------------------|
-----------------------|-----------------------------------------------------|
-----------------------|-----------------------------------------------------|


   E   E   S  S  S  E   S  S  E   S  S  S
------------------------------------------|
------------------------------------------|
--19--19--19-19-19-17--17-17-17--17-17-17-|
---x---x---x--x--x--x---x--x--x---x--x--x-|
--17--17--17-17-17-15--15-15-15--15-15-15-|
------------------------------------------|


   E   E   S  S  S  E   S  S  E   S  S  S
------------------------------------------|
------------------------------------------|
--15--15--15-15-15-14--14-14-14--14-14-14-|
---x---x---x--x--x--x---x--x--x---x--x--x-|
--13--13--13-13-13-12--12-12-12--12-12-12-|
------------------------------------------|


   E   E   S  S  S  E   S  S  E   S  S  S
------------------------------------------|
------------------------------------------|
--15--15--15-15-15-14--14-14-14--14-14-14-|
---x---x---x--x--x--x---x--x--x---x--x--x-|
--13--13--13-13-13-12--12-12-12--12-12-12-|
------------------------------------------|


  S S S S  S  S  S  S  S  S  S  S  S  S  S  S
----------------------------------------------|
----------------------------------------------|
--8-8-8-8-10-10-10-10-12-12-12-12-15-15-15-14-|
--x-x-x-x--x--x--x--x--x--x--x--x--x--x--x--x-|
--6-6-6-6--8--8--8--8-10-10-10-10-13-13-13-12-|
----------------------------------------------|


  S  S  E   S  S  S  E   S  S  E   S  S  S
-------------------------------------------|
-------------------------------------------|
--L-14-14--14-14-14-10--10-10-10--10-10-10-|
-----x--x---x--x--x--x---x--x--x---x--x--x-|
--L-12-12--12-12-12--8---8--8--8---8--8--8-|
-------------------------------------------|


  PM PM PM PM         PM PM PM PM
  S  S  S  S  S S S S S  S  S  S   S  S  S  S
----------------------------------------------|
----------------------------------------------|
--------------7-7-7-7-------------11-11-11-11-|
--0--0--0--0--x-x-x-x-0--0--0--0---x--x--x--x-|
--0--0--0--0--5-5-5-5-0--0--0--0---9--9--9--9-|
--0--0--0--0----------0--0--0--0--------------|


  S S S S S S S S S S S S S S S S     E   E   S  S  S  E   S  S  E   S  S  S
----------------------------------|------------------------------------------|
----------------------------------|------------------------------------------|
----------------------------------|--15--15--15-15-15-14--14-14-14--14-14-14-|
----3-7---5-8---2---3-7---5-8---2-|---x---x---x--x--x--x---x--x--x---x--x--x-|
--5-----7-----3---5-----7-----3---|--13--13--13-13-13-12--12-12-12--12-12-12-|
----------------------------------|------------------------------------------|


  S S S S  S  S  S  S  S  S  S  S  S  S  S  S
----------------------------------------------|
----------------------------------------------|
--8-8-8-8-10-10-10-10-12-12-12-12-15-15-15-14-|
--x-x-x-x--x--x--x--x--x--x--x--x--x--x--x--x-|
--6-6-6-6--8--8--8--8-10-10-10-10-13-13-13-12-|
----------------------------------------------|


  S  S  E   S  S  S  E   S  S  E   S  S  S
-------------------------------------------|
-------------------------------------------|
--L-14-14--14-14-14-10--10-10-10--10-10-10-|
-----x--x---x--x--x--x---x--x--x---x--x--x-|
--L-12-12--12-12-12--8---8--8--8---8--8--8-|
-------------------------------------------|


  PM PM PM PM      PM PM PM PM
  S  S  S  S  Q    S  S  S  S  Q       H        Q       H        Q
------------------------------------|----------------|----------------|
------------------------------------|----------------|----------------|
------------------------------------|----------------|----------------|
--0--0--0--0-------0--0--0--0-------|----------------|----------------|
--0--0--0--0-------0--0--0--0-------|----------------|----------------|
--0--0--0--0-------0--0--0--0-------|----------------|----------------|


  H        Q       H        Q       T T T T T T T T T T T T    S S H        E
----------------|----------------|--------------------------|------------------|
----------------|----------------|--------------------------|------------------|
----------------|----------------|--6-6-6-6-6-6-6-6-6-6-6-6-|--5-5-------------|
----------------|----------------|--x-x-x-x-x-x-x-x-x-x-x-x-|--5-5-------------|
----------------|----------------|--4-4-4-4-4-4-4-4-4-4-4-4-|--3-3-------------|
----------------|----------------|--------------------------|------------------|


  H        Q       H        Q       T T T T T T T T E  T T T T T T T T E
----------------|----------------|----------------------------------------|
----------------|----------------|----------------------------------------|
----------------|----------------|--5-5-5-5-5-5-5-5----5-5-5-5-5-5-5-5----|
----------------|----------------|--5-5-5-5-5-5-5-5----5-5-5-5-5-5-5-5----|
----------------|----------------|--3-3-3-3-3-3-3-3----3-3-3-3-3-3-3-3----|
----------------|----------------|----------------------------------------|


   S  S  S  S  S  S  S  S  S  S  S  S
--------------------------------------|
--------------------------------------|
--17-17-17-17-17-17-16-16-16-16-16-16-|
---x--x--x--x--x--x--x--x--x--x--x--x-|
--15-15-15-15-15-15-14-14-14-14-14-14-|
--------------------------------------|


  PM PM PM PM PM PM PM PM     PM PM PM PM PM PM PM PM
  T  T  T  T  T  T  T  T  S S T  T  T  T  T  T  T  T  S S S S
--------------------------------------------------------------|
--------------------------------------------------------------|
--------------------------------------------------------------|
--7--7--7--7--7--7--7--7--7---7--7--7--7--7--7--7--7--7---7---|
--7--7--7--7--7--7--7--7--7---7--7--7--7--7--7--7--7--7---7---|
--7--7--7--7--7--7--7--7--7---7--7--7--7--7--7--7--7--7---7---|


  S S S S S S S S S S S S S S S S
----------------------------------|
----------------------------------|
----------------------------------|
--3-3-3-3-3-3-3-3-0-0-0-0-0-0-0-0-|
--3-3-3-3-3-3-3-3-0-0-0-0-0-0-0-0-|
--3-3-3-3-3-3-3-3-0-0-0-0-0-0-0-0-|


  PM PM PM PM PM PM PM PM     PM PM PM PM PM PM PM PM
  T  T  T  T  T  T  T  T  S S T  T  T  T  T  T  T  T  S S S S
--------------------------------------------------------------|
--------------------------------------------------------------|
--------------------------------------------------------------|
--7--7--7--7--7--7--7--7--7---7--7--7--7--7--7--7--7--7---7---|
--7--7--7--7--7--7--7--7--7---7--7--7--7--7--7--7--7--7---7---|
--7--7--7--7--7--7--7--7--7---7--7--7--7--7--7--7--7--7---7---|


  S S S S S S S S S S S S S S S S    W                   W
----------------------------------|-------------------|-------------------|
----------------------------------|-------------------|-------------------|
----------------------------------|-------------------|-------------------|
--3-3-3-3-3-3-3-3-0-0-0-0-0-0-0-0-|--1----------------|--0----------------|
--3-3-3-3-3-3-3-3-0-0-0-0-0-0-0-0-|--1----------------|--0----------------|
--3-3-3-3-3-3-3-3-0-0-0-0-0-0-0-0-|--1----------------|--0----------------|


                                   PM PM PM PM PM PM PM PM PM PM PM PM PM PM
  H        Q.     E     H        S T  T  T  T  T  T  T  T  T  T  T  T  T  T
---------------------|-------------------------------------------------------|
---------------------|-------------------------------------------------------|
---------------------|-------------------------------------------------------|
--5--------L---------|--4--------7-7--7--7--7--7--7--7--7--7--7--7--7--7--7--|
--5--------L---------|--4--------7-7--7--7--7--7--7--7--7--7--7--7--7--7--7--|
--5--------L---------|--4--------7-7--7--7--7--7--7--7--7--7--7--7--7--7--7--|


    PM PM PM         PM PM PM PM PM PM   PM
  S S  S  S  S S S S S  S  S  S  S  S  S S
--------------------------------------------|
--------------------------------------------|
--------------------------------------------|
--1-1--1--1--1-1-1-1-1--1--1--1--1--1--1-1--|
--1-1--1--1--1-1-1-1-1--1--1--1--1--1--1-1--|
--1-1--1--1--1-1-1-1-1--1--1--1--1--1--1-1--|


    PM PM PM         PM PM PM     PM   PM
  S S  S  S  S S S S S  S  S  S S S  S S
------------------------------------------|
------------------------------------------|
------------------------------------------|
--0-0--0--0--0-0-0-0-0--0--0--0-0-0--0-0--|
--0-0--0--0--0-0-0-0-0--0--0--0-0-0--0-0--|
--0-0--0--0--0-0-0-0-0--0--0--0-0-0--0-0--|


    PM PM PM         PM PM PM PM PM PM   PM
  S S  S  S  S S S S S  S  S  S  S  S  S S
--------------------------------------------|
--------------------------------------------|
--------------------------------------------|
--5-5--5--5--5-5-5-5-5--5--5--5--5--5--5-5--|
--5-5--5--5--5-5-5-5-5--5--5--5--5--5--5-5--|
--5-5--5--5--5-5-5-5-5--5--5--5--5--5--5-5--|


    PM PM PM PM PM PM PM   PM PM PM PM PM PM PM PM PM PM PM PM PM PM
  S S  S  S  S  S  S  S  S T  T  T  T  T  T  T  T  T  T  T  T  T  T
---------------------------------------------------------------------|
---------------------------------------------------------------------|
---------------------------------------------------------------------|
--4-4--4--4--4--4--4--4--7-7--7--7--7--7--7--7--7--7--7--7--7--7--7--|
--4-4--4--4--4--4--4--4--7-7--7--7--7--7--7--7--7--7--7--7--7--7--7--|
--4-4--4--4--4--4--4--4--7-7--7--7--7--7--7--7--7--7--7--7--7--7--7--|


    PM PM PM         PM PM PM PM PM PM   PM
  S S  S  S  S S S S S  S  S  S  S  S  S S
--------------------------------------------|
--------------------------------------------|
--------------------------------------------|
--1-1--1--1--1-1-1-1-1--1--1--1--1--1--1-1--|
--1-1--1--1--1-1-1-1-1--1--1--1--1--1--1-1--|
--1-1--1--1--1-1-1-1-1--1--1--1--1--1--1-1--|


    PM PM PM         PM PM PM PM    PM PM PM PM
  S S  S  S  S S S S T  T  T  T  E  T  T  T  T  E
---------------------------------------------------|
---------------------------------------------------|
---------------------------------------------------|
--0-0--0--0--0-0-0-0-0--0--0--0--0--0--0--0--0--0--|
--0-0--0--0--0-0-0-0-0--0--0--0--0--0--0--0--0--0--|
--0-0--0--0--0-0-0-0-0--0--0--0--0--0--0--0--0--0--|


    PM PM PM         PM PM PM PM PM PM   PM
  S S  S  S  S S S S S  S  S  S  S  S  S S
--------------------------------------------|
--------------------------------------------|
--------------------------------------------|
--5-5--5--5--5-5-5-5-5--5--5--5--5--5--5-5--|
--5-5--5--5--5-5-5-5-5--5--5--5--5--5--5-5--|
--5-5--5--5--5-5-5-5-5--5--5--5--5--5--5-5--|


    PM PM PM PM PM PM PM   PM PM PM PM PM PM PM
  S S  S  S  S  S  S  S  S S  S  S  S  S  S  S
------------------------------------------------|
------------------------------------------------|
------------------------------------------------|
--4-4--4--4--4--4--4--4--7-7--7--7--7--7--7--7--|
--4-4--4--4--4--4--4--4--7-7--7--7--7--7--7--7--|
--4-4--4--4--4--4--4--4--7-7--7--7--7--7--7--7--|


   E  S  S  E  S  S  E  S  S  E   E      W                    W
-------------------------------------|---------------------|-------------------|
--15--L-13-13--L----------13-13b--L--|---------------------|-------------------|
-----------------15-15--L------------|--14~----------------|-------------------|
-------------------------------------|---------------------|-------------------|
-------------------------------------|---------------------|-------------------|
-------------------------------------|---------------------|-------------------|


  W                H        Q       W                H        Q
---------------------------------|---------------------------------|
---------------------------------|---------------------------------|
---------------------------------|---------------------------------|
---------------------------------|---------------------------------|
---------------------------------|---------------------------------|
---------------------------------|---------------------------------|


  W                H        Q       W                H        Q
---------------------------------|---------------------------------|
---------------------------------|---------------------------------|
---------------------------------|---------------------------------|
---------------------------------|---------------------------------|
---------------------------------|---------------------------------|
---------------------------------|---------------------------------|


   *Acoustic
   E         E   E   E   E   E   E   E   E   E   E   E   E   E
----------------------------------------------------------------|
----------------------------------------------------------------|
------------12----------12------------------12----------12------|
----------------12----------12------12----------12----------12--|
--13----------------13----------13------13----------13----------|
----------------------------------------------------------------|


   E   E   E   E   E   E   E   E   E   E   E   E   E   E
----------------------------------------------------------|
----------------------------------------------------------|
------12----------12------------------12----------12------|
----------13----------13------13----------13----------13--|
--15----------15----------15------15----------15----------|
----------------------------------------------------------|


   E   E   E   E   E   E   E   E   E   E   E   E   E   E
----------------------------------------------------------|
----------------------------------------------------------|
------12----------12------------------12----------12------|
----------12----------12------12----------12----------12--|
--13----------13----------13------13----------13----------|
----------------------------------------------------------|


   E   E   E   E   E   E   E   E   E   E   E   E   E   E
----------------------------------------------------------|
----------------------------------------------------------|
------12----------12------------------12----------12------|
----------13----------13------13----------13----------13--|
--15----------15----------15------15----------15----------|
----------------------------------------------------------|


   E   E   E   E   E   E   E   E   E   E   E   E   E   E
----------------------------------------------------------|
----------------------------------------------------------|
------12----------12------------------12----------12------|
----------12----------12------12----------12----------12--|
--13----------13----------13------13----------13----------|
----------------------------------------------------------|


   E   E   E   E   E   E   E   E   E   E   E   E   E   E
----------------------------------------------------------|
----------------------------------------------------------|
------12----------12------------------12----------12------|
----------13----------13------13----------13----------13--|
--15----------15----------15------15----------15----------|
----------------------------------------------------------|


   E   E   E   E   E   E   E   E   E   E   E   E   E   E
----------------------------------------------------------|
----------------------------------------------------------|
------12----------12------------------12----------12------|
----------12----------12------12----------12----------12--|
--13----------13----------13------13----------13----------|
----------------------------------------------------------|


   E   E   E   E   E   E   E   E   E   E   E   E   E   E
----------------------------------------------------------|
----------------------------------------------------------|
------12----------12------------------12----------12------|
----------13----------13------13----------13----------13--|
--15----------15----------15------15----------15----------|
----------------------------------------------------------|


   E   E   E   E   E   E   E   E   E   E   E   E   E   E
----------------------------------------------------------|
----------------------------------------------------------|
------12----------12------------------12----------12------|
----------12----------12------12----------12----------12--|
--13----------13----------13------13----------13----------|
----------------------------------------------------------|


   E   E   E   E   E   E   E   E   E   E   E   E   E   E
----------------------------------------------------------|
----------------------------------------------------------|
------12----------12------------------12----------12------|
----------13----------13------13----------13----------13--|
--15----------15----------15------15----------15----------|
----------------------------------------------------------|


   E   E   E   E   E   E   E   E   E   E   E   E   E   E
----------------------------------------------------------|
----------------------------------------------------------|
------12----------12------------------12----------12------|
----------12----------12------12----------12----------12--|
--13----------13----------13------13----------13----------|
----------------------------------------------------------|


   E   E   E   E   E   E   E   E   E   E   E   E   E   E
----------------------------------------------------------|
----------------------------------------------------------|
------12----------12------------------12----------12------|
----------13----------13------13----------13----------13--|
--15----------15----------15------15----------15----------|
----------------------------------------------------------|


   E   E   E   E   E   E   E   E   E   E   E   E   E   E
----------------------------------------------------------|
----------------------------------------------------------|
------12----------12------------------12----------12------|
----------12----------12------12----------12----------12--|
--13----------13----------13------13----------13----------|
----------------------------------------------------------|


   E   E   E   E   E   E   E   E   E   E   E   E   E   E
----------------------------------------------------------|
----------------------------------------------------------|
------12----------12------------------12----------12------|
----------13----------13------13----------13----------13--|
--15----------15----------15------15----------15----------|
----------------------------------------------------------|


   E   E   E   E   E   E   E   E   E   E   E   E   E   E
----------------------------------------------------------|
----------------------------------------------------------|
------12----------12------------------12----------12------|
----------12----------12------12----------12----------12--|
--13----------13----------13------13----------13----------|
----------------------------------------------------------|


   E   E   E   E   E   E   E   E   E   E   E   E   E   E
----------------------------------------------------------|
----------------------------------------------------------|
------12----------12------------------12----------12------|
----------13----------13------13----------13----------13--|
--15----------15----------15------15----------15----------|
----------------------------------------------------------|


   E   E   E   E   E   E   E   E   E   E   E   E   E   E
----------------------------------------------------------|
----------------------------------------------------------|
------12----------12------------------12----------12------|
----------12----------12------12----------12----------12--|
--13----------13----------13------13----------13----------|
----------------------------------------------------------|


   E   E   E   E   E   E   E   E   E   E   E   E   E   E
----------------------------------------------------------|
----------------------------------------------------------|
------12----------12------------------12----------12------|
----------13----------13------13----------13----------13--|
--15----------15----------15------15----------15----------|
----------------------------------------------------------|


   E   E   E   E   E   E   E   E   E   E   E   E   E   E
----------------------------------------------------------|
----------------------------------------------------------|
------12----------12------------------12----------12------|
----------12----------12------12----------12----------12--|
--13----------13----------13------13----------13----------|
----------------------------------------------------------|


   E   E   E   E   E   E   E   E   E   E   E   E   E   E
----------------------------------------------------------|
----------------------------------------------------------|
------12----------12------------------12----------12------|
----------13----------13------13----------13----------13--|
--15----------15----------15------15----------15----------|
----------------------------------------------------------|


   E   E   E   E   E   E   E   E   E   E   E   E   E   E
----------------------------------------------------------|
----------------------------------------------------------|
------12----------12------------------12----------12------|
----------12----------12------12----------12----------12--|
--13----------13----------13------13----------13----------|
----------------------------------------------------------|


   E   E   E   E   E   E   E   E   E   E   E   E   E   E
----------------------------------------------------------|
----------------------------------------------------------|
------12----------12------------------12----------12------|
----------13----------13------13----------13----------13--|
--15----------15----------15------15----------15----------|
----------------------------------------------------------|


   E   E   E   E   E   E   E   E   E   E   E   E   E   E
----------------------------------------------------------|
----------------------------------------------------------|
------12----------12------------------12----------12------|
----------12----------12------12----------12----------12--|
--13----------13----------13------13----------13----------|
----------------------------------------------------------|


   E   E   E   E   E   E   E   E   E   E   E   E   E   E
----------------------------------------------------------|
----------------------------------------------------------|
------12----------12------------------12----------12------|
----------13----------13------13----------13----------13--|
--15----------15----------15------15----------15----------|
----------------------------------------------------------|


   E   E   E   E   E   E   E   E   E   E   E   E   E   E
----------------------------------------------------------|
----------------------------------------------------------|
------12----------12------------------12----------12------|
----------12----------12------12----------12----------12--|
--13----------13----------13------13----------13----------|
----------------------------------------------------------|


   E   E   E   E   E   E   E   E   E   E   E   E   E   E
----------------------------------------------------------|
----------------------------------------------------------|
------12----------12------------------12----------12------|
----------13----------13------13----------13----------13--|
--15----------15----------15------15----------15----------|
----------------------------------------------------------|


   E   E   E   E   E   E   E   E   E   E   E   E   E   E
----------------------------------------------------------|
----------------------------------------------------------|
------12----------12------------------12----------12------|
----------12----------12------12----------12----------12--|
--13----------13----------13------13----------13----------|
----------------------------------------------------------|


   E   E   E   E   E   E   E   E   E   E   E   E   E   E
----------------------------------------------------------||
----------------------------------------------------------||
------12----------12------------------12----------12------||
----------13----------13------13----------13----------13--||
--15----------15----------15------15----------15----------||
----------------------------------------------------------||


Duration Legend
---------------
W - whole
H - half
Q - quarter
E - 8th
S - 16th
T - 32nd
X - 64th
. - note dotted
|-n-|  - n-tuplets


Tablature Legend
----------------
L - tied note
x - dead note
g - grace note
(n) - ghost note
> - accentuded note
NH - natural harmonic
AH - artificial harmonic
TH - tapped harmonic
SH - semi harmonic
PH - pitch harmonic
h - hammer on
p - pull off
b - bend
br - bendRelease
pb - preBend
pbr - preBendRelease
brb - bendReleaseBend
\n/ - tremolo bar dip
\n - tremolo bar dive
-/n - tremolo bar Release up
/n\ - tremolo bar inverted dip
/n - tremolo bar return
-\n - tremolo bar Release down
S - shift slide
s - legato slide
/ -  slide into from below or out of upwards
\ -  slide into from above or out of downwards
~ - vibrato
W - wide vibrato
tr - trill
TP - tremolo picking
T - tapping
S - slap
P - pop
< - fade in
^ - brush up
v - brush down
comments
We did not receive enough feedback on this tab! Please rate:
print report bad tab
1 2 3 4 5
1 comment total.
0 reply
Timmy Shredlock wrote on August 27 2009, 08:11 pm

you should try to put sum reference points on the tab so u dont get lost everytime you look up to the screen

I want to post or [tab]
guest
You may want to rate the tab now too:
select rating
Please do not post tabs as comments. Select "correction" instead!