Oops, an error
Loading. Please wait.

Blindfolds Aside Tab

ver2
ver2

Solo

Whole song

Interactive

More versions @911Tabs.com
4,503 views 1 this week
no commentswrite comment
1 2 3 4 5
accurate
x 3
Autoscroll
+/-
esc
set tempo
stop
Contributor
Hey! There's an official Ultimate Guitar app which is ideal
for learning songs when you're away from computer. Get the app
WARNING: You are trying to view
                                    content from Ultimate-Guitar.com
                                    in an unauthorized application,
                                    which is prohibited.

                                    Please use an official Ultimate
                                    Guitar Tabs application for iPhone,
                                    iPad or Android to access legitimate
                                    chords, guitar, bass, and drum tabs
                                    from Ultimate-Guitar.com database.

                                    Type "ultimate guitar tabs" in Apple
                                    App Store's or Android Market's
                                    search to find the application.
-------------------------------------------------------------------------------
                             Blindfolds Aside - Protest The Hero
-------------------------------------------------------------------------------



Tuning: Half-Step Down





Guitar Solo


Gtr IV
|------------------|--------------------------|
|------------------|--------------------------|
|------------------|-----------------------12-|
|-9-------9------9-|-9h10p==9----9------------|
|------------------|----------12------9-10----|
|------------------|---------------12---------|
|
|
| Gtr V
|------------------|--------------------------|
|------------------|--------------------------|
|------------------|--------------------------|
|-5-5-5-5-5--5-5-5-|-5----5----5-5--5-5--5--5-|
|-5-5-5-5-5--5-5-5-|-5----5----5-5--5-5--5--5-|
|-3-3-3-3-3--3-3-3-|-3----3----3-3--3-3--3--3-|



|--------------------|-------------------------------------------|
|--------------------|-------------------------------------------|
|-9------------(9)-0-|-11-0---0-12-0---0-14p12p==11-12p11--------|
|--------------------|--------------------------------------12---|
|--------------------|-------------------------------------------|
|--------------------|-------------------------------------------|
|
|--------------------|-------------------------------------------|
|--------------------|-------------------------------------------|
|--------------------|-------------------------------------------|
|-2--2-2-2-2-2--2--2-|--2---2----2---2----2----2-----2----2------|
|-2--2-2-2-2-2--2--2-|--2---2----2---2----2----2-----2----2------|
|-0--0-0-0-0-0--0--0-|--0---0----0---0----0----0-----0----0------|


|--------------------|------------------------------------|
|--------------------|------------------------------------|
|--------------------|--------------11-11-(11)b12r(11)----|
|-10-------10------9-|-9-(9)b10r(9)--------------------12-|
|--------------------|------------------------------------|
|--------------------|------------------------------------|
|
|--------------------|------------------------------------|
|--------------------|------------------------------------|
|--------------------|------------------------------------|
|--5-5-5-5--5--5-5-5-|-5--5------5---5--5---5-------5---5-|
|--5-5-5-5--5--5-5-5-|-5--5------5---5--5---5-------5---5-|
|--3-3-3-3--3--3-3-3-|-3--3------3---3--3---3-------3---3-|


|---------------------------------------------|
|---------------------------------10-10-10-10-|
|-9-9-9-9-11-11-11-11-12-12-12-12-------------|
|---------------------------------------------|
|---------------------------------------------|
|---------------------------------------------|
|
|---------------------------------------------|
|---------------------------------------------|
|---------------------------------------------|
|-7---7----7-----7-----7-----7-----7-----7----|
|-7---7----7-----7-----7-----7-----7-----7----|
|-5---5----5-----5-----5-----5-----5-----5----|


|-------------------------------------10h13p10----|
|-12-12-12-12-10-10-10-10----------10----------10-|
|-------------------------------10----------------|
|-------------------------10h12-------------------|
|-------------------------------------------------|
|-------------------------------------------------|
|
|-------------------------------------------------|
|-------------------------------------------------|
|-------------------------------------------------|
|--7-----7-----7-----7-----7-----7-----7-----7----|
|--7-----7-----7-----7-----7-----7-----7-----7----|
|--5-----5-----5-----5-----5-----5-----5-----5----|


|---------------------|----10-12-13-12-------15-|
|---------------------|-11-------------13-------|
|-10-------10------10-|-------------------12----|
|---------------------|-------------------------|
|---------------------|-------------------------|
|---------------------|-------------------------|
|
|---------------------|-------------------------|
|---------------------|-------------------------|
|---------------------|-------------------------|
|--8-8-8-8--8--8-8--8-|--8--8--8--8--8--8--8--8-|
|--8-8-8-8--8--8-8--8-|--8--8--8--8--8--8--8--8-|
|--6-6-6-6--6--6-6--6-|--6--6--6--6--6--6--6--6-|


Gtr VI
|------------------|---------------------------------------------|
|------------------|-12p10h==12-13p12h==13-15p13h==15-17p15h==17-|
|------------------|---------------------------------------------|
|------------------|---------------------------------------------|
|------------------|---------------------------------------------|
|------------------|---------------------------------------------|
|
| Gtr IV
|------------------|---------------------------------------------|
|------------------|---------------------------------------------|
|-11---------------|-12p11h==12-14p12h==14-16p14h==16-17p16h==17-|
|------------------|---------------------------------------------|
|------------------|---------------------------------------------|
|------------------|---------------------------------------------|
|
| Gtr V
|------------------|---------------------------------------------|
|------------------|---------------------------------------------|
|--7-7-7-7-7-7-7-7-|--7----7-----7----7-----7----7-----7----7----|
|--7-7-7-7-7-7-7-7-|--7----7-----7----7-----7----7-----7----7----|
|--5-5-5-5-5-5-5-5-|--5----5-----5----5-----5----5-----5----5----|
|------------------|---------------------------------------------|


Gtr IV
|------------------|----------12h13p12-12h13p12-|
|-15----15------13-|-13-------------------------|
|------------------|----------------------------|
|------------------|----------------------------|
|------------------|----------------------------|
|------------------|----------------------------|
|
| Gtr V
|------------------|----------------------------|
|------------------|----------------------------|
|------------------|----------------------------|
|--6-----6--6-6--6-|--6-6-6-6-10-------10-------|
|--6-----6--6-6--6-|--6-6-6-6-10-------10-------|
|--4-----4--4-4--4-|--4-4-4-4--8--------8-------|


|-------------------|------------|
|-12--------(12)-12-|-12-9-9-----|
|-------------------|------------|
|-------------------|------------|
|-------------------|------------|
|-------------------|------------|
|
|-------------------|------------|
|-------------------|------------|
|-------------------|----9-9-----|
|--9-----9----9---9-|--9-9-9-----|
|--9-----9----9---9-|--9-7-7-----|
|--7-----7----7---7-|--7---------|


|--------------------------------|
|-9-10-(10)--10p0-12p0-12p0-10p0-|
|--------------------------------|
|--------------------------------|
|--------------------------------|
|--------------------------------|
|
|--------------------------------|
|--------------------------------|
|-9------------------------------|
|-9--7--(7)----------------------|
|-7--7--(7)----------------------|
|----5--(5)----------------------|


|------------------------------------------|-------------||
|-12p=0-13p0-12p0-13p0-17p0-15p0-13p0-15p0-|-12-9-(9)----||
|------------------------------------------|-------------||
|------------------------------------------|-------------||
|------------------------------------------|-------------||
|------------------------------------------|-------------||
|
|------------------------------------------|-------------||
|------------------------------------------|-------------||
|------------------------------------------|-------------||
|-(7)--------------------------------------|--9-2-(2)----||
|-(7)--------------------------------------|--9-2-(2)----||
|-(5)--------------------------------------|--7-0-(0)----||



Gtr I
|--3p0h7p=0h5p0h=8p0h|=7p=0h10p0h=8p==0h==12p0h10p0h|
|--------------------|------------------------------|
|--------------------|------------------------------|
|--------------------|------------------------------|
|--------------------|------------------------------|
|--------------------|------------------------------|
|
| Gtr II
|-12p2h3-14p2h3-15p2h|=3-14p=2h3-12p2h3p2-10p2h=3p2-|
|--------------------|------------------------------|
|--------------------|------------------------------|
|--------------------|------------------------------|
|--------------------|------------------------------|
|--------------------|------------------------------|
|
| Gtr III
|--------------------|------------------------------|
|--------------------|------------------------------|
|--------------------|------------------------------|
|--------------------|------------------------------|
|--------------------|------------------------------|
|--0h3-0h=3-0h3--0h3-|-0h=3--0h3--0h==2----0h===2---|


|--3p0h7p=0h5p0h=8p0h|=7p=0h10p0h12p0h10p0h=8p0h=7p0h ==|
|--------------------|---------------------------------|
|--------------------|---------------------------------|
|--------------------|---------------------------------|
|--------------------|---------------------------------|
|--------------------|---------------------------------|
|
|-12p2h3-14p2h3-15p2h|=3-14p=2h3-15p3-14p3-12p3-14p3---|
|--------------------|---------------------------------|
|--------------------|---------------------------------|
|--------------------|---------------------------------|
|--------------------|---------------------------------|
|--------------------|---------------------------------|
|
|--------------------|---------------------------------|
|--------------------|---------------------------------|
|--------------------|---------------------------------|
|--------------------|---------------------------------|
|--------------------|---------------------------------|
|--0h3-0h=3-0h3--0h3-|-0h=3--0h3--0h===2----0h===2-----|


|--3p0h7p=0h5p0h=8p0h|=7p=0h10p0h=8p===0h==12p0h10p0h |
|--------------------|-------------------------------|
|--------------------|-------------------------------|
|--------------------|-------------------------------|
|--------------------|-------------------------------|
|--------------------|-------------------------------|
|
|-12p2h3-14p2h3-15p2h|=3-17p=2h3-14p3-14p3-14p3-14p3-|
|--------------------|-------------------------------|
|--------------------|-------------------------------|
|--------------------|-------------------------------|
|--------------------|-------------------------------|
|--------------------|-------------------------------|
|
|--------------------|-------------------------------|
|--------------------|-------------------------------|
|--------------------|-------------------------------|
|--------------------|-------------------------------|
|--------------------|-------------------------------|
|--0h3-0h=3-0h3--0h3-|-0h=3--0h3--0h===2----0h===2---|


|--3p0h7p=0h5p0h=8p0h|==7p==0h==10p==0h==12p0h10p0h=8 p0h10p0h=||
|--------------------|----------------------------------------||
|--------------------|----------------------------------------||
|--------------------|----------------------------------------||
|--------------------|----------------------------------------||
|--------------------|----------------------------------------||
|
|
|-15p2h3-17p2h3-19p2-|-14p2h3p2-15p2h3p2-15p3-14p3-12p3-14p3--||
|--------------------|----------------------------------------||
|--------------------|----------------------------------------||
|--------------------|----------------------------------------||
|--------------------|----------------------------------------||
|--------------------|----------------------------------------||
|
|
|--------------------|----------------------------------------||
|--------------------|----------------------------------------||
|--------------------|----------------------------------------||
|--------------------|----------------------------------------||
|--------------------|----------------------------------------||
|--0h3-0h=3-0h3--0h3-|--0h==3----0h==3----0h===2----0h===2----||



|-12\---8p0h10p0h12\---8p0h10p0h|=12\---8p0h10p0h12\---8p0h10p0h|
|-------------------------------|-------------------------------|
|-------------------------------|-------------------------------|
|-------------------------------|-------------------------------|
|-------------------------------|-------------------------------|
|-------------------------------|-------------------------------|




| .  palm mute note
| /  slide up
| \  slide down
| h  hammer-on
| p  pull-off
| ~  vibrato
| +  harmonic
| x  Mute note
===============================================================================
comments
We did not receive enough feedback on this tab! Please rate:
print report bad tab
1 2 3 4 5
I want to post or [tab]
guest
You may want to rate the tab now too:
select rating
Please do not post tabs as comments. Select "correction" instead!