Oops, an error
Loading. Please wait.

Blindfolds Aside Bass Tab

ver2
ver2

Whole song

Interactive

More versions @911Tabs.com
4,950 views 3 this week
1 commentread comment
1 2 3 4 5
worth learning
x 5
Autoscroll
+/-
esc
set tempo
stop
Contributor
Hey! There's an official Ultimate Guitar app which is ideal
for learning songs when you're away from computer. Get the app
WARNING: You are trying to view
                                    content from Ultimate-Guitar.com
                                    in an unauthorized application,
                                    which is prohibited.

                                    Please use an official Ultimate
                                    Guitar Tabs application for iPhone,
                                    iPad or Android to access legitimate
                                    chords, guitar, bass, and drum tabs
                                    from Ultimate-Guitar.com database.

                                    Type "ultimate guitar tabs" in Apple
                                    App Store's or Android Market's
                                    search to find the application.
Band: Protest the Hero
Song: Blindfolds Aside
Album: Kezia

This is the bass tab for the song Blindfolds Aside by Protest the Hero. The 
tuning is a Half-Step down or
D#
G#
C#
F#

  
--------------------------|
--------------------------|
--------------------------|
--5--5-----5-----5-----5--|


 
---------------|---------------------------|--------------------------|
---------------|---------------------------|--------------------------|
---------------|---------------------------|--------------------6-----|
-----5--5--5-0-|-----0--5--7--8--7--5--3-0-|-----0--5--7--8--7------5-|


 
-------------------------|---------------------------|
-------------------------|---------------------------|
--------------------6----|---------------------------|
----5-5--5---------------|--5--5--5--5--5--5--5--5-0-|


                
---------------------------|---------------------------|-------------------|
---------------------------|---------------------------|-------------------|
---------------------------|--------------------6------|-------------------|
-----0--5--7--8--7--5--3-0-|-----0--5--7--8--7-----0---|-------------------|



----------------|---------------------|---------------------------|
----------------|---------------------|---------------------------|
----------------|---------------------|-----3--5--------3---------|
----------------|--5-5-5------------5-|-----------5-5------4--5-5-|



----------------------------|----------------------------|
----------------------------|----------------------------|
-----3--5--------3----------|------3--5--------3---------|
-----------5-5------5-5---5-|----5-------5-5------4--5-5-|



----------------------------|--------------------------|
----------------------------|--------------------------|
-----3--5--------3----------|------3--5-------3--------|
-----------5-5------5-5-5-5-|--5-5--------5------4---5-|



---------------------------|----------------------------|
---------------------------|----------------------------|
-----3--5-------3----------|------3--5--------3---------|
------------5------5-5---5-|----5-------5-5------4--5-5-|



----------------------------|---------------------------------|
----------------------------|---------------------------------|
-----3--5--------3----------|---------------------------------|
-----------5-5------4-4-4-1-|-----1-1-1-1-1-1-1-1-1-1-1-1-1-0-|


---------------------------------|-----------------------------|
---------------------------------|--------------5p-3-----------|
---------------------------------|-----3--5--7-------7--5--3---|
-----0-0-0-0-0-0-0-0-0-0-0-0-0-5-|---------------------------3-|


---------------------------|---------------------------------|
-----5-----5-----5-----5---|---------------------------------|
---------------------------|---------------------------------|
--------3-----3-----3----1-|-----1-1-1-1-1-1-1-1-1-1-1-1-1-0-|


---------------------------------|---------------------------|
---------------------------------|---------------------------|
---------------------------------|---------------------------|
-----0-0-0-0-0-0-0-0-0-0-0-0-0-5-|-----5--5--5--5--5--5--5-3-|


--------------------------|--------------------------|
--------------------------|--------------------------|
--------------------------|--------------------------|
-----3--3--3--3--3--3--3--|--1--1--1--1--1--1--1--1--|


---------------------------|---------------------------|
---------------------------|---------------------------|
---------------------------|-----3--5--------3---------|
--0--0--0--0--0--0--0--0-5-|-----------5-5------4--5-5-|

 
------------------------|-------------------------------|------------------|
------------------------|-------------------------------|------------------|
-----3--5-----3---------|-------------------------------|------------------|
-----------5-------4----|--0-------0-------0------------|--0-------0-------|


--------------------|--------------------|--------------------|
-----------2--------|-----------2--------|-----------5--4--5--|
--3--3--3-----3--3--|--3--3--3-----3--3--|--0--0--0-----------|
--------------------|--------------------|--------------------|


--------------------|-------------------------------|----------------------|
--7--5--4--5--4-----|-------------------------------|----------------------|
-----------------5--|-------------------------------|----------------------|
--------------------|--0-------0-------0------------|--0-------0-------0---|


--------------------|--------------------|--------------------|
-----------2--------|-----------2--------|-----------5--4--5--|
--3--3--3-----3--3--|--3--3--3-----3--3--|--0--0--0-----------|
--------------------|--------------------|--------------------|

 
----------------------|--------------------|--------------------|
--5/7--7--7--7--7--7--|--------------------|--------------------|
----------------------|--------------------|--------------------|
----------------------|--3--3--3--3--3--3--|--2--2--2--2--2--2--|


  E  E  E  E  E  E     E  E  E  E  E  E     E  E  E  E  E  E   
--------------------|--------------------|--------------------|
--------------------|--------------------|--------------------|
--3--3--3--3--3--3--|--3--3--3-----------|--------------------|
--------------------|-----------5--5--5--|--3--3--3--3--3--3--|

   
--------------------|--------------------|------------------|--------------|
--------------------|--------------4--4--|------------------|--------------|
--------------------|--3--3--3--5--------|--7---------------|--------------|
--2--2--2--2--2--2--|--------------------|------------------|--------------|

 
-------------------------------|--------------------------------|
-------------------------------|--------------------------------|
-------------------------------|--------------------------------|
--0----0----0---0-0-0-0-0-0-0--|--0----0-0-0-0-0-0-0-0-0-0-0-0--|


-------------------------------|---------------------------------|
-------------------------------|---------------------------------|
-------------------------------|---------------------------------|
--0----0----0---0-0-0-0-0-0-0--|--0----0-0-0-0-0-0-0-0-0-0-0-0-0-|


-------------------------------|--------------------------------|
-------------------------------|--------------------------------|
-------------------------------|--------------------------------|
--0----0----0---0-0-0-0-0-0-0--|--0----0-0-0-0-0-0-0-0-0-0-0-0--|

  
----------------------|----------------------|-----------------------------|
-----------5----------|-------5-----7--------|-----------------------------|
--3-------------3--3--|--5-------7-----------|-----------------------------|
----------------------|----------------------|-0----0----0---0-0-0-0-0-0-0-|

      
--------------------------------|----------------------|-------------------|
--------------------------------|-----------5----------|-------5-----7-----|
--------------------------------|--3-------------3--3--|--5-------7--------|
--0----0-0-0-0-0-0-0-0-0-0-0-0--|----------------------|-------------------|

   
-------------------------------|------------------------------------|
-------------------------------|------------------------------------|
--10---9---10--0-0-0-0-0-0-0-0-|--10---9---10--0-0-0-0-0-0-0-0-0----|
-------------------------------|------------------------------------|

  
-------------------------------|-------------------------------|-----------|
-------------------------------|-------------------------------|-----------|
--10---9---10--0-0-0-0-0-0-0-0-|--10---9---10--0-0-0-0-0-0-0-0-|-0--10--9--|
-------------------------------|-------------------------------|-----------|


-------------------------------|------------------------------------|
-------------------------------|------------------------------------|
--10---9---10--0-0-0-0-0-0-0-0-|--10---9---10--0-0-0-0-0-0-0-0-0----|
-------------------------------|------------------------------------|

   
-------------------------------|-------------------------------|-----------|
-------------------------------|-------------------------------|-----------|
-10---9---10--0-0-0-0-0-0-0-0--|-10---9---10--0-0-0-0-0-0-0-0--|-0----10--9|
-------------------------------|-------------------------------|-----------|


-------------------------|-------------|-------------------------|
-------------------------|-------------|-------------------------|
------7----------7---10--|------7------|------7----------7---10--|
--5-------8--7-----------|--8-------6--|--5-------8--7-----------|


----------------|----------------------------|-----------------------------|
----------------|----------------------------|-----------------------------|
------7---------|------7----------7---10-----|------7----------------------|
--8-------6--8--|--5-------8--7-----------7--|--5-------8--5-5-5-5-5-5-5-5-|


----------------------|-----------------------|------------------------|
----------------------|------------5----------|-------------5----------|
----------------------|-----------------------|------------------------|
--5-------------------|--3------3-------3--3--|-----3--3---------3--3--|


-----------------------|------------------------|-----------------------|
-----------------------|------------------------|------------5----------|
------------7----------|-------------7----------|--3------3-------3--3--|
--0------0-------0--0--|-----0--0---------0--0--|-----------------------|


------------------------|-----------------------|------------------------|
-------------5----------|-----------------------|------------------------|
-----3--3---------3--3--|------------7-------7--|-------------7----------|
------------------------|--5------5-------5-----|-----5--5---------5--5--|


-----------------------|------------------------|----------------------|
-----------------------|------------------------|------------7---------|
------------8-------8--|-------------8----------|--5------5-------5----|
--6------6-------6-----|-----6--6---------6--6--|----------------------|


------------------------|-----------------------|------------------------|
--------7----5--5--3----|-----------------------|------------------------|
--5--5------------------|-----------------------|--------------3----3----|
------------------------|--4--------4--4--4--4--|--4--4--4--4------------|


----------------------|-----------------------|---------------------|
----------------------|-----------------------|---------------------|
--2--------2----2--2--|--2--------------------|---------------------|
----------------------|-----0--0----0----0----|--0--1---------------|


-------------------|---------------------|
-------------------|---------------------|
-------------------|---------------------|
-------------------|--1--0---------------|

                                   
  LT            RT   LT  RT   LT  RT  LT RT   LT
--------------------------------------------------|
--------------------------------------------------|
--7-------------10---7---10---7---10--7--10---7---|
--------------------------------------------------|


RT   LT  RT   LT  RT  LT  RT  LT     RT   LT  RT   LT  RT   LT RT  LT  RT
------------------------------------|--------------------------------------|
------------------------------------|--------------------------------------|
10---7---10---7---9---5---9---5-----|10---7---10---7---10---7--10--7---10--|
------------------------------------|--------------------------------------|


  LT  RT   LT  RT   LT  RT  LT  RT     LT  RT  LT  RT  LT  RT LT RT  LT
------------------------------------|------------------------------------|
------------------------------------|------------------------------------|
--7---10---7---10---5---9---5---9---|--3---7---3---7---3---7--3--7---3---|
------------------------------------|------------------------------------|


  RT  LT  RT  LT  RT  LT  RT  LT     RT  LT  RT  LT  RT  LT RT LT  RT
----------------------------------|------------------------------------|
----------------------------------|------------------------------------|
--7---3---7---3---9---5---9---5---|--7---3---7---3---7---3--7--3---7---|
----------------------------------|------------------------------------|


  LT  RT  LT  RT  LT  RT  LT  RT     LT  RT   LT  RT   LT  RT  LT RT   LT
----------------------------------|----------------------------------------|
----------------------------------|----------------------------------------|
--3---7---3---7---5---9---5---9---|--7---10---7---10---7---10--7--10---7---|
----------------------------------|----------------------------------------|


RT   LT  RT   LT  RT  LT  RT  LT     RT   LT  RT   LT  RT   LT RT  LT  RT        
------------------------------------|--------------------------------------|
------------------------------------|--------------------------------------|
10---7---10---7---9---5---9---5-----|10---7---10---7---10---7--10--7---10--|
------------------------------------|--------------------------------------|


  LT  RT   LT  RT   LT  RT  LT  RT     LT  RT  LT  RT  LT  RT LT RT  LT
------------------------------------|------------------------------------|
------------------------------------|------------------------------------|
--7---10---7---10---5---9---5---9---|--3---7---3---7---3---7--3--7---3---|
------------------------------------|------------------------------------|


  RT  LT  RT  LT  RT  LT  RT  LT     RT  LT  RT  LT  RT  LT RT LT  RT
----------------------------------|------------------------------------|
----------------------------------|------------------------------------|
--7---3---7---3---9---5---9---5---|--7---3---7---3---7---3--7--3---7---|
----------------------------------|------------------------------------|


  LT  RT  LT  RT  LT  RT  LT  RT     LT  RT   LT  RT   LT  RT  LT RT   LT
----------------------------------|----------------------------------------|
----------------------------------|----------------------------------------|
--3---7---3---7---5---9---5---9---|--7---10---7---10---7---10--7--10---7---|
----------------------------------|----------------------------------------|


RT   LT  RT   LT  RT  LT  RT  LT     RT   LT  RT   LT  RT   LR RT  LT  RT      
------------------------------------|--------------------------------------|
------------------------------------|--------------------------------------|
10---7---10---7---9---5---9---5-----|10---7---10---7---10---7--10--7---10--|
------------------------------------|--------------------------------------|


  LT  RT   LT  RT   LT  RT  LT  RT     LT  RT  LT  RT  LT  RT LT RT  LT
------------------------------------|------------------------------------|
------------------------------------|------------------------------------|
--7---10---7---10---5---9---5---9---|--3---7---3---7---3---7--3--7---3---|
------------------------------------|------------------------------------|


  RT  LT  RT  LT  RT  LT  RT  LT     RT  LT  RT  LT  RT  LT RT LT  RT
----------------------------------|------------------------------------|
----------------------------------|------------------------------------|
--7---3---7---3---9---5---9---5---|--7---3---7---3---7---3--7--3---7---|
----------------------------------|------------------------------------|


  LT  RT  LT  RT  LT  RT  LT  RT     LT  RT   LT  RT   LT  RT  LT RT   LT
----------------------------------|----------------------------------------|
----------------------------------|----------------------------------------|
--3---7---3---7---5---9---5---9---|--7---10---7---10---7---10--7--10---7---|
----------------------------------|----------------------------------------|


RT   LT  RT   LT  RT  LT  RT  LT     RT   LT  RT   LT  RT   LT RT  LT  RT
------------------------------------|--------------------------------------|
------------------------------------|--------------------------------------|
10---7---10---7---9---5---9---5-----|10---7---10---7---10---7--10--7---10--|
------------------------------------|--------------------------------------|


  LT  RT   LT  RT   LT  RT  LT  RT     LT  RT  LT  RT  LT  RT LT RT  LT
------------------------------------|------------------------------------|
------------------------------------|------------------------------------|
--7---10---7---10---5---9---5---9---|--3---7---3---7---3---7--3--7---3---|
------------------------------------|------------------------------------|


  RT  LT  RT  LT  RT  LT  RT  LT     RT  LT  RT  LT  RT  LT RT LT  RT
----------------------------------|------------------------------------|
----------------------------------|------------------------------------|
--7---3---7---3---9---5---9---5---|--7---3---7---3---7---3--7--3---7---|
----------------------------------|------------------------------------|


  LT  RT  LT  RT  LT  RT  LT  RT                             
---------------------------------|---------------------------|
---------------------------------|---------------------------|
--3---7---3---7---5---9---5---9--|--5--5--5--5--5--5--5--5-5-|
---------------------------------|---------------------------|


--------------------------|--------------------------|
--------------------------|--------------------------|
--6--6--6--6--6--6--6--6--|--------------------------|
--------------------------|--0--0--0--0--0--0--0--0--|


--------------------------|--------------------------|
--------------------------|--------------------------|
--------------------------|--------------------------|
--0--0--0--0--0--0--0--0--|--0--0--0--0--0--0--0--0--|


--------------------------|--------------------------|
--------2--4--5--4--5--4--|--------------2-----------|
--------------------------|--3--3--3--3-----3--3--3--|
--0--0--------------------|--------------------------|


--2-----4--5--4--2--0-----|--------------------------|
-----------------------2--|--------------2-----------|
-----3--------------------|--3--3--3--3-----3--3--3--|
--------------------------|--------------------------|


--2-----2--4--5--4--5--4--|---------------------------|
--------------------------|---------------------------|
-----3--------------------|--------------10-----------|
--------------------------|--0--0--0--0------0--0--0--|


---------------------------|---------------------------|
---------------------------|---------------------------|
--------------10-----------|--------------10-----------|
--0--0--0--0------0--0--0--|--0--0--0--0------0--0--0--|

 
-----9--11------------------|--------------------------|
--9-------------------------|-----------------2-----2--|
------------10--9--7--5-----|--3--3--3--3--3-----3-----|
-------------------------7--|--------------------------|

 
--------------------------|--------------------------|
-----------------2-----2--|-----------------2-----2--|
--3--3--3--3--3-----3-----|--3--3--3--3--3-----3-----|
--------------------------|--------------------------|


--------------------------|----------------------------|
--5--4--0--5--4--0--------|----------------------------|
--------------------3--2--|----------------------------|
--------------------------|--0-0-0-0-0----0-0-0-0-0----|


----------------------------|-------------------------|
----------------------------|-------------------------|
----------------------------|-------------------------|
--0-0-0-0-0----0-0-0-0-0----|--0-0-0-0-0----0----0----|

 
----------------------------|--------------------------|
----------------------------|--------------------------|
----------------------------|--3--3--3--3--3--3--3--3--|
--0-0-0-0-0----0-0-0-0-0----|--------------------------|

 
--------------------------|--------------------------|
-----5--5--5--5--5--5--5--|--5-----------------------|
--3-----------------------|-----3--3--3--3--3--3--3--|
--------------------------|--------------------------|

 
-----------------------------------|-----|---------------|
-----------------------------------|-----|---------------|
--3--3/10--10--10--10--10--10--10--|-----|---------------|
-----------------------------------|-----|-------0-------|


--------------------------|--------------------------|
--------------------------|--------------------------|
--------------------------|--------------------------|
--0--2--3--0--2--3--0--2--|--3--0--2--3--0--2--3--0--|


--------------------------|--------------------------|
--------------------------|--------------------------|
--------------------------|--------------------------|
--2--3--0--2--3--0--2--3--|--0--2--3--0--2--3--0--2--|

    
--------------------------|--------------------------|---------------------|
--------------------------|--------------------------|---------------------|
--------------------------|--------------------------|--------------------7|
--3--0--2--3--0--2--3--0--|--2--3--0--2--3--0--2--3--|--0--2--3--0--2--3---|


KEY:
Slide up to= /
Slide down to= \
Hammer-on= h
Pull off= p
Right hand tapping= RT
Left hand tapping= LT
comments
print report bad tab
1 comment total.
0 reply
BILLYutm wrote on January 18 2009, 07:38 pm

good freakin' job on this yes i play a little bass not much:)

I want to post or [tab]
guest
You may want to rate the tab now too:
select rating
Please do not post tabs as comments. Select "correction" instead!