Oops, an error
Loading. Please wait.

Blindfolds Aside Tab

ver2
ver2

Solo

Whole song

Interactive

More versions @911Tabs.com
29,938 views 30 this week
13 commentsread comments
1 2 3 4 5
excellent!
x 11
Autoscroll
+/-
esc
set tempo
stop
Contributor
Hey! There's an official Ultimate Guitar app which is ideal
for learning songs when you're away from computer. Get the app
WARNING: You are trying to view
                                    content from Ultimate-Guitar.com
                                    in an unauthorized application,
                                    which is prohibited.

                                    Please use an official Ultimate
                                    Guitar Tabs application for iPhone,
                                    iPad or Android to access legitimate
                                    chords, guitar, bass, and drum tabs
                                    from Ultimate-Guitar.com database.

                                    Type "ultimate guitar tabs" in Apple
                                    App Store's or Android Market's
                                    search to find the application.
-------------------------------------------------------------------------------
                             Blindfolds Aside - Protest The Hero
-------------------------------------------------------------------------------



Tuning: Half-Step Down


 
Gtr I (Eb Ab Db Gb Bb Eb) - 'Guitar 1'
 Gtr II (Eb Ab Db Gb Bb Eb) - 'Guitar 2'
Gtr III (Eb Ab Db Gb Bb Eb) - 'Acoustic Guitar'
Gtr IV (Eb Ab Db Gb Bb Eb) - 'Guitar 1'
Gtr V (Eb Ab Db Gb Bb Eb) - 'Guitar 2'
Gtr VI (Eb Ab Db Gb Bb Eb) - 'Overdub'





The legend is at the bottom of the page. 


If you have any questions, corrections or anything along that line, leave a comment or PM me. 

Thank you.





Intro

Gtr I
|-----------------|---------|
|-----------------|---------|
|-----------------|---------|
|-7-7---7---7---7-|---7-7---|
|-7-7---7---7---7-|---7-7-0-|
|-5-5---5---5---5-|---5-5-0-|
|
|
| Gtr II
|-----------------|---------|
|-----------------|---------|
|-----------------|---------|
|-7-7---7---7---7-|---7-7---|
|-7-7---7---7---7-|---7-7-0-|
|-5-5---5---5---5-|---5-5-0-|



|---------------------------------|---------------------------------|
|---------------------------------|---------------------------------|
|---------------------------------|---------------------------------|
|-2-------------------------------|-2-------------------------------|
|-2-10p0-12p0-9---10p0-9p0--------|-2-10p0-12p0-9p0-10p0-9p0--------|
|-0------------------------10p0-0-|-0------------------------10p0-0-|
|
|
|---------------------------------|---------------------------------|
|---------------------------------|---------------------------------|
|---------------------------------|---------------------------------|
|-2--9p0-10p0-7p0--9p0-7p0--------|-2--9p0-10p0-7p0--9p0-7p0--------|
|-2------------------------10p0---|-2------------------------10p0---|
|-0-----------------------------0-|-0-----------------------------0-|



                            PM--------------|
|-----------------------|-----------------------|
|-----------------------|-----------------------|
|---------------------8-|-----------------------|
|--7--7--7--7--7------8-|-7-------------------2-|
|--7--7--7--7--7------6-|-7-7-7-7-7-7-7-7-7-7-2-|
|--5--5--5--5--5--------|-5-5-5-5-5-5-5-5-5-5-0-|
|
|
|                           PM--------------|
|-----------------------|-----------------------|
|-----------------------|-----------------------|
|-12-12-12-12-12------8-|-----------------------|
|--x--x--x--x--x------8-|-7-------------------2-|
|-10-10-10-10-10------6-|-7-7-7-7-7-7-7-7-7-7-2-|
|-----------------------|-5-5-5-5-5-5-5-5-5-5-0-|



|-----------------------------------|-----------------------------------|
|-----------------------------------|-----------------------------------|
|-----------------------------------|-----------------------------------|
|-(2)-------------------------------|-2-----------------------------7---|
|-(2)-10p0-12p0-9p0-10p0-9p0--------|-2-10p0-12p0-9p0-10p0-9p0------7---|
|-(0)------------------------10p0-0-|-0------------------------10p0-5---|
|
|
|-----------------------------------|-----------------------------------|
|-----------------------------------|-----------------------------------|
|-----------------------------------|-----------------------------------|
|-(2)--9p0-10p0-9p0--7p0-9p0--------|-2--9p0-10p0-9p0--7p0-9p0----------|
|-(2)------------------------10p0---|-2------------------------10p0-----|
|-(0)-----------------------------0-|-0-----------------------------0---|


|-------------------------|-------------------|--------------|
|-------------------------|-------------------|--------------|
|-----5-7---------5-------|-----5-7---------5-|--------------|
|-(7)-5-7-0-7-(7)-5-5-0-7-|-(7)-5-7-0-7-(7)-5-|-7-7-7------7-|
|-(7)-3-5-0-7-(7)-3-5-0-7-|-(7)-3-5-0-7-(7)-3-|-7-7-7------7-|
|-(5)-------5-(5)---3---5-|-(5)-------5-(5)---|-5-5-5------5-|
|
|
|-------------------------|-------------------|--------------|
|-------------------------|-------------------|--------------|
|-------------------------|-------------------|--------------|
|-------------------------|-------------------|-7-7-7------7-|
|-------------------------|-------------------|-7-7-7------7-|
|-------------------------|-------------------|-5-5-5------5-|



Gtrs I, II
                                              PM----|
|-------------------------|---------------------------|
|-------------------------|---------------------------|
|-----5-7---------5-------|-----5-7---------5---------|
|-(7)-5-7-0-7-(7)-5-5-0-7-|-(7)-5-7-0-7-(7)-5---------|
|-(7)-3-5-0-7-(7)-3-5-0-7-|-(7)-3-5-0-7-(7)-3-7-7-7-7-|
|-(5)-------5-(5)---3---5-|-(5)-------5-(5)---5-5-5-5-|


|-------------------------|---------------------------|
|-------------------------|---------------------------|
|-----5-7---------5-------|-----5-7---------5---------|
|-----5-7-0-7-(7)-5-5-0-7-|-(7)-5-7-0-7-(7)-5-x-x-x-x-|
|-(7)-3-5-0-7-(7)-3-5-0-7-|-(7)-3-5-0-7-(7)-3-x-x-x-x-|
|-(5)-------5-(5)---3---5-|-(5)-------5-(5)---x-x-x-x-|



|-----------------------|--------------------|
|-----------------------|--------------------|
|-----5-7--------5------|-----5-7--------5---|
|-x-x-5-7--7-(7)-5-5--7-|-(7)-5-7--7-(7)-5---|
|-x-x-3-5--7-(7)-3-5--7-|-(7)-3-5--7-(7)-3-7-|
|-x-x------5-(5)---3--5-|-(5)------5-(5)---5-|



        PM         PM|
|-----------------------|-------------------------||
|-----------------------|-------------------------||
|---5-7---------5-------|-----5-7---------5-------||
|---5-7-0-7-(7)-5-5-0-7-|-(7)-5-7-0-7-(7)-5-----3-||
|-7-3-5-0-7-(7)-3-5-0-7-|-(7)-3-5-0-7-(7)-3-5-5-3-||
|-5-------5-(5)---3---5-|-(5)-------5-(5)---3-3-1-||


Verse
      PM----------------------|          PM----------------------|
|---------------------------------|---------------------------------|
|---------------------------------|---------------------------------|
|---------------------------------|---------------------------------|
|-(3)---------------------------2-|-(2)---------------------------7-|
|-(3)-3-3-3-3-3-3-3-3-3-3-3-3-3-2-|-(2)-2-2-2-2-2-2-2-2-2-2-2-2-2-7-|
|-(1)-1-1-1-1-1-1-1-1-1-1-1-1-1-0-|-(0)-0-0-0-0-0-0-0-0-0-0-0-0-0-5-|


Gtr I
|--------------------------------|-----------------------------|
|--------------------------------|-----------------------------|
|-----5-7-9---12--10----9--9-9-9-|---------9-(9)-9----9--9-9-9-|
|-(7)-5-7-x----x---x----x--x-x-x-|-7-7-7-7-x-----x----x--x-x-x-|
|-(7)-3-5-7---10---8----7--7-7-7-|-7-7-7-7-7-(7)-7----7--7-7-7-|
|-(5)----------------------------|-5-5-5-5---------------------|
|
|
| Gtr II
|--------------------------------|-----------------------------|
|--------------------------------|-----------------------------|
|-----5-7-9-9-(9)--9-9-(9)-9-9-9-|-----------------------------|
|-(7)-5-7-9-9-(9)--9-9-(9)-9-9-9-|-7-7-7-7-7-(7)-7-7-(7)-7-7-7-|
|-(7)-3-5-7-7-(7)--7-7-(7)-7-7-7-|-7-7-7-7-7-(7)-7-7-(7)-7-7-7-|
|-(5)----------------------------|-5-5-5-5-5-(5)-5-5-(5)-5-5-5-|



Gtrs I, II
 PM----------------------------------|
|-------------------|---------------------|
|-------------------|---------------------|
|-------------------|---------------------|
|-------------------|-------------------7-|
|-3-3-3-3-3-3-3-3-2-|-(2)-2-2-2-2-2-2-2-7-|
|-1-1-1-1-1-1-1-1-0-|-(0)-0-0-0-0-0-0-0-5-|



|---------------------|-----------------------|
|---------------------|-----------------------|
|---------------------|-----------------------|
|-(7)-7-7-7-7-7-7-7-5-|-(5)-5-5-5-5-5-5-5-(5)-|
|-(7)-7-7-7-7-7-7-7-5-|-(5)-5-5-5-5-5-5-5-(5)-|
|-(5)-5-5-5-5-5-5-5-3-|-(3)-3-3-3-3-3-3-3-(3)-|



Gtr I
|-------------------------|---------------------------|
|-------------------------|---------------------------|
|-14-14-14-14-14-14-14-14S|=13-13-13-13S16-16-16-16---|
|--x--x--x--x--x--x--x--x-|--x--x--x--x--x--x--x--x-7-|
|-12-12-12-12-12-12-12-12S|=11-11-11-11S14-14-14-14-7-|
|-------------------------|-------------------------5-|
|
|
| Gtr II
|-------------------------|---------------------------|
|-------------------------|---------------------------|
|-------------------------|---------------------------|
|--3--3--3--3--3--3--3--3-|--2--2--2--2--2--2--2--2-7-|
|--3--3--3--3--3--3--3--3-|--2--2--2--2--2--2--2--2-7-|
|--1--1--1--1--1--1--1--1-|--0--0--0--0--0--0--0--0-5-|



|-------------------------|-------------------||
|-------------------------|-------------------||
|-----5-7---------5-------|-----5-7-----------||
|-(7)-5-7-0-7-(7)-5-5-0-7-|-(7)-5-7-0---------||
|-(7)-3-5-0-7-(7)-3-5-0-7-|-(7)-3-5-0---3-----||
|-(5)-------5-(5)---3---5-|-(5)------------4--||
|
|
|-------------------------|-------------------||
|-------------------------|-------------------||
|-----5-7---------5-------|-----5-7-----------||
|-(7)-5-7-0-7-(7)-5-5-0-7-|-(7)-5-7-0---------||
|-(7)-3-5-0-7-(7)-3-5-0-7-|-(7)-3-5-0---7-----||
|-(5)-------5-(5)---3---5-|-(5)------------8--||


Pre-Chorus
||-----------------0-0-0-|------------------|
||o----------------0-0-0-|------------------|
||-----------------------|--------0-0-0-0-0-|
||--2----2----2----------|-2----2-0-0-0-0-0-|
||o-2----2----2----------|-2----2-----------|
||--0----0----0----------|-0----0-----------|
|
|
||-----------------------|------------------|
||o----------------------|------------------|
||-----------------------|------------------|
||--2----2----2----------|-2----2-----------|
||o-2----2----2----------|-2----2-----------|
||--0----0----0----------|-0----0-----------|



Gtrs I, II
|-------------------------|--------------------------||
|-------------------------|-------------------------o||
|-5-5-5-5-5-5-5-5-5-5-5-5-|--------------------------||
|-5-5-5-5-5-5-5-5-5-5-5-5-|-7-7-7-7-7-7-7-7-7-7-7-7--||
|-3-3-3-3-3-3-3-3-3-3-3-3-|-7-7-7-7-7-7-7-7-7-7-7-7-o||
|-------------------------|-5-5-5-5-5-5-5-5-5-5-5-5--||


Chorus
|-------------------------|-------------------------|
|-------------------------|-------------------------|
|-------------------------|-5-5-5-5-5-5-5-5-5-5-5-5-|
|-5-5-5-5-5-5-5-5-5-5-5-5-|-5-5-5-5-5-5-5-5-5-5-5-5-|
|-5-5-5-5-5-5-5-5-5-5-5-5-|-3-3-3-3-3-3-3-3-3-3-3-3-|
|-3-3-3-3-3-3-2-2-2-2-2-2-|-------------------------|



|-------------------------|-----------------------|
|-------------------------|-----------------------|
|-------------------------|-5-5-5-5-5-5-7-7-7-7-7-|
|-5-5-5-5-5-5-5-5-5-5-5-5-|-5-5-5-5-5-5-7-7-7-7-7-|
|-5-5-5-5-5-5-5-5-5-5-5-5-|-3-3-3-3-3-3-5-5-5-5-5-|
|-3-3-3-3-3-3-2-2-2-2-2-2-|-----------------------|



Gtr III
|---------------------|-------------------||
|---------------------|-------------------||
|-9-9-9-9-9-9-9-9-9-9-|-8-8-8-8-8-8-8-8-8-||
|-9-9-9-9-9-9-9-9-9-9-|-9-9-9-9-9-9-9-9-9-||
|-7-7-7-7-7-7-7-7-7-7-|-6-6-6-6-6-6-6-6-6-||
|---------------------|-------------------||


Pre-Verse
Q=150
E5
4/4
Gtr I
 PM  PM   PM----------|     PM PM
|-----------------------0-|----------------------------[5]-|
|-------------------------|------------------------0h3-----|
|-----------0-2-0---0-2---|-------0h2----0h2---0h2---------|
|-----------------2-------|------------2-----2-------------|
|-2---2---2---------------|-2---2--------------------------|
|-0---0---0---------------|-0---0--------------------------|
|
|
| Gtr II
|PM  PM  PM                PM  PM
|-------------------------|--------------------------------|
|-------------------------|--------------------------------|
|-------------------------|--------------------------------|
|-------------------------|--------------------------------|
|-2---2---2---------------|-2---2--------------------------|
|-0---0---0---------------|-0---0--------------------------|


 PM  PM PM----------------|     PM---------|
|-------------------------|----------------------0----------||
|-------------------------|---------0--------0h3---3p0------||
|-----------0-2---0-2-0---|-------2------0-2-----------2p0--||
|---------------2-------2-|------------2--------------------||
|-2---2---2---------------|-2---2---------------------------||
|-0---0---0---------------|-0---0---------------------------||
|
|
|PM  PM  PM                PM PM
|-------------------------|---------------------------------||
|-------------------------|---------------------------------||
|-------------------------|---------------------------------||
|-------------------------|---------------------------------||
|-2---2---2---------------|-2---2---------------------------||
|-0---0---0---------------|-0---0---------------------------||


Verse
 PM  PM PM----------------| PM-------|  PM
|-------------------------|----------------------------0h3--|
|-------------------------|------------------0-----3p0------|
|-----------0-2---0-2-0---|-------2-0----0-2---0------------|
|---------------2-------2-|------------2---------2----------|
|-2---2---2---------------|-2---2---------------------------|
|-0---0---0---------------|-0---0---------------------------|
|
|
|PM PM   PM                 PM PM
|-------------------------|---------------------------------|
|-------------------------|---------------------------------|
|-------------------------|---------------------------------|
|-------------------------|---------------------------------|
|-2---2---2---------------|-2---2---------------------------|
|-0---0---0---------------|-0---0---------------------------|



|-------------|-----------------------|
|-------------|-----------------------|
|-----0---0-2-|-0-2-4-2-4h==5p4-2-----|
|-2-4---4-----|---------------------5-|
|-------------|-----------------------|
|-------------|-----------------------|
|
|
|-------------|-----------------------|
|-------------|-----------------------|
|-------------|-----------------------|
|-5-5-5-5-5-5-|-7-7-7-7---7-------7---|
|-5-5-5-5-5-5-|-7-7-7-7---7-------7---|
|-3-3-3-3-3-3-|-5-5-5-5---5-------5---|



 PM  PM PM----------------| PM-----------|
|-------------------------|------------------------0h3p0h3--|
|-------------------------|----------------0---0h2----------|
|-----------0-2---0-2-0---|-------0----0-2---2--------------|
|---------------2-------2-|---------2-----------------------|
|-2---2---2---------------|-2---2---------------------------|
|-0---0---0---------------|-0---0---------------------------|
|
|
|PM  PM  PM                PM PM
|-------------------------|---------------------------------|
|-------------------------|---------------------------------|
|-------------------------|---------------------------------|
|-------------------------|---------------------------------|
|-2---2---2---------------|-2---2---------------------------|
|-0---0---0---------------|-0---0---------------------------|



|-------------|-------------||
|-------------|-------------||
|-----0---0-2-|-0-2-4-5-4-2-||
|-2-4---4-----|-------------||
|-------------|-------------||
|-------------|-------------||
|
|
|
|-------------|-------------||
|-------------|-------------||
|-------------|-------------||
|-5-5-5-5-5-5-|-7-7-7-7-7-7-||
|-5-5-5-5-5-5-|-7-7-7-7-7-7-||
|-3-3-3-3-3-3-|-5-5-5-5-5-5-||


Bridge
||--------------------------|----------------------------------------------|
||o-------------------------|----------------------------------------------|
||-----------------2--------|--------4p2--4-------4-(4)s=5--4p======2-0----|
||--5-4-5-5p2--4h5---5p=4-2-|-5-4-5-------------------------------------1--|
||o-------------------------|----------------------------------------------|
||--------------------------|----------------------------------------------|
|
|
|
||--------------------------|----------------------------------------------|
||o-------------------------|----------------------------------------------|
||--------------------------|----------------------------------------------|
||--9-7-9-9p7----7-9p7----9-|-9-7-9-10p7-10-(10)s12p====10-12-(12)s10-9----|
||o-----------10-------10---|-------------------------------------------9--|
||--------------------------|----------------------------------------------|



|---------------------------|
|---------------------------|
|------------------2--------|
|-5-4-5--2h5--2h5----5p=4-2-|
|---------------------------|
|---------------------------|
|
|
|
|---------------------------|
|---------------------------|
|---------------------------|
|-9-7-9----7----7-10p7------|
|-------10---10--------10p9-|
|---------------------------|




|-------------------------------------------|-----------||
|-------------------------------------------|----------o||
|--------4p2--4-------4-(4)s=5--4p======2-0-|-----------||
|-5-4-5-------------------------------------|-[1]--5-4--||
|-------------------------------------------|----------o||
|-------------------------------------------|-----------||
|
|
|
|
|-------------------------------------------|-----------||
|-------------------------------------------|----------o||
|-------------------------------------------|-----------||
|-9-7-9-10p7-10-(10)s12p====10-12-(12)s10-9-|------9-7--||
|-------------------------------------------|-[9]------o||
|-------------------------------------------|-----------||




|--------------------|----------|--------------------|
|--------------------|----------|--------------------|
|------------------0-|----------|------------------0-|
|-----2---------2----|-----2----|-----2---------2----|
|-0------3--2--------|-3------2-|-0------3--2--------|
|--------------------|----------|--------------------|
|
|
|--------------------|----------|--------------------|
|--------------------|----------|--------------------|
|--------------------|----------|--------------------|
|------------------9-|----------|------------------9-|
|----10--7-----10----|-7--10----|----10--7-----10----|
|-8--------10--------|--------8-|-8--------10--------|



|------------|-----------------------|
|------------|-----------------------|
|-----0------|------------------0----|
|------------|-----2---------2-------|
|-3------2-3-|-0------3--2--------2--|
|------------|-----------------------|
|
| 
|------------|-----------------------|
|------------|-----------------------|
|------------|-----------------------|
|------------|------------------9----|
|-7--10----7-|----10--7-----10----7--|
|--------8---|-8--------10-----------|



Gtr IV

 PM--------------|
|----------------------------|--------------||
|----------------------------|--------------||
|----------------------------|--------------||
|-----2---------2-3--2-------|----------10--||
|-0------3-3-5---------5-3-5-|-[3]----------||
|----------------------------|--------------||
|
|
|
| PM--------------|
|----------------------------|--------------||
|----------------------------|--------------||
|----------------------------|--------------||
|-----------------7----------|--------------||
|----10--7-7-9-10---10-9-7-9-|-[7]----------||
|-8--------------------------|--------------||




Guitar Solo

Gtr IV
|------------------|--------------------------|
|------------------|--------------------------|
|------------------|-----------------------12-|
|-9-------9------9-|-9h10p==9----9------------|
|------------------|----------12------9-10----|
|------------------|---------------12---------|
|
|
|
| Gtr V
|------------------|--------------------------|
|------------------|--------------------------|
|------------------|--------------------------|
|-5-5-5-5-5--5-5-5-|-5----5----5-5--5-5--5--5-|
|-5-5-5-5-5--5-5-5-|-5----5----5-5--5-5--5--5-|
|-3-3-3-3-3--3-3-3-|-3----3----3-3--3-3--3--3-|




|--------------------|-------------------------------------------|
|--------------------|-------------------------------------------|
|-9------------(9)-0-|-11-0---0-12-0---0-14p12p==11-12p11--------|
|--------------------|--------------------------------------12---|
|--------------------|-------------------------------------------|
|--------------------|-------------------------------------------|
|
| 
|--------------------|-------------------------------------------|
|--------------------|-------------------------------------------|
|--------------------|-------------------------------------------|
|-2--2-2-2-2-2--2--2-|--2---2----2---2----2----2-----2----2------|
|-2--2-2-2-2-2--2--2-|--2---2----2---2----2----2-----2----2------|
|-0--0-0-0-0-0--0--0-|--0---0----0---0----0----0-----0----0------|




|--------------------|------------------------------------|
|--------------------|------------------------------------|
|--------------------|--------------11-11-(11)b12r(11)----|
|-10-------10------9-|-9-(9)b10r(9)--------------------12-|
|--------------------|------------------------------------|
|--------------------|------------------------------------|
|
| 
|--------------------|------------------------------------|
|--------------------|------------------------------------|
|--------------------|------------------------------------|
|--5-5-5-5--5--5-5-5-|-5--5------5---5--5---5-------5---5-|
|--5-5-5-5--5--5-5-5-|-5--5------5---5--5---5-------5---5-|
|--3-3-3-3--3--3-3-3-|-3--3------3---3--3---3-------3---3-|



|---------------------------------------------|
|---------------------------------10-10-10-10-|
|-9-9-9-9-11-11-11-11-12-12-12-12-------------|
|---------------------------------------------|
|---------------------------------------------|
|---------------------------------------------|
|
| 
|---------------------------------------------|
|---------------------------------------------|
|---------------------------------------------|
|-7---7----7-----7-----7-----7-----7-----7----|
|-7---7----7-----7-----7-----7-----7-----7----|
|-5---5----5-----5-----5-----5-----5-----5----|



|-------------------------------------10h13p10----|
|-12-12-12-12-10-10-10-10----------10----------10-|
|-------------------------------10----------------|
|-------------------------10h12-------------------|
|-------------------------------------------------|
|-------------------------------------------------|
|
| 
|-------------------------------------------------|
|-------------------------------------------------|
|-------------------------------------------------|
|--7-----7-----7-----7-----7-----7-----7-----7----|
|--7-----7-----7-----7-----7-----7-----7-----7----|
|--5-----5-----5-----5-----5-----5-----5-----5----|



|---------------------|----10-12-13-12-------15-|
|---------------------|-11-------------13-------|
|-10-------10------10-|-------------------12----|
|---------------------|-------------------------|
|---------------------|-------------------------|
|---------------------|-------------------------|
|
| 
|---------------------|-------------------------|
|---------------------|-------------------------|
|---------------------|-------------------------|
|--8-8-8-8--8--8-8--8-|--8--8--8--8--8--8--8--8-|
|--8-8-8-8--8--8-8--8-|--8--8--8--8--8--8--8--8-|
|--6-6-6-6--6--6-6--6-|--6--6--6--6--6--6--6--6-|




Gtr VI
|------------------|---------------------------------------------|
|------------------|-12p10h==12-13p12h==13-15p13h==15-17p15h==17-|
|------------------|---------------------------------------------|
|------------------|---------------------------------------------|
|------------------|---------------------------------------------|
|------------------|---------------------------------------------|
|
|
|
| Gtr IV
|------------------|---------------------------------------------|
|------------------|---------------------------------------------|
|-11---------------|-12p11h==12-14p12h==14-16p14h==16-17p16h==17-|
|------------------|---------------------------------------------|
|------------------|---------------------------------------------|
|------------------|---------------------------------------------|
|
|
|
| Gtr V
|------------------|---------------------------------------------|
|------------------|---------------------------------------------|
|--7-7-7-7-7-7-7-7-|--7----7-----7----7-----7----7-----7----7----|
|--7-7-7-7-7-7-7-7-|--7----7-----7----7-----7----7-----7----7----|
|--5-5-5-5-5-5-5-5-|--5----5-----5----5-----5----5-----5----5----|
|------------------|---------------------------------------------|




Gtr IV
|------------------|----------12h13p12-12h13p12-|
|-15----15------13-|-13-------------------------|
|------------------|----------------------------|
|------------------|----------------------------|
|------------------|----------------------------|
|------------------|----------------------------|
|
|
|
| Gtr V
|------------------|----------------------------|
|------------------|----------------------------|
|------------------|----------------------------|
|--6-----6--6-6--6-|--6-6-6-6-10-------10-------|
|--6-----6--6-6--6-|--6-6-6-6-10-------10-------|
|--4-----4--4-4--4-|--4-4-4-4--8--------8-------|




|-------------------|------------|
|-12--------(12)-12-|-12-9-9-----|
|-------------------|------------|
|-------------------|------------|
|-------------------|------------|
|-------------------|------------|
|
|
|-------------------|------------|
|-------------------|------------|
|-------------------|----9-9-----|
|--9-----9----9---9-|--9-9-9-----|
|--9-----9----9---9-|--9-7-7-----|
|--7-----7----7---7-|--7---------|




|--------------------------------|
|-9-10-(10)--10p0-12p0-12p0-10p0-|
|--------------------------------|
|--------------------------------|
|--------------------------------|
|--------------------------------|
|
|
|--------------------------------|
|--------------------------------|
|-9------------------------------|
|-9--7--(7)----------------------|
|-7--7--(7)----------------------|
|----5--(5)----------------------|




|------------------------------------------|-------------||
|-12p=0-13p0-12p0-13p0-17p0-15p0-13p0-15p0-|-12-9-(9)----||
|------------------------------------------|-------------||
|------------------------------------------|-------------||
|------------------------------------------|-------------||
|------------------------------------------|-------------||
|
| 
|------------------------------------------|-------------||
|------------------------------------------|-------------||
|------------------------------------------|-------------||
|-(7)--------------------------------------|--9-2-(2)----||
|-(7)--------------------------------------|--9-2-(2)----||
|-(5)--------------------------------------|--7-0-(0)----||




Interlude

Gtr IV
|
o


Gtr I
|--3p0h7p=0h5p0h=8p0h|=7p=0h10p0h=8p==0h==12p0h10p0h|
|--------------------|------------------------------|
|--------------------|------------------------------|
|--------------------|------------------------------|
|--------------------|------------------------------|
|--------------------|------------------------------|
|
|
|
| Gtr II
|-12p2h3-14p2h3-15p2h|=3-14p=2h3-12p2h3p2-10p2h=3p2-|
|--------------------|------------------------------|
|--------------------|------------------------------|
|--------------------|------------------------------|
|--------------------|------------------------------|
|--------------------|------------------------------|
|
|
|
| Gtr III
|--------------------|------------------------------|
|--------------------|------------------------------|
|--------------------|------------------------------|
|--------------------|------------------------------|
|--------------------|------------------------------|
|--0h3-0h=3-0h3--0h3-|-0h=3--0h3--0h==2----0h===2---|




|--3p0h7p=0h5p0h=8p0h|=7p=0h10p0h12p0h10p0h=8p0h=7p0h ==|
|--------------------|---------------------------------|
|--------------------|---------------------------------|
|--------------------|---------------------------------|
|--------------------|---------------------------------|
|--------------------|---------------------------------|
|
|
|
|-12p2h3-14p2h3-15p2h|=3-14p=2h3-15p3-14p3-12p3-14p3---|
|--------------------|---------------------------------|
|--------------------|---------------------------------|
|--------------------|---------------------------------|
|--------------------|---------------------------------|
|--------------------|---------------------------------|
|
|
|--------------------|---------------------------------|
|--------------------|---------------------------------|
|--------------------|---------------------------------|
|--------------------|---------------------------------|
|--------------------|---------------------------------|
|--0h3-0h=3-0h3--0h3-|-0h=3--0h3--0h===2----0h===2-----|



|--3p0h7p=0h5p0h=8p0h|=7p=0h10p0h=8p===0h==12p0h10p0h |
|--------------------|-------------------------------|
|--------------------|-------------------------------|
|--------------------|-------------------------------|
|--------------------|-------------------------------|
|--------------------|-------------------------------|
|
|
|-12p2h3-14p2h3-15p2h|=3-17p=2h3-14p3-14p3-14p3-14p3-|
|--------------------|-------------------------------|
|--------------------|-------------------------------|
|--------------------|-------------------------------|
|--------------------|-------------------------------|
|--------------------|-------------------------------|
|
| 
|--------------------|-------------------------------|
|--------------------|-------------------------------|
|--------------------|-------------------------------|
|--------------------|-------------------------------|
|--------------------|-------------------------------|
|--0h3-0h=3-0h3--0h3-|-0h=3--0h3--0h===2----0h===2---|



|--3p0h7p=0h5p0h=8p0h|==7p==0h==10p==0h==12p0h10p0h=8 p0h10p0h=||
|--------------------|----------------------------------------||
|--------------------|----------------------------------------||
|--------------------|----------------------------------------||
|--------------------|----------------------------------------||
|--------------------|----------------------------------------||
|
|
|
|-15p2h3-17p2h3-19p2-|-14p2h3p2-15p2h3p2-15p3-14p3-12p3-14p3--||
|--------------------|----------------------------------------||
|--------------------|----------------------------------------||
|--------------------|----------------------------------------||
|--------------------|----------------------------------------||
|--------------------|----------------------------------------||
|
| 
|--------------------|----------------------------------------||
|--------------------|----------------------------------------||
|--------------------|----------------------------------------||
|--------------------|----------------------------------------||
|--------------------|----------------------------------------||
|--0h3-0h=3-0h3--0h3-|--0h==3----0h==3----0h===2----0h===2----||




Verse
|-12\---8p0h10p0h12\---8p0h10p0h|=12\---8p0h10p0h12\---8p0h10p0h|
|-------------------------------|-------------------------------|
|-------------------------------|-------------------------------|
|-------------------------------|-------------------------------|
|-------------------------------|-------------------------------|
|-------------------------------|-------------------------------|
|
|
|
|-15\--12p3-14p3-15\--12p3-14p3-|-15\--12p3-14p3-15\--12p3-14p3-|
|-------------------------------|-------------------------------|
|-------------------------------|-------------------------------|
|-------------------------------|-------------------------------|
|-------------------------------|-------------------------------|
|-------------------------------|-------------------------------|
|
|
|
|-------------------------------|-------------------------------|
|-------------------------------|-------------------------------|
|-------------------------------|-------------------------------|
|-------------------------------|-------------------------------|
|-------------------------------|-------------------------------|
|--0h3--0h===3----0h3--0h===3---|--0h3--0h===3----0h2--0h===2---|




|-12\---8p0h10p0h12\---8p0h10p0-|-12\---8p0h10p0h12\---8p0h10p0----|
|-------------------------------|----------------------------------|
|-------------------------------|----------------------------------|
|-------------------------------|----------------------------------|
|-------------------------------|----------------------------------|
|-------------------------------|----------------------------------|
|
|
|
|
|-15\--12p3-14p3-15\--12p3-14p3-|-15\--12p3-14p3-15\--12p3-14p3----|
|-------------------------------|----------------------------------|
|-------------------------------|----------------------------------|
|-------------------------------|----------------------------------|
|-------------------------------|----------------------------------|
|-------------------------------|----------------------------------|
|
|
|
|-------------------------------|----------------------------------|
|-------------------------------|----------------------------------|
|-------------------------------|----------------------------------|
|-------------------------------|----------------------------------|
|-------------------------------|----------------------------------|
|--0h3--0h===3----0h3--0h===3---|--0h3--0h===3----0h2--0h===2------|



Gtrs I, II

                                                PM------------|
|-----------------|-----------------|-----------------|-----------------|
|-----------------|-----------------|-----------------|-----------------|
|-----------------|-----------------|-----------------|-----------------|
|-----------------|-----------------|-----------------|---------2-2-2-2-|
|-----------------|-----------------|-----------2-2-2-|-2-2-2-2-2-2-2-2-|
|-----------------|-----------------|-----------0-0-0-|-0-0-0-0-0-0-0-0-|
|
|
|
| Gtr III
|-----------------|-----------------|-----------------|-----------------|
|-----------------|-----------------|-----------------|-----------------|
|-----------------|-----------------|-----------------|-----------------|
|-----------------|-----------------|-----------------|-----------------|
|-----------------|-----------------|-----------------|-----------------|
|-0h3-0h3-0h3-0h3-|-0h3-0h3-0h2-0h2-|-0h3-0h3-0h3-0h3-|-0h3-0h3-0h2-0h2-|




|-----------------|-----------------|-----------------|-----------------|
|-----------------|-----------------|-----------------|-----------------|
|-----------------|-----------------|-----------------|-----------------|
|-2-2-2-----------|-----------------|-----------------|-----------------|
|-2-2-2-----------|-----------------|-----------------|-----------------|
|-0-0-0-----------|-----------------|-----------------|-----------------|
|
|
|
|-----------------|-----------------|-----------------|-----------------|
|-----------------|-----------------|-----------------|-----------------|
|-----------------|-----------------|-----------------|-----------------|
|-----------------|-----------------|-----------------|-----------------|
|-----------------|-----------------|-----------------|-----------------|
|-0h3-0h3-0h3-0h3-|-0h3-0h3-0h2-0h2-|-0h3-0h3-0h3-0h3-|-0h3-0h3-0h2-0h2-|



Gtr III
|-----------------|-----------------|-----------------|-----------------:
|-----------------|-----------------|-----------------|-----------------:
|-----------------|-----------------|-----------------|-----------------:
|-----------------|-----------------|-----------------|-----------------:
|-----------------|-----------------|-----------------|-----------------:
|-0h3-0h3-0h3-0h3-|-0h3-0h3-0h2-0h2-|-0h3-0h3-0h3-0h3-|-0h3-0h3-0h2-0h2-:



Gtr I
|--------------------|------------------------------|
|--------------------|------------------------------|
|--------------------|------------------------------|
|--2-----------------|-(2)---------0----------------|
|--2-----------------|-(2)---------0----------------|
|--0-----------------|-(0)--------------------------|
|
|
|
| Gtr II
|-12p2h3-14p2h3-15p2h|==3--14p2h3-12p2h3p2-10p2h3p2-|
|--------------------|------------------------------|
|--------------------|------------------------------|
|--------------------|------------------------------|
|--------------------|------------------------------|
|--------------------|------------------------------|




|--------------------|---------------------------------|
|--------------------|---------------------------------|
|--------------------|---------------------------------|
|--2-----------------|-(2)---------0-------------------|
|--2-----------------|-(2)---------0-------------------|
|--0-----------------|-(0)-----------------------------|
|
|
|
|-12p2h3-14p2h3-15p2h|==3--14p2h3-15p3-14p3-12p3-14p3--|
|--------------------|---------------------------------|
|--------------------|---------------------------------|
|--------------------|---------------------------------|
|--------------------|---------------------------------|
|--------------------|---------------------------------|




|--------------------|--------------------------------|
|--------------------|--------------------------------|
|--------------------|--------------------------------|
|--5-----------------|-(5)----------------------------|
|--5-----------------|-(5)----------------------------|
|--3-----------------|-(3)----------------------------|
|
|
|
|-12p2h3-14p2h3-15p2h|==3--17p2h3-14p3-14p3-14p3-14p3-|
|--------------------|--------------------------------|
|--------------------|--------------------------------|
|--------------------|--------------------------------|
|--------------------|--------------------------------|
|--------------------|--------------------------------|



|--------------------|---------------------------------------|
|--------------------|---------------------------------------|
|--------------------|---------------------------------------|
|--5-----------------|-(5)-----------------------------------|
|--5-----------------|-(5)-----------------------------------|
|--3-----------------|-(3)-----------------------------------|
|
|
|
|-15p2h3-17p2h3-19p2-|-14p2h3p2-15p2h3p2-15p3-14p3-12p3-14p3-|
|--------------------|---------------------------------------|
|--------------------|---------------------------------------|
|--------------------|---------------------------------------|
|--------------------|---------------------------------------|
|--------------------|---------------------------------------|



Gtrs I, II
    PM------------|     PM------------|
|-------------------|-------------------||
|-------------------|-------------------||
|-7-----------------|-7-----------------||
|-7-7-7-7-7-7-7-7-7-|-7-7-7-7-7-7-7-7-7-||
|-5-5-5-5-5-5-5-5-5-|-6-6-6-6-6-6-6-6-6-||
|-------------------|-------------------||



Out-Chorus

Gtr I
||----------------------------|---------------------------|
||o---------------------------|---------------------------|
||----------------------------|---------------------------|
||---2-2-2---2----2-2-2---2---|--2--2-2---2----2--2--2--2-|
||o--2-2-2---2----2-2-2---2---|--2--2-2---2----2--2--2--2-|
||---0-0-0---0----0-0-0---0---|--0--0-0---0----0--0--0--0-|
|
| Gtr II
|       PM PM PM     PM PM PM        PM PM PM 
||----------------------------|---------------------------|
||o---------------------------|---------------------------|
||----------------------------|---------------------------|
||----------------------------|---------------------------|
||o-10-7---------12-9---------|-14-10---------15-14-12-10-|
||-------0-0---0------0-0---0-|-------0-0---0-------------|



|---------------------------|-----------------------------|
|---------------------------|-----------------------------|
|---------------------------|-----------------------------|
|--2-2-2---2----2-2-2---2---|--2--2-2---2----2--2--2--2---|
|--2-2-2---2----2-2-2---2---|--2--2-2---2----2--2--2--2---|
|--0-0-0---0----0-0-0---0---|--0--0-0---0----0--0--0--0---|
|
|
|     PM PM PM     PM PM PM        PM PM PM
|---------------------------|-----------------------------|
|---------------------------|-----------------------------|
|---------------------------|-----------------------------|
|---------------------------|-----------------------------|
|-10-7---------12-9---------|-14-10---------15-14-12-10---|
|------0-0---0------0-0---0-|-------0-0---0---------------|




|------------------------------------|-------------------------------|
|------------------------------------|-------------------------------|
|--5-5--5-------5---5---5--5-------5-|---5---5--5-------5---5--5-5-5-|
|--5-5--5-------5---5---5--5-------5-|---5---5--5-------5---5--5-5-5-|
|--3-3--3-------3---3---3--3-------3-|---3---3--3-------3---3--3-3-3-|
|------------------------------------|-------------------------------|
|
| 
|------------------------------------|-------------------------------|
|------------------------------------|-------------------------------|
|-12-9-12-(12)s14-(14)-12-14-(14)s16-|-(16)-14-16-(16)s17-(17)-------|
|------------------------------------|-------------------------------|
|------------------------------------|-------------------------------|
|------------------------------------|-------------------------------|



|------------------------------------|--------------------------------||
|------------------------------------|-------------------------------o||
|--5-5--5-------5---5---5--5-------5-|---5---5--5-------5---5--5-5-5--||
|--5-5--5-------5---5---5--5-------5-|---5---5--5-------5---5--5-5-5--||
|--3-3--3-------3---3---3--3-------3-|---3---3--3-------3---3--3-3-3-o||
|------------------------------------|--------------------------------||
|
| 
|------------------------------------|--------------------------------||
|------------------------------------|-------------------------------o||
|-12-9-12-(12)s14-(14)-12-14-(14)s16-|-(16)-14-16-(16)s19-(19)--------||
|------------------------------------|--------------------------------||
|------------------------------------|-------------------------------o||
|------------------------------------|--------------------------------||



Gtrs I, II

 PMPMPM   PMPMPM     PMPMPM    PMPMPM    PMPMPM           PMPMPM   PMPMPM
|-------------------|-------------------|----------------|---------------------|
|-------------------|-------------------|----------------|---------------------|
|-------------------|-------------------|----------------|---------------------|
|-------2--------2--|-------2--------0--|-------2--2--2--|-------2--------0----|
|-2-2-2-2--2-2-2-2--|-2-2-2-2--2-2-2-0--|-2-2-2-2--2--2--|-2-2-2-2--2-2-2-0----|
|-0-0-0-0--0-0-0-0--|-0-0-0-0--0-0-0-0--|-0-0-0-0--0--0--|-0-0-0-0--0-0-0-0----|



Gtr I
|-------------------------|-------------------------|
|-------------------------|-------------------------|
|--5--5--5--5--5--5--5--5-|--5--5--5--5--5--5--5--5-|
|--5--5--5--5--5--5--5--5-|--5--5--5--5--5--5--5--5-|
|--3--3--3--3--3--3--3--3-|--3--3--3--3--3--3--3--3-|
|-------------------------|-------------------------|
|
|
| Gtr II
|-------------------------|-------------------------|
|-------------------------|-------------------------|
|-16-16-16-16-16-16-16-16-|-14-14-14-14-14-14-14-14-|
|-------------------------|-------------------------|
|-------------------------|-------------------------|
|-------------------------|-------------------------|




|-------------------------|-------------------------|
|-------------------------|-------------------------|
|--5--5--5--5--5--5--5--5-|--5--5--5--5--5--5--5--5-|
|--5--5--5--5--5--5--5--5-|--5--5--5--5--0--0--0--0-|
|--3--3--3--3--3--3--3--3-|--3--3--3--3--3--3--3--3-|
|-------------------------|-------------------------|
|
|
|-------------------------|-------------------------|
|-------------------------|-------------------------|
|-14-16-16-16-16-16-16-16-|-14-14-14-14-14-14-14-14-|
|-------------------------|-------------------------|
|-------------------------|-------------------------|
|-------------------------|-------------------------|



Gtrs I, II
|---------|-----------||
|---------|-----------||
|---------|-----------||
|---------|------2----||
|---------|------2----||
|---------|------0----||




Outro

Gtr I
||---------------------------------------|
||o--------------------------------------|
||--9p0-11p0-12p0-9p0-11p0-12p0-9p0-11p0-|
||---------------------------------------|
||o--------------------------------------|
||---------------------------------------|
|
|
| Gtr II
||---------------------------------------|
||o--------------------------------------|
||---------------------------------------|
||--5p0--7p0--9p0-5p0--7p0--9p0-5p0--7p0-|
||o--------------------------------------|
||---------------------------------------|


|--------------------------------------|
|--------------------------------------|
|-12p0-9p0-11p0-12p0-9p0-11p0-12p0-9p0-|
|--------------------------------------|
|--------------------------------------|
|--------------------------------------|
|
|
|--------------------------------------|
|--------------------------------------|
|--------------------------------------|
|--9p0-5p0--7p0--9p0-5p0--7p0--9p0-5p0-|
|--------------------------------------|
|--------------------------------------|



|----------------------------------------||
|---------------------------------------o||
|-11p0-12p0-9p0-11p0-12p0-9p0-11p0-12p0--||
|----------------------------------------||
|---------------------------------------o||
|----------------------------------------||
|
| 
|----------------------------------------||
|---------------------------------------o||
|----------------------------------------||
|--7p0--9p0-5p0--7p0--9p0-5p0--7p0--9p0--||
|---------------------------------------o||
|----------------------------------------||



|---------------------------------------*|
|---------------------------------------*|
|-9p0-11p0-12p0-9p0-11p0-12p0-[9]\------*|
|---------------------------------------*|
|---------------------------------------*|
|---------------------------------------*|
|
| 
|---------------------------------------*|
|---------------------------------------*|
|---------------------------------------*|
|-5p0--7p0--9p0-5p0--7p0--9p0--5\-------*|
|---------------------------------------*|
|---------------------------------------*|






Tablature Legend
----------------
h - hammer-on
p - pull-off
b - bend
pb - pre-bend
r - bend release (if no number after the r, then release immediately)
/\ - slide into or out of (from/to "nowhere")
s - legato slide
S - shift slide
 - natural harmonic
[n] - artificial harmonic
n(n) - tapped harmonic
~ - vibrato
tr - trill
T - tap
TP - trem. picking
PM - palm muting
\n/ - tremolo bar dip; n = amount to dip
\n - tremolo bar down
n/ - tremolo bar up
/n\ - tremolo bar inverted dip
= - hold bend; also acts as connecting device for hammers/pulls
<> - volume swell (louder/softer)
x - on rhythm slash represents muted slash
o - on rhythm slash represents single note slash

Misc Legend
-----------
| - bar
|| - double bar
||o - repeat start
o|| - repeat end
*| - double bar (ending)
: - bar (freetime)
$ - Segno
& - Coda
Tempo markers -  = BPM(8/16=s8/s16), where s8 = swing 8ths, s16 = swing 16ths
comments
print report bad tab
13 comments total. Showing first comments.
-2 reply
dimebag7 wrote on November 25 2006, 10:13 am

this might be totally wrong

0 reply
Protestfan wrote on November 25 2006, 02:16 pm

Hoorayyyy, another blindfolds aside tab just what we needed

0 reply
x/taluha wrote on November 27 2006, 08:17 pm

gahhahah all you can die if you think its wrong
ok

I want to post or [tab]
guest
You may want to rate the tab now too:
select rating
Please do not post tabs as comments. Select "correction" instead!