Oops, an error
Loading. Please wait.

Bloodmeat Bass Tab

ver2
ver2

Whole song

More versions @911Tabs.com
14,017 views 24 this week
no commentswrite comment
1 2 3 4 5
excellent!
x 3
Autoscroll
+/-
esc
set tempo
stop
WARNING: You are trying to view
                                    content from Ultimate-Guitar.com
                                    in an unauthorized application,
                                    which is prohibited.

                                    Please use an official Ultimate
                                    Guitar Tabs application for iPhone,
                                    iPad or Android to access legitimate
                                    chords, guitar, bass, and drum tabs
                                    from Ultimate-Guitar.com database.

                                    Type "ultimate guitar tabs" in Apple
                                    App Store's or Android Market's
                                    search to find the application.
Arif Mirabdolbaghi

For all of you without Guitar Pro. Tabbed by Tom Delonge II.

      S S S S S S S S S S S S S S S    S S S S S S S S S S S S S S S S  
F#||--------------------------------|----------------------------------|
C#||--------------------------------|----------------------------------|
G#||--------------------------------|----------------------------------|
D#||--0---0---0-0---0---0---0---0-0-|--0---0---0-0---0---0---0---0-0-0-|
A#||--------------------------------|----------------------------------|


  S S S S S S S S S S S S S S S    S S S S S S S S S S S S S S S S  
--------------------------------|----------------------------------|
--------------------------------|----------------------------------|
--------------------------------|----------------------------------|
--0---0---0-0---0---0---0---0-0-|--0---0---0-0---0---0---0---0-0-0-|
--------------------------------|----------------------------------|


  S S S S S S S S S S S S E  S S    S S S S S S S S S S S S E    
---------------------------------|------------------------------|
---------------------------------|------------------------------|
---------------------------------|------------------------------|
--0-0-3---3-2-0---6-3-0---2--0-0-|--L-0-3---3-2-0---6-3-0---2/--|
---------------------------------|------------------------------|


  S S S S S S S S S S S S S S S    S S S S S S S S S S S S S S S S  
--------------------------------|----------------------------------|
--------------------------------|----------------------------------|
--------------------------------|----------------------------------|
--0---0---0-0---0---0---0---0-0-|--0---0---0-0---0---0---0---0-0-0-|
--------------------------------|----------------------------------|


  S S S S S S S S S S S S S S S S    S S S S S S S S S S S S S S S S  
----------------------------------|----------------------------------|
----------------------------------|----------------------------------|
----------------------------------|----------------------------------|
--0-0-3---3-2-0---6-3-0---2-0-2-0-|--L-0-3---3-2-0---6-3-0---9-6-0-0-|
----------------------------------|----------------------------------|


  S S S S S S S S S S S S S S S S    S S S S S S S S S S S S S S S S  
----------------------------------|----------------------------------|
----------------------------------|----------------------------------|
----------------------------------|----------------------------------|
--L-0-3---3-2-0---6-3-0---2-0-2-0-|--L-0-3---3-2-0---6-3-0---9-6-0-0-|
----------------------------------|----------------------------------|


  S S S H        Q    S    S S S H        S S E  S  
------------------------|--------------------------|
------------------------|--------------------------|
------------------------|--------------------------|
--L---------------------|--------------------------|
----3-5---------------5-|--L-3-5------------5----5-|


  S S S S S S S E  S S E  S S S    S S S S S S S E  S S E  S S S  
--------------------------------|--------------------------------|
--------------------------------|--------------------------------|
--------------------------------|--------------------------------|
----------3-5---5--6---5--6-7---|----------3-5---5--6---7--6-3---|
--L-3-5-----------------------5-|--L-3-5-----------------------5-|


  S S S S S S S E  S S E  S S S    S S S S S S S E  S S E  S S S  
--------------------------------|--------------------------------|
--------------------------------|--------------------------------|
--------------------------------|--------------------------------|
----------3-5---5--6---5--6-7---|----------3-5---5--6---7--6-5-3-|
--L-3-5-----------------------5-|--L-3-5-------------------------|


  S S S S S S S E  S S S S S S S    S S S S S S S E  S S E  S S S  
---------------------------------|--------------------------------|
---------------------------------|--------------------------------|
---------------------------------|--------------------------------|
--L-------------3----------------|----------3-5---5--6---5--6-7---|
----5-5---5-5------5-5---5-5---5-|--L-3-5-----------------------5-|


  S S S S S S S E  S S E  S S S    S S S S S S S E  S S E  S S S  
--------------------------------|--------------------------------|
--------------------------------|--------------------------------|
--------------------------------|--------------------------------|
----------3-5---5--6---7--6-3---|----------3-5---5--6---5--6-7---|
--L-3-5-----------------------5-|--L-3-5-----------------------5-|


  S S S S S S S E  S S E  S S S    S S S S S S S S S E.  S S S S  
--------------------------------|--------------------------------|
--------------------------------|--------------------------------|
--------------------------------|--------------------------------|
----------3-5---5--6---7--6-5-3-|--L-0-0---0-0---0-0-3-----------|
--L-3-5-------------------------|------------------------5-4-5---|


  E  E  E  E  E  E    E  S S    Q.     Q    S S E  E   
-----------------------------|------------------------|
-----------------------------|------------------------|
--------7--8--9------10------|------------------------|
-------------------------0-0-|--0------0----0-0-1-----|
-----5-----------5/----------|------------------------|


   S   S  E  E   E   S   S  E   S   S  E     E  E  E  Q    S S S S S S  
---------12-----14---------12--15p-12-----|----------------------------|
--12h-14-----0------12h-14------------14--|----------------------------|
------------------------------------------|----------------------------|
------------------------------------------|--0--0--0--0----0-0-1-1-1-1-|
------------------------------------------|----------------------------|


  E  E  E  Q    S S S S S S    E  E  E  Q    S S S S S S  
----------------------------|----------------------------|
----------------------------|----------------------------|
----------------------------|----------------------------|
--0--0--0--0----0-0-1-1-1-1-|--0--0--0--0----0-0-1-1-1-1-|
----------------------------|----------------------------|


  E  E  E  Q    S S Q        E  E  S S S E  S E  S S S S  
--------------------------|------------------------------|
--------------------------|------------------------------|
--------------------------|------------------------------|
--0--0--0--0----0-0-1/----|--5--5--5-5-5-5--5-5--5-5-5-5-|
--------------------------|------------------------------|


  E  E  S S S E  S E  S S E       E   E   S  S  S  E   S  E   S  S  S  S  
------------------------------|------------------------------------------|
------------------------------|------------------------------------------|
------------------------------|------------------------------------------|
--5--5--5-5-5-5--5-5--5-5-8/--|--12--12--12-12-12-12--12-12--12-12-12-12-|
------------------------------|------------------------------------------|


   E   E   S  S  S  E   S  E   S  S  S  S  
------------------------------------------|
------------------------------------------|
------------------------------------------|
--12--12--12-12-12-12--12-12--12-12-12-12-|
------------------------------------------|


   E   E   S  S  S  E   S  E   S  S  S  S  
------------------------------------------|
------------------------------------------|
------------------------------------------|
--13--13--13-13-13-13--13-13--13-13-13-13-|
------------------------------------------|


   E   E   S  S  S  E   S  E   S  S S S    E  E  E  E  E  E  E  E   
----------------------------------------|--------------------------|
----------------------------------------|--------------------------|
----------------------------------------|--3--3--3--3--3--3--3-----|
--13--13--13-13-13-13--13-13--13-13-0-0-|-----------------------0--|
----------------------------------------|--------------------------|


                             S S   S P   S S   S S   S     
  E  E  E  E  E  E  E  E     S S S S S S S S S S S S Q     
--------------------------|-------------------------------|
--------------------------|----------7--------------------|
--------------------------|-------------------------------|
--3--3--3--3--3--3--3--0--|--5-5---x-----5-5---5-5---6----|
--------------------------|-------------------------------|


  S S   S P   S S   S S   S  S     S S   S P   S S   S S   S     
  S S S S S S S S S S S S E  E     S S S S S S S S S S S S Q     
--------------------------------|-------------------------------|
----------7---------------------|----------7--------------------|
--------------------------------|-------------------------------|
--5-5---5-----5-5---5-5---3--3--|--5-5---x-----5-5---5-5---6----|
--------------------------------|-------------------------------|


  S S   S P   S S   S S   S  S                                               
  S S S S S S S S S S S S E  E     S H        Q    E  S    W                 
--------------------------------|-----------------------|-------------------|
----------7---------------------|-----------------------|-------------------|
--------------------------------|-----------------------|-------------------|
--5-5---5-----5-5---5-5---3--3--|--0--------------------|-------------------|
--------------------------------|-----------------------|-------------------|


  E  S S S E  S S S S S S S S    E  S S S E  S S S S S S S S S  
------------------------------|--------------------------------|
------------------------------|--------------------------------|
------------------------------|--------------------------------|
-----0---0------0---0---0-0-0-|-----0---0------0---0---0-0-0-0-|
------------------------------|--------------------------------|


  E  S S S E  S S S S S S S S    E  S S S E  S S S S S S S S S  
------------------------------|--------------------------------|
------------------------------|--------------------------------|
------------------------------|--------------------------------|
-----0---0------0---0---0-0-0-|-----0---0------0---0---0-0-0-0-|
------------------------------|--------------------------------|


  S S S S S S S S S S S S S S S S    E  S S S E  S S S S S S S S  
----------------------------------|------------------------------|
----------------------------------|------------------------------|
----------------------------------|------------------------------|
--0---0---0-0---0---0---0---0-0-0-|-----0---0------0---0---0-0-0-|
----------------------------------|------------------------------|


  E  S S S E  S S S S S S S S S    E  S S S E  S S S S S S S S  
--------------------------------|------------------------------|
--------------------------------|------------------------------|
--------------------------------|------------------------------|
-----0---0------0---0---0-0-0-0-|-----0---0------0---0---0-0-0-|
--------------------------------|------------------------------|


  E  S S S E  S S S S S S S S S    S S S S S S S S S S S S S S S  
--------------------------------|--------------------------------|
--------------------------------|--------------------------------|
--------------------------------|--------------------------------|
-----0---0------0---0---0-0-0-0-|--0---0---0-0---0---0---0---0-0-|
--------------------------------|--------------------------------|


  S S S S S S S S S S S S S S S S    S S S S S S S S S S S S S S S S  
----------------------------------|----------------------------------|
----------------------------------|----------------------------------|
----------------------------------|----------------------------------|
--0---0---0-0---0---0---0---0-0-0-|--0-0-3---3-2-0---6-3-0---2-0-2-0-|
----------------------------------|----------------------------------|


  S S S S S S S S S S S S S S S S    S S S S S S S S S S S S S S S S  
----------------------------------|----------------------------------|
----------------------------------|----------------------------------|
----------------------------------|----------------------------------|
--L-0-3---3-2-0---6-3-0---9-6-0-0-|--L-0-3---3-2-0---6-3-0---2-0-2-0-|
----------------------------------|----------------------------------|


  S S S S S S S S S S S S S S S S    Q    E  S E  Q    E  S  
----------------------------------|-------------------------|
----------------------------------|-------------------------|
----------------------------------|-------------------------|
--L-0-3---3-2-0---6-3-0---9-6-0---|------------5------------|
----------------------------------|-----------------------5-|


  S S S S S S S E  S S E  S S S    S S S S S S S E  S S E  S S S  
--------------------------------|--------------------------------|
--------------------------------|--------------------------------|
--------------------------------|--------------------------------|
----------3-5---5--6---5--6-7---|----------3-5---5--6---7--6-3---|
--L-3-5-----------------------5-|--L-3-5-----------------------5-|


  S S S S S S S E  S S E  S S S    S S S S S S S E  S S E  S E   
--------------------------------|-------------------------------|
--------------------------------|-------------------------------|
--------------------------------|-------------------------------|
----------3-5---5--6---5--6-7---|----------3-5---5--6---7--6-5--|
--L-3-5-----------------------5-|--L-3-5------------------------|


  E  E  S S S S E  E  E  E     E  E  S S S S H         
----------------------------|-------------------------|
----------------------------|-------------------------|
----------------------------|-------------------------|
-----4-------------4-----4--|-----4-------------------|
--3-------3---3-3-----3-----|--3-------3---x-1--------|


  E  E  S S S S E  E  E  E   
----------------------------|
----------------------------|
----------------------------|
-----4-------------4-----4--|
--3-------3---3-3-----3-----|


  E  E  S E  S     H         T   T   T   T   T   T  T  T  T  T  T  T  T  T  T  T
--------------------------------------------------------------------------------
--------------------------------------------------------------------------------
--------------------------------------------------------------------------------
-----4---------10g15---------Ls-14s-13s-12s-11s-10s-9s-8s-7s-6s-5s-4s-3s-2s-1s-0
--3-------3--x------------------------------------------------------------------


  E  E  S S S S E  E  E  E     E  E  S S S S H         
----------------------------|-------------------------|
----------------------------|-------------------------|
----------------------------|-------------------------|
-----4-------------4-----4--|-----4-------------------|
--3-------3---3-3-----3-----|--3-------3---x-1--------|


  E  E  S S S S E  E  E  E   
----------------------------|
----------------------------|
----------------------------|
-----4-------------4-----4--|
--3-------3---3-3-----3-----|


  E  E  S E  S     H         T   T   T   T   T   T   T   T   T   T   T   T  T  T
--------------------------------------------------------------------------------
--------------------------------------------------------------------------------
--------------------------------------------------------------------------------
-----4---------10g15---------Ls-15s-14s-14s-13s-13s-12s-12s-11s-11s-10s-10s-9s-9
--3-----x-3--x------------------------------------------------------------------


  T  T  T  T  T  T  T  T  T  T  T  T  T  T  T  T Q     
------------------------------------------------------|
------------------------------------------------------|
------------------------------------------------------|
--7s-7s-6s-6s-5s-5s-4s-4s-3s-3s-2s-2s-1s-1s-0s-0------|
------------------------------------------------------|


                                    T  T          T          T  T       
                             |---3--|  |---3--|   |---3---|  |---3--|   
  E  E  E  E  E  E  E  E     E  E   E  E  E   E   E   E   E  E  E   E   
--------------------------|---------------5h--7h--9p--7p--5------------|
--------------------------|------------7---------------------7---------|
--------------------------|-----3h--7---------------------------7p--3--|
--5--5--5--5--5--5--5--5--|--5-----------------------------------------|
--------------------------|--------------------------------------------|


         T  T          T          T  T       
  |---3--|  |---3--|   |---3---|  |---3--|   
  E  E   E  E  E   E   E   E   E  E  E   E   
---------------5h--7h--9p--7p--5------------|
------------7---------------------7---------|
-----3h--7---------------------------7p--3--|
--5-----------------------------------------|
--------------------------------------------|


         T  T          T          T  T       
  |---3--|  |---3--|   |---3---|  |---3--|   
  E  E   E  E  E   E   E   E   E  E  E   E   
--------------------------------------------|
---------------5h--7h--9p--7p--5------------|
------------7---------------------7---------|
-----3h--7---------------------------7p--3--|
--5-----------------------------------------|


         T  T          T          T  T       
  |---3--|  |---3--|   |---3---|  |---3--|   
  E  E   E  E  E   E   E   E   E  E  E   E   
--------------------------------------------|
---------------5h--7h--9p--7p--5------------|
------------7---------------------7---------|
-----3h--7---------------------------7p--3--|
--5-----------------------------------------|


         T  T           T          T  T       
  |---3--|  |---3--|    |---3---|  |---3--|   
  E  E   E  E  E   E    E   E   E  E  E   E   
---------------------------------------------|
---------------7h--9h--10p--9p--7------------|
------------8----------------------8---------|
-----5h--8----------------------------8p--5--|
--6------------------------------------------|


         T  T           T          T  T       
  |---3--|  |---3--|    |---3---|  |---3--|   
  E  E   E  E  E   E    E   E   E  E  E   E   
---------------------------------------------|
---------------7h--9h--10p--9p--7------------|
------------8----------------------8---------|
-----5h--8----------------------------8p--5--|
--6------------------------------------------|


            T            T            T            T   
  |----3----|  |----3----|  |----3----|  |----3----|   
  E    E    E  E    E    E  E    E    E  E    E    E   
-----------------------------------------9h--10h--12--|
----------------------------9h--10h--12---------------|
---------------8h--10h--12----------------------------|
--8h--10h--12-----------------------------------------|
------------------------------------------------------|


           T           T           T           T   
  |----3---|  |----3---|  |----3---|  |----3---|   
  E   E    E  E   E    E  E   E    E  E   E    E   
--------------------------------------7h--9h--10--|
--------------------------7h--9h--10--------------|
--------------7h--8h--10--------------------------|
--7h--8h--10--------------------------------------|
--------------------------------------------------|


         T  T          T          T  T       
  |---3--|  |---3--|   |---3---|  |---3--|   
  E  E   E  E  E   E   E   E   E  E  E   E   
---------------5h--7h--9p--7p--5------------|
------------7---------------------7---------|
-----3h--7---------------------------7p--3--|
--5-----------------------------------------|
--------------------------------------------|


         T  T          T          T  T       
  |---3--|  |---3--|   |---3---|  |---3--|   
  E  E   E  E  E   E   E   E   E  E  E   E   
---------------5h--7h--9p--7p--5------------|
------------7---------------------7---------|
-----3h--7---------------------------7p--3--|
--5-----------------------------------------|
--------------------------------------------|


         T  T          T          T  T       
  |---3--|  |---3--|   |---3---|  |---3--|   
  E  E   E  E  E   E   E   E   E  E  E   E   
--------------------------------------------|
---------------5h--7h--9p--7p--5------------|
------------7---------------------7---------|
-----3h--7---------------------------7p--3--|
--5-----------------------------------------|


         T  T          T          T  T       
  |---3--|  |---3--|   |---3---|  |---3--|   
  E  E   E  E  E   E   E   E   E  E  E   E   
--------------------------------------------|
---------------5h--7h--9p--7p--5------------|
------------7---------------------7---------|
-----3h--7---------------------------7p--3--|
--5-----------------------------------------|


         T  T           T          T  T       
  |---3--|  |---3--|    |---3---|  |---3--|   
  E  E   E  E  E   E    E   E   E  E  E   E   
---------------------------------------------|
---------------7h--9h--10p--9p--7------------|
------------8----------------------8---------|
-----5h--8----------------------------8p--5--|
--6------------------------------------------|


         T  T           T          T  T       
  |---3--|  |---3--|    |---3---|  |---3--|   
  E  E   E  E  E   E    E   E   E  E  E   E   
---------------------------------------------|
---------------7h--9h--10p--9p--7------------|
------------8----------------------8---------|
-----5h--8----------------------------8p--5--|
--6------------------------------------------|


                            *Use Fingers starting now.                          
          T          T                                                          
  |---3---|                                                            |---3---|
  E  E    E   S  S   S   S  S                          S  S   S  S   S S   S   S
-----------------------------------------------------------------------9h-10h-12
---------------------------10h------------------------12--------10h-12----------
-----7h--10p--7h-8h-10s-12-------------------------------10h-12-----------------
--8-----------------------------------------------------------------------------
--------------------------------------------------------------------------------


  S  S  S S  S S  S  S S  S  S S  S S  S  S     E  E  S E  S E  S E  S S  S  
--9-----------------------------------------|-------------------------------|
----12-10-9-10-9-------9--------------------|-------------------------------|
-----------------12-11---12-11-9-11-9-------|--------------------------5h-7-|
--------------------------------------12-10-|--12--1----1----1----1---------|
--------------------------------------------|-------------------------------|


  E  E  S E  S E  S E  S S  S    E  E  S E  S E  S E  S S  S  
------------------------------|------------------------------|
------------------------------|------------------------------|
-------------------------5h-7-|-------------------------5h-7-|
-----5----5----5----5---------|-----3----3----3----3---------|
------------------------------|------------------------------|


  E  E  S E  S E  S E  S S  S    E  H        Q    E     W                 
------------------------------|----------------------|-------------------|
------------------------------|----------------------|-------------------|
-------------------------5h-7-|----------------------|-------------------|
-----3----3----3----3---------|--5-------------------|-------------------|
------------------------------|----------------------|-------------------|


  E  E  E  E  E  E  E  E     E  E  E  E  E  E  E  E   
--------------------------|--------------------------|
--------------------------|--------------------------|
--------------------------|--3--3--3--3--3--3--3--2--|
--1--1--1--1--1--1--1--1--|--------------------------|
--------------------------|--------------------------|


  E  E  E  E  E  E  E  E     E  E  E  E  E  E  E  E   
--------------------------|--------------------------|
--------------------------|--------------------------|
--------------------------|--------------------------|
--3--3--3--3--3--3--3--3--|--3--3--3--3--3--3--3--3--|
--------------------------|--------------------------|


  E  E  E  E  E  E  E  E     E  E  E  E  E  E  E  E   
--------------------------|--------------------------|
--------------------------|--------------------------|
--------------------------|--3--3--3--3--3--3--3--2--|
--1--1--1--1--1--1--1--1--|--------------------------|
--------------------------|--------------------------|


  E  E  E  E  E  E  E  E     E  E  E  E  E  E  E  E   
--------------------------|--------------------------|
--------------------------|--------------------------|
--------------------------|--------------------------|
--3--3--3--3--3--3--3--3--|--3--3--3--3--3--3--3--3--|
--------------------------|--------------------------|


  E  E  E  E  E  E  E  E     E  E     E  E   E  E   E  E   
--------------------------|-------------------------------|
--------------------------|--------------9--10--9---------|
-----------7--8--7--------|-----7--9g10------------10--7--|
-----5--8-----------8--5--|--8----------------------------|
--6-----------------------|-------------------------------|


  E  E  E  E  E  E  E  E     E  E  E  E  E  E  E  E   
--------------------------|--------------------------|
--------------------------|--------------------------|
--------------------------|--------------------------|
--------------------------|--------------------------|
--8--8--8--8--8--8--8--8--|--8--8--8--8--8--8--8--8--|


  E  E  E  E  E  E  E  E     E  E   E  E   E  E   E  E   
--------------------------|-----------------------------|
--------------------------|------------9--10--9---------|
-----------7--8--7--------|-----7--10------------10--7--|
-----5--8-----------8--5--|--8--------------------------|
--6-----------------------|-----------------------------|


  E  E  E  E  E  E  E  E     E  E  E  E  E  E  E  E   
--------------------------|--------------------------|
--------------------------|--------------------------|
--------------------------|--------------------------|
--------------------------|--------------------------|
--8--8--8--8--8--8--8--8--|--8--8--8--8--8--8--8--8--|


  S S S S S S S S S S S S S S S    S S S S S S S S S S S S S S S S  
--------------------------------|----------------------------------|
--------------------------------|----------------------------------|
--------------------------------|----------------------------------|
--0---0---0-0---0---0---0---0-0-|--0---0---0-0---0---0---0---0-0-0-|
--------------------------------|----------------------------------|


   S   S   S   S   S   S   S   S  S  S  S  S  T  T  T  T E   
------------------------------------------------------------|
------------------------------------------------------------|
------------------------------------------------------------|
---------------------------------------------------------0--|
--17s-16s-15s-14s-13s-12s-11s-10s-9s-8s-7s-6s-5s-4s-3s-2----|


  E  E  E  E  E  E  E  E     E  E  E  Q    E  E  E     E  E  E  E  E  E  E  E   
--------------------------|-------------------------|--------------------------|
--------------------------|-------------------------|--------------------------|
-----5--7-----------------|-------------------------|-----5--7-----------------|
--L--------0--3--5--0--5--|--L--6--0--5----6--7--0--|--L--------0--3--5--0--5--|
--------------------------|-------------------------|--------------------------|


  E  E  E  Q    E  E  E     E  E  E  E  E  E  E  E     E  E  E  Q    E  E  E   
-------------------------|--------------------------|-------------------------|
-------------------------|--------------------------|-------------------------|
-------------------------|--------------------------|-------------------------|
--L--6--0--7----6--3--0--|--L-----------3--5--0--5--|--L--6--0--5----6--7--0--|
-------------------------|-----3--5--0--------------|-------------------------|


  E  E  E  E  E  E  E  E     E  E  E  Q    E  E  E     W                 
--------------------------|-------------------------|-------------------|
--------------------------|-------------------------|-------------------|
--------------------------|-------------------------|-------------------|
--L-----------3--5--0--5--|--L--6--7--7----5--3--0--|--L----------------|
-----3--5--0--------------|-------------------------|-------------------|


  W                   W                  
-------------------|-------------------||
-------------------|-------------------||
-------------------|-------------------||
--L----------------|--L----------------||
-------------------|-------------------||




Duration Legend
---------------
W - whole
H - half
Q - quarter
E - 8th
S - 16th
T - 32nd
X - 64th
. - note dotted
|-n-|  - n-tuplets


Tablature Legend
----------------
L - tied note
x - dead note
g - grace note
(n) - ghost note
> - accentuded note
NH - natural harmonic
AH - artificial harmonic
TH - tapped harmonic
SH - semi harmonic
PH - pitch harmonic
h - hammer on
p - pull off
b - bend
br - bendRelease
pb - preBend
pbr - preBendRelease
brb - bendReleaseBend
\n/ - tremolo bar dip
\n - tremolo bar dive
-/n - tremolo bar Release up
/n\ - tremolo bar inverted dip
/n - tremolo bar return
-\n - tremolo bar Release down
S - shift slide
s - legato slide
/ -  slide into from below or out of upwards
\ -  slide into from above or out of downwards
~ - vibrato
W - wide vibrato
tr - trill
TP - tremolo picking
T - tapping
S - slap
P - pop
< - fade in
^ - brush up
v - brush down
comments
We did not receive enough feedback on this tab! Please rate:
1 2 3 4 5
I want to post or [tab]
guest
You may want to rate the tab now too:
select rating
Please do not post tabs as comments. Select "correction" instead!