Oops, an error
Loading. Please wait.

Bloodmeat Tab

ver3
ver3

Solo

Whole song

More versions @911Tabs.com
9,459 views 1 this week
4 commentsread comments
1 2 3 4 5
accurate
x 5
Autoscroll
+/-
esc
set tempo
stop
WARNING: You are trying to view
                                    content from Ultimate-Guitar.com
                                    in an unauthorized application,
                                    which is prohibited.

                                    Please use an official Ultimate
                                    Guitar Tabs application for iPhone,
                                    iPad or Android to access legitimate
                                    chords, guitar, bass, and drum tabs
                                    from Ultimate-Guitar.com database.

                                    Type "ultimate guitar tabs" in Apple
                                    App Store's or Android Market's
                                    search to find the application.
I TABBED THIS OUT FROM WATCHING THE HOW-TO-PLAY-BLOODMEAT-VIDEO SO THIS IS THE RIGHT ONE.

except for one little tiny part that i filled in with question marks but
it's not too bad






luke and tim intro
D#||---------------------|----|-----------|
A#||---------------------|----|-----------|
F#||-15-15-1515-15-15-15-|1515|151515-----|
C#||-14-14-1414-14-14-14-|1414|141414-----|
G#||-12-12-1212-12-12-12-|1212|121212-----|
D#||---------------------|----|-----------|
---------------------------------------------------------------------
luke intro pt. 2
D#||--------------------------|--------|------------|
A#||--------------------------|--------|------------|
F#||--------------------------|--------|------------|
C#||--------------------------|--------|------------|
G#||-----10---10p9----10tr13--|-7tr10--|13tr16------|
D#||-0-0----0------12-------11|------8-|------14----|
       .    .                                             
tim   
D#||---------------------------|---------|--------------|
A#||---------------------------|---------|--------------|
F#||---------------------------|---------|--------------|
C#||---------------------------|---------|--------------|
G#||-----14---14p12----13tr16--|-10tr13--|16tr19--------|
D#||-0-0----0-------15-------14|-------11|------17------| 
       .    .                                               
-------------------------------------------------------------------
luke main riff
D#||---------------|--------------|--------------|----------------|
A#||---------------|--------------|--------------|---------(x2)---|
F#||---------------|--------------|--------------|----------------|
C#||---------------|--------------|--------------|5---------------|
G#||---5-7---------|--------------|--------------|5-222-222-------|
D#||-0-----0-3-5-0-|5--6-5-6-5-6-7|-5--6-5-7--6-4|3-000-000-------|
                                                    ... ...            
tim
D#||-----------------------------------------------------------|
A#||-----------------------------------------------------------|
F#||-----------------------------------------------------------|
C#||--------------(same as luke)-------------------------------|
G#||-----------------------------------------------------------|
D#||-----------------------------------------------------------|
-------------------------------------------------------------------

luke chorus part
D#||-----------------------------------------------------------|
A#||-17-17-17171714-1414-141414-17-17-17171714-141419-1917-----|
F#||-----------------------------------------------------------|
C#||-----------------------------------------------------------|
G#||-15-15-15151512-1212-121212-15-15-15151512-121217-1715-----|
D#||-----------------------------------------------------------|

luke cont'd(same strum pattern should work fine)
D#||----------------------|-------------------|------------------|
A#||----------------------|-------------------|------------------|
F#||-16--12--16--12--17-16|14-10--14--10-12-10|-9-----16---------|
C#||----------------------|-------------------|------------------|
G#||-14--10--14--10--15-14|12--8--12---8-10--8|-7-----14---------|
D#||----------------------|-------------------|------------------|

tim chorus part
D#||------------------------------?----------------------------|
A#||----------------------------?-?----------------------------|
F#||----------------------------?-?-----5----------------------|
C#||10-10-101010-9--9--9-9-9-9--?-?-3---5----5-----------------|
G#||-7--7--7-7-7-7--7--7-7-7-7--?-?-3---3----5-----------------|
D#||-5--5--5-5-5-5--5--5-5-5-5--?-?-1--------3-----------------|

--------------------------------------------------------------------
luke riff 2
D#||----------14------------------17---------------------------|
A#||-----14-15--15-14--------14-15--15-14--------14-15---------|
F#||14-15------------15-14-15------------15-14-15--------------|
C#||-----------------------------------------------------------|
G#||-----------------------------------------------------------|
D#||-----------------------------------------------------------|

luke cont'd
D#||18-17-15---------------------------------------------------|
A#||--------18-17-15-------------------------------------------|
F#||----------------18-17-15--15-17----------------------------|
C#||------------------------17---------------------------------|
G#||-----------------------------------------------------------|

tim
D#||------------|-------|-------|
A#||------------|-------|-------|
F#||------------|-------|-------|
C#||-7-(x-x)-77-|77-8888|55-5555|
G#||-7-(x-x)-77-|77-8888|55-5555|
D#||-5-(x-x)-55-|55-6666|33-3333|

---------------------------------------------------------------------
tim tap fill
D#||-----------------------------------------------------------|
A#||-----------------------------------------------------------|
F#||------T17-------T16------T19------T21-------T17/19---------|
C#||---h14-------h12---h12------h12------h12-------------------|
G#||h12-------h10---------h14------h14------h14----------------|
D#||-----------------------------------------------------------|

----------------------------------------------------------------------

luke "ghengis kahn is upon us, he slays his betrayers"
D#||-----------------------|---------------|h8h10T12-------------|
A#||---------------h8h10T12|---------------|--------h8h10T12/13--|
F#||------------T11--------|h9------h8-----|---------------------|
C#||----T12-h7h9-----------|--h10-----h9---|---------------------|
G#||h7h9-------------------|-----T12----T11|---------------------|
D#||-----------------------|---------------|---------------------|

tim
D#||-------------|
A#||-------------|
F#||-------------|
C#||2-2--2-2-2222|
G#||2-2--2-2-2222|
D#||0-0--0-0-0000|

both
D#||-----------------------------------------------------------|
A#||-----------------------------------------------------------|
F#||15-15-1515-15-15-15-151515---------------------------------|
C#||14-14-1414-14-14-14-141414---------------------------------|
G#||12-12-1212-12-12-12-121212---------------------------------|
D#||-----------------------------------------------------------|

-----------------------------------------------------------------------

REPEAT INTRO PT. 2 AND MAIN RIFF

-----------------------------------------------------------------------
luke 2nd verse
D#||-------------------------------------------------------------|
A#||-------------------------------------------------------------|
F#||--------------------------T13p8p7p5h7h8T13p8p7p5h7h8T13p8p7p5|
C#||7-----7---7---7---7-----7------------------------------------|
G#||5-6-x-5-x-5-6-5-6-5-6-x-5------------------------------------|
D#||--4-x---x---4---4---4-x--------------------------------------|

tim
D#||-------------------------------------------------------------|
A#||-------------------------------------------------------------|
F#||-------------------------------------------------------------|
C#||7-----7---7---7---7-----7-T13p8p7p5h7h8T13p8p7p5h7h8T13p8p7p5|
G#||5-6-x-5-x-5-6-5-6-5-6-x-5------------------------------------|
D#||--4-x---x---4---4---4-x--------------------------------------|

luke
D#||-------------------------T14p10p8p7h8h10T14\16/14p10p8p7----------|
A#||--------------------------------------------------------T14p10p8p7|
F#||------------------------------------------------------------------|
C#||7-----7---7---7---7-----7-----------------------------------------|
G#||5-6-x-5-x-5-6-5-6-5-6-x-5-----------------------------------------|
D#||--4-x---x---4---4---4-x-------------------------------------------|

tim
D#||-----------------------------------------------------------|
A#||-----------------------------------------------------------|
F#||-----------------------------------------------------------|
C#||--(same rhythm as before without tap)----------------------|
G#||-----------------------------------------------------------|
D#||-----------------------------------------------------------|

luke cont'd
D#||-----------------------------------------------------------|
A#||-----------------------------------------------------------|
F#||T14p10p8p7-------------------------------------------------|
C#||----------T14p10p8p7---------------------------------------|
G#||--------------------T14p10p8p7-----------------------------|
D#||------------------------------T14p10p8p7-(5)---------------|

-----------------------------------------------------------------------

luke and tim
D#||-----------------------------------------------------------|
A#||-----------------------------------------------------------|
F#||777777777~-------?????????????????????????????-------------|
C#||777777777~-------------------------------------------------|
G#||555555555~-------------------------------------------------|
D#||-----------------------------------------------------------|

------------------------------------------------------------------------

luke
D#||-----------------------------------------------------------|
A#||-----------------------------------------------------------|
F#||--(repeats tim tap fill)-----------------------------------|
C#||-----------------------------------------------------------|
G#||-----------------------------------------------------------|
D#||-----------------------------------------------------------|

tim
D#||-----------------------------------------------------------|
A#||-----------------------------------------------------------|
F#||-----------------------------------------------------------|
C#||3-3-3-3-3-----7-7-7-7-7-----5-5-5-5-5-----5-5-5-5-5--------|
G#||3-3-3-3-3-2h3-7-7-7-7-7-2h3-5-5-5-5-5-2h3-5-5-5-5-5--------|
D#||1-1-1-1-1-----5-5-5-5-5-----3-3-3-3-3-----3-3-3-3-3--------|

-----------------------------------------------------------------------

luke harmony part
D#||-----------------------------------------------------------|
A#||-----------------------------------------------------------|
F#||-----------------------------------------------------------|
C#||---(continues playing the taps)----------------------------|
G#||-----------------------------------------------------------|
D#||-----------------------------------------------------------|

tim
D#||0-0-12-0-0-10-0-0-14-0-0-15-0-0-12-14----------------------|
A#||-----------------------------------------------------------|
F#||-----------------------------------------------------------|
C#||-----------------------------------------------------------|
G#||-----------------------------------------------------------|
D#||-----------------------------------------------------------|

----------------------------------------------------------------------

luke end chorus
D#||---------------------------------------------------------------|
A#||---------------------------------------------------------------|
F#||----------------5-5-5-5-5-5-5-5--------------------------------|
C#||3-3-3-3-3-3-3-3-5-5-5-5-5-5-5-5-5-5-5-5-5-5-5-5-5-5-5-5-5-5-5-5|
G#||3-3-3-3-3-3-3-3-3-3-3-3-3-3-3-3-5-5-5-5-5-5-5-5-5-5-5-5-5-5-5-5|
D#||1-1-1-1-1-1-1-1-----------------3-3-3-3-3-3-3-3-3-3-3-3-3-3-3-3|

tim
D#||-----------------------------------------------------------|
A#||-----------------------------------------------------------|
F#||-----------------------------------------------------------|
C#||-------(same thing)----------------------------------------|
D#||-----------------------------------------------------------|

luke lead
D#||----------------|-------------------|
A#||----------------|-------------------|
F#||------9-10p9----|-------16-17p16----|
C#||----10------10--|-----17--------17--|
G#||8h12----------12|15h19------------19|
D#||----------------|-------------------|

D#||-----------------------------------------------------------|
A#||-----------------------------------------------------------|
F#||------------------------------------14----------------14-15|
C#||---------14----------------14-15-17----17-15-14-15-17------|
G#||14-15-17----17-15-14-15-17---------------------------------|
D#||-----------------------------------------------------------|

D#||------------------------------15-17------------------------|
A#||---15----------------15-17-18------------------------------|
F#||17----17-15-14-15-17---------------------------------------|
C#||-----------------------------------------------------------|
G#||-----------------------------------------------------------|
D#||-----------------------------------------------------------|

----------------------------------------------------------------

INTRO AGAIN! (kinda - some of the intro again)

-----------------------------------------------------------------

both outro
D#||--------------|------------|------------|---------------------|
A#||--------------|------------|------------|---------------------|
F#||--------------|------------|------------|---------------------|
C#||--7-9---------|------------|------------|------------2--------|
G#||2-5-7-2-5-7-x-|7-8-x-7-8-9-|-7-8-x-9-8-6|-7--8-------2--------|
D#||0-----0-3-5-x-|5-6-x-5-6-7-|-5-6-x-7-6-4|-5--6-------0--------|
comments
print report bad tab
4 comments total. Showing first comments.
0 reply
bucketheadShred wrote on July 13 2009, 08:10 am

Good tab.
I play the intro like so but im not sure if Im right:
D#||--------------------------|--------|------------|
A#||--------------------------|--------|------------|
F#||--------------------------|--------|------------|
C#||--------------------------|--------|------------|
G#||-----10---10p9----10tr13--|-7tr10--|13tr16------|
D#||-0-0----0------12-------12|------9-|------15----|
. .

0 reply
Mysterk94 wrote on March 30 2012, 11:54 am

The chorus is played on the G# and F# strings, not G# and A#.

0 reply
Mysterk94 wrote on March 31 2012, 01:40 pm

-Intro Pt. 2-
Luke:
Ab|----10--10p-9----10h13p10------7h10p-7---------10--10h-9----10h13p10----13h16p13-|
Eb|-0-0---0-----12----------12-------------9-0---0---0-----12----------12-----------|

Tim:
Ab|----14--14p12----13h16p13-----10h13p10---------14--14h12----13h16p13----16h19p16-|
Eb|-0-0---0-----15----------15------------12-0---0---0-----15----------15-----------|

-Chorus-
Luke:
Gb|-17---17---17-17-17-14---14-14---14-14-14-14-17---17---17-17-17-14---14-14---19-19-19-19-|
Db|-----------------------------------------------------------------------------------------|
Ab|-15---15---15-15-15-12---12-12---12-12-12-12-15---15---15-15-15-12---12-12---17-17-17-17-|
Eb|-----------------------------------------------------------------------------------------|

Tim:
Gb|-----------------------------------------------------------------------------------------|
Db|-10---10---10-10-10--9----9--9----9--9--9--9-10---10---10-10-10--9----9--9----9--9--9--9-|
Ab|--7----7----7--7--7--7----7--7----7--7--7--7--7----7----7--7--7--7----7--7----7--7--7--7-|
Eb|--5----5----5--5--5--5----5--5----5--5--5--5--5----5----5--5--5--5----5--5----5--5--5--5-|

Luke:
Gb|-16---16---16-16-16-12---12-12---12-12-12-12-16---16---16-16-16-12---12-12---17-17-17-17-|
Db|-----------------------------------------------------------------------------------------|
Ab|-14---14---14-14-14-10---10-10---10-10-10-10-14---14---14-14-14-10---10-10---15-15-15-15-|
Eb|-----------------------------------------------------------------------------------------|

Tim:
Gb|--7----7----7--7--7--7----7--7----7--7--7--7--4----4----4--4--4--4----4--4----4--4--4--4-|
Db|--5----5----5--5--5--5----5--5----5--5--5--5--5----5----5--5--5--5----5--5----5--5--5--5-|
Ab|--7----7----7--7--7--7----7--7----7--7--7--7--7----7----7--7--7--7----7--7----7--7--7--7-|
Eb|--0----0----0--0--0--0----0--0----0--0--0--0--7----7----7--7--7--7----7--7----7--7--7--7-|

Luke:
Gb|-14---14---14-14-14-10---10-10---10-10-10-10-14---14---14-14-14-10---10-10---12----12----|
Db|-----------------------------------------------------------------------------------------|
Ab|-12---12---12-12-12--8----8--8----8--8--8--8-12---12---12-12-12--8----8--8---10----10----|
Eb|-----------------------------------------------------------------------------------------|

Tim:
Gb|-----------------------------------------------------------------------------------------|
Db|--3----3----3--3--3--3----3--3----3--3--3--3--3----3----3--3--3--3----3--3----3--3--3--3-|
Ab|--3----3----3--3--3--3----3--3----3--3--3--3--3----3----3--3--3--3----3--3----3--3--3--3-|
Eb|--1----1----1--1--1--1----1--1----1--1--1--1--1----1----1--1--1--1----1--1----1--1--1--1-|

Luke:
Gb|-------------------------------------------------------------------------------|
Db|--9----9----9----9----9----9----9----9---16---16---16---16---16---16---16---16-|
Ab|-------------------------------------------------------------------------------|
Eb|--7----7----7----7----7----7----7----7---14---14---14---14---14---14---14---14-|

Tim:
Gb|-------------------------------------------------------------------------------|
Db|--5----5----5----5----5----5----5---------5----5----5----5----5----5----5----5-|
Ab|--3----3----3----3----3----3----3---------5----5----5----5----5----5----5----5-|
Eb|--3----3----3----3----3----3----3----0----3----3----3----3----3----3----3----3-|

-Tim Tap Fill-
eb|---------------------------------------------------------------| x2
Bb|---------------------------------------------------------------|
Gb|---------h17---------h16-h12-----h19-h12-----h21-h12-----17/19-|
Db|-----h14---------h12---------h14---------h14---------h14-------|
Ab|-h12---------h10-----------------------------------------------|
Eb|---------------------------------------------------------------|

-Luke "Ghengis Kahn is upon us, he slays his betrayers"-
eb|-------------------------------------|------------------------|-h8-h10-h12--------------h8-|
Bb|--------------------------h8-h10-h12-|------------------------|-------------h8-h10-h12-----|
Gb|---------h12--h7--h9-h11-------------|-h9-----h12--h8-----h11-|----------------------------|
Db|------h9-----------------------------|----h10----------h9-----|----------------------------|
Ab|--h7---------------------------------|------------------------|----------------------------|
Eb|-------------------------------------|------------------------|----------------------------|

-Soft Chorus-

Luke:
eb|------------------------------------------------------------------------|
Bb|------------------------------------------------------------------------|
Gb|------------------------------------------------------------------------|
Db|-7--7--7--7--7--7--7--7--7----------------------------------------------|
Ab|-7--7--7--7--7--7--7--7--7---------------------------------s10----------|
Eb|-5--5--5--5--5--5--5--5--5----------------------------------------------|

Tim:
eb|------------------------------------------------------------------------|
Bb|----------------------

I want to post or [tab]
guest
You may want to rate the tab now too:
select rating
Please do not post tabs as comments. Select "correction" instead!