Oops, an error
Loading. Please wait.

Bloodmeat Tab

ver5
ver5

Solo

Whole song

More versions @911Tabs.com
2,217 views 21 this week
no commentswrite comment
1 2 3 4 5
excellent!
x 2
Autoscroll
+/-
esc
set tempo
stop
Difficulty
Tuning
advanced
D# G# C# F# A# D#
Hey! There's an official Ultimate Guitar app which is ideal
for learning songs when you're away from computer. Get the app
WARNING: You are trying to view
                                    content from Ultimate-Guitar.com
                                    in an unauthorized application,
                                    which is prohibited.

                                    Please use an official Ultimate
                                    Guitar Tabs application for iPhone,
                                    iPad or Android to access legitimate
                                    chords, guitar, bass, and drum tabs
                                    from Ultimate-Guitar.com database.

                                    Type "ultimate guitar tabs" in Apple
                                    App Store's or Android Market's
                                    search to find the application.
Bloodmeat
Protest The Hero
Tabbed by Andrew McLaughlin


Luke & Tim - Intro (pt1)                             
Eb||---------------------------------------------------| x2
Bb||---------------------------------------------------|
Gb||15-15-1515-15-15-15-151515-15-1515-15-15-15-151515-|
Db||---------------------------------------------------|
Ab||12-12-1212-12-12-12-121212-12-1212-12-12-12-121212-|
Eb||---------------------------------------------------|


Luke - Intro (pt2)
Eb||-----------------------------------------|
Bb||-----------------------------------------|
Gb||-----------------------------------------|
Db||-----------------------------------------|
Ab||------10--10p9-----10h13p10-----6h9p6----|
Eb||-0---0--------12-----------12--------8---|

Eb||-------------------------------------------|
Bb||-------------------------------------------|
Gb||-------------------------------------------|
Db||-------------------------------------------|
Ab||------10--10p9-----10h13p10-----13h16p13---|
Eb||-0---0--------12-----------12-----------14-|


Tim - Intro (pt2)
Eb||------------------------------------------|
Bb||------------------------------------------|
Gb||------------------------------------------|
Db||------------------------------------------|
Ab||------14--14p12-----13h16p13-----9h12p9---|
Eb||-0---0----------0-0---------15---------11-|

Eb||-------------------------------------------|
Bb||-------------------------------------------|
Gb||-------------------------------------------|
Db||-------------------------------------------|
Ab||------14--14p12-----13h16p13----16h19p16---|
Eb||-0---0----------0-0---------15----------15-|


Luke & Tim - Intro (pt1)
Eb||--------------------------------------------------|
Bb||--------------------------------------------------|
Gb||15-15-1515-15-15-15-151515-15-1515-15-15-15-151515|
Db||--------------------------------------------------|
Ab||12-12-1212-12-12-12-121212-12-1212-12-12-12-121212|
Eb||--------------------------------------------------|


Luke - Intro (pt2)                          
Eb||-----------------------------------------|
Bb||-----------------------------------------|
Gb||-----------------------------------------|
Db||-----------------------------------------|
Ab||------10--10p9-----10h13p10-----6h9p6----|
Eb||-0---0--------12-----------12--------8---|

Eb||-------------------------------------------| x2
Bb||-------------------------------------------|
Gb||-------------------------------------------|
Db||-------------------------------------------|
Ab||------10--10p9-----10h13p10-----13h16p13---|
Eb||-0---0--------12-----------12-----------14-|


Tim - Intro (pt2)                            
Eb||------------------------------------------|
Bb||------------------------------------------|
Gb||------------------------------------------|
Db||------------------------------------------|
Ab||------14--14p12-----13h16p13-----9h12p9---|
Eb||-0---0----------0-0---------15---------11-|

Eb||-------------------------------------------| x2
Bb||-------------------------------------------|
Gb||-------------------------------------------|
Db||-------------------------------------------|
Ab||------14--14p12-----13h16p13----16h19p16---|
Eb||-0---0----------0-0---------15----------15-|


Luke & Tim - Pre-Verse
Eb||--------------------------------|
Bb||--------------------------------|
Gb||--------------------------------|
Db||--------------------------------|
Ab||-----5h7------------------------|
Eb||-0-------0-3h5-0-5--6-5-6-5-6-7-|

Eb||-------------------------------|
Bb||-------------------------------|
Gb||-------------------------------|
Db||-------------------------------|
Ab||-----5h7-----------------------|
Eb||-0-------0-3h5-0-5--5-6-7------|


Luke & Tim - Verse                 
Eb||--------------------------------|
Bb||--------------------------------|
Gb||--------------------------------|
Db||--------------------------------|
Ab||-----5h7------------------------|
Eb||-0-------0-3h5-0-5--6-5-6-5-6-7-|

Eb||-------------------------------| x2
Bb||-------------------------------|
Gb||-------------------------------|
Db||-------------------------------|
Ab||-----5h7-----------------------|
Eb||-0-------0-3h5-0-5--6-0-7--6-3-|

Eb||------------------------|
Bb||------------------------|
Gb||------------------------|
Db||-5-222-222---5-222-222--|
Ab||-5-222-222---5-222-222--|
Eb||-3-000-000---3-000-000--|
                                  
Eb||--------------------------------|
Bb||--------------------------------|
Gb||--------------------------------|
Db||--------------------------------|
Ab||-----5h7------------------------|
Eb||-0-------0-3h5-0-5--6-5-6-5-6-7-|

Eb||-------------------------------| x2
Bb||-------------------------------|
Gb||-------------------------------|
Db||-------------------------------|
Ab||-----5h7-----------------------|
Eb||-0-------0-3h5-0-5--6-0-7--6-3-|

Eb||-------------------------------------------|
Bb||-------------------------------------------|
Gb||-------------------------------------------|
Db||-5-222-222-222---5-2-22222---2-6-7-8-2-9-2-|
Ab||-5-222-222-222---5-2-22222---2-5-6-7-2-8-2-|
Eb||-3-000-000-000---3-0-00000---0-4-5-6-0-7-0-|

               x6
Eb||------------|
Bb||------------|
Gb||---------5--|
Db||-2--2--223--|
Ab||-2--2--223--|
Eb||-0--0--000--|


Luke - Chorus
Eb||----------------------------------------------------------------|
Bb||----------------------------------------------------------------|
Gb||-17--17--171717-14-1414-141414-17-1717-171717-14-1414-19-191919-|
Db||----------------------------------------------------------------|
Ab||-15--15--151515-12-1212-121212-15-1515-151515-12-1212-17-171717-|
Eb||----------------------------------------------------------------|

Eb||----------------------------------------------------------------|
Bb||----------------------------------------------------------------|
Gb||-16--16--161616-12-1210-121212-16-1616-161616-12-1212-17-171717-|
Db||----------------------------------------------------------------|
Ab||-14--14--141414-10-1010-101010-14-1414-141414-10-1010-15-151515-|
Eb||----------------------------------------------------------------|

Eb||----------------------------------------------------------------|
Bb||----------------------------------------------------------------|
Gb||-14--14--141414-10-1010-101010-14-1414-141414-10-1010-12-121212-|
Db||----------------------------------------------------------------|
Ab||-12--12--121212-8--8-8--8-8-8--12-1212-121212-8--8-8--10-101010-|
Eb||----------------------------------------------------------------|

Eb||----------------------------------------------------------------|
Bb||----------------------------------------------------------------|
Gb||-9---9---9---9---9---9---9---9---16--16--16--16--16--16--16--16-|
Db||----------------------------------------------------------------|
Ab||-7---7---7---7---7---7---7---7---14--14--14--14--14--14--14--14-|
Eb||----------------------------------------------------------------|


Tim - Chorus
Eb||----------------------------------------------------------------|
Bb||----------------------------------------------------------------|
Gb||----------------------------------------------------------------|
Db||-10--10--101010-9--9-9--9-9-9--10-1010-101010-9--9-9--9--9-9-9--|
Ab||-7---7---7-7-7--7--7-7--7-7-7--7--7-7--7-7-7--7--7-7--7--7-7-7--|
Eb||-5---5---5-5-5--5--5-5--5-5-5--5--5-5--5-5-5--5--5-5--5--5-5-5--|

Eb||----------------------------------------------------------------|
Bb||----------------------------------------------------------------|
Gb||-7---7---7-7-7--7--7-7--7-7-7--4--4-4--4-4-4--4--4-4--4--4-4-4--|
Db||-5---5---5-5-5--5--5-5--5-5-5--5--5-5--5-5-5--5--5-5--5--5-5-5--|
Ab||-7---7---7-7-7--7--7-7--7-7-7--7--7-7--7-7-7--7--7-7--7--7-7-7--|
Eb||-0---0---0-0-0--0--0-0--0-0-0--0--0-0--0-0-0--0--0-0--0--0-0-0--|

Eb||----------------------------------------------------------------|
Bb||----------------------------------------------------------------|
Gb||----------------------------------------------------------------|
Db||-3---3---3-3-3--3--3-3--3-3-3--3--3-3--3-3-3--3--3-3--3--3-3-3--|
Ab||-3---3---3-3-3--3--3-3--3-3-3--3--3-3--3-3-3--3--3-3--3--3-3-3--|
Eb||-1---1---1-1-1--1--1-1--1-1-1--1--1-1--1-1-1--1--1-1--1--1-1-1--|

Eb||----------------------------------------------------------------|
Bb||----------------------------------------------------------------|
Gb||-5---5---5---5---5---5---5---5----------------------------------|
Db||-5---5---5---5---5---5---5---5---5---5---5---5---5---5---5---5--|
Ab||-3---3---3---3---3---3---3---3---5---5---5---5---5---5---5---5--|
Eb||---------------------------------3---3---3---3---3---3---3---3--|


Luke - Post-Chorus
Eb||-------------13----------------------17----------|
Bb||-------14h15----15-14----------14h15----15-14----|
Gb||-14h15----------------15-14h15----------------15-|
Db||-------------------------------------------------|
Ab||-------------------------------------------------|
Eb||-------------------------------------------------|

Eb||-------------18-17-15----------------------------| x2
Bb||-------14h15----------18-17-15-------------------|
Gb||-14h15-------------------------18-17-15----15-17-|
Db||----------------------------------------17-------|
Ab||-------------------------------------------------|
Eb||-------------------------------------------------|


Tim - Post-Chorus
Eb||-------------------------------| x2
Bb||-------------------------------|
Gb||-------------------------------|
Db||-7----7---7-8-8-7----7---5-5-5-|
Ab||-7----7---7-8-8-7----7---5-5-5-|
Eb||-5----5---5-6-6-5----5---3-3-3-|


Luke & Tim - Tapping Riff 1
Eb||------------------------------------------------| x2
Bb||-------t13----t12------t15------t17------t13/15-|
Gb||------------------------------------------------|
Db||----------h7h9---h10h12---h10h12---h10h12-------|
Ab||-h10h12-----------------------------------------|
Eb||------------------------------------------------|


Luke - Tapping Riff 2
Eb||--------------------------------------------|
Bb||-----------------h8h10t12-------------------|
Gb||-----t12-h7h9t11----------h9---t12-h8--t11--|
Db||----------------------------h10------h9-----|
Ab||-h7h9---------------------------------------|
Eb||--------------------------------------------|

Eb||--------------------------h8h10h12-------------| x2
Bb||-----------------h8h10t12----------h8h10t12/13-|
Gb||-----t12-h7h9t11-------------------------------|
Db||-----------------------------------------------|
Ab||-h7h9------------------------------------------|
Eb||-----------------------------------------------|


Tim - Tapping Riff 2 Rhythm
Eb||------------------------------------| x2
Bb||------------------------------------|
Gb||------------------------------------|
Db||---2-2----2-2-222---2-2----2-2-2222-|
Ab||---2-2----2-2-222---2-2----2-2-2222-|
Eb||---0-0----0-0-000---0-0----0-0-0000-|


Luke & Tim - Intro (pt1)                             
Eb||---------------------------------------------------| 
Bb||---------------------------------------------------| 
Gb||15-15-1515-15-15-15-151515-15-1515-15-15-15-151515-|
Db||---------------------------------------------------|
Ab||12-12-1212-12-12-12-121212-12-1212-12-12-12-121212-|
Eb||---------------------------------------------------|


Luke - Tapping Riff 2
Eb||--------------------------------------------|
Bb||-----------------h8h10t12-------------------|
Gb||-----t12-h7h9t11----------h9---t12-h8--t11--|
Db||----------------------------h10------h9-----|
Ab||-h7h9---------------------------------------|
Eb||--------------------------------------------|

Eb||--------------------------h8h10h12-------------| x2
Bb||-----------------h8h10t12----------h8h10t12/13-|
Gb||-----t12-h7h9t11-------------------------------|
Db||-----------------------------------------------|
Ab||-h7h9------------------------------------------|
Eb||-----------------------------------------------|


Tim - Tapping Riff 2 Rhythm
Eb||------------------------------------| x2
Bb||------------------------------------|
Gb||------------------------------------|
Db||---2-2----2-2-222---2-2----2-2-2222-|
Ab||---2-2----2-2-222---2-2----2-2-2222-|
Eb||---0-0----0-0-000---0-0----0-0-0000-|


Luke & Tim - Intro (pt1)                             
Eb||---------------------------------------------------| x2
Bb||---------------------------------------------------| 
Gb||15-15-1515-15-15-15-151515-15-1515-15-15-15-151515-|
Db||---------------------------------------------------|
Ab||12-12-1212-12-12-12-121212-12-1212-12-12-12-121212-|
Eb||---------------------------------------------------|


Luke - Intro (pt2)      
Eb||-----------------------------------------|
Bb||-----------------------------------------|
Gb||-----------------------------------------|
Db||-----------------------------------------|
Ab||------10--10p9-----10h13p10-----6h9p6----|
Eb||-0---0--------12-----------12--------8---|

Eb||-------------------------------------------| x2
Bb||-------------------------------------------|
Gb||-------------------------------------------|
Db||-------------------------------------------|
Ab||------10--10p9-----10h13p10-----13h16p13---|
Eb||-0---0--------12-----------12-----------14-|


Tim - Intro (pt2)
Eb||------------------------------------------|
Bb||------------------------------------------|
Gb||------------------------------------------|
Db||------------------------------------------|
Ab||------14--14p12-----13h16p13-----9h12p9---|
Eb||-0---0----------0-0---------15---------11-|

Eb||-------------------------------------------|x2
Bb||-------------------------------------------|
Gb||-------------------------------------------|
Db||-------------------------------------------|
Ab||------14--14p12-----13h16p13----16h19p16---|
Eb||-0---0----------0-0---------15----------15-|


Luke & Tim - Second Pre-Verse
Eb||-----------------------------|
Bb||-----------------------------|
Gb||-----------------------------|
Db||-----------------------------|
Ab||---5h7-----------------------|
Eb||-0-----0-3h5-0-<5>-----------|


Luke & Tim - Second Verse                      
Eb||-----------------------------|
Bb||-----------------------------|
Gb||-----------------------------|
Db||-----------------------------|
Ab||---5h7-----------------------|
Eb||-0-----0-3h5-0-5--6-5-6-5-6-7|

Eb||-----------------------------| x2
Bb||-----------------------------|
Gb||-----------------------------|
Db||-----------------------------|
Ab||---5h7-----------------------|
Eb||-0-----0-3h5-0-5--6-0-7-6-3--|

Eb||----------------------------------------------------------------|
Bb||----------------------------------------------------------------|
Gb||----------------------------------------------------------------|
Db||-7-----7--7-7----7----7----7-t13p8p7p5h7h8t13p8p7p5h7h8t13p8p7p5|
Ab||-5-6---5--5-5-6--5-6--5-6--5------------------------------------|
Eb||---4----------4----4----4---------------------------------------|

Eb||-----------------------------|
Bb||-----------------------------|
Gb||-----------------------------|
Db||-7-----7--7-7----7----7----7-|
Ab||-5-6---5--5-5-6--5-6--5-6--5-|
Eb||---4----------4----4----4----|

Eb||-t15p10p8p7h8h10t15s17s15p10p8p7----------t15p10p8p7h8h10t15s17s15p10p8p7-----------| x2
Bb||--------------------------------t15p10p8p7-------------------------------t15p10p8p7-|
Gb||------------------------------------------------------------------------------------|
Db||------------------------------------------------------------------------------------|
Ab||------------------------------------------------------------------------------------|
Eb||------------------------------------------------------------------------------------|

Eb||-t15p10p8p7---------------------------------------------------|
Bb||-----------t15p10p8p7-----------------------------------------|
Gb||---------------------t15p10p8p7-------------------------------|
Db||-------------------------------t15p10p8p7---------------------|
Ab||-----------------------------------------t15p10p8p7-----------|
Eb||---------------------------------------------------t15p10p8p7-|


Luke
Eb||----------------------------------------------------------|
Bb||----------------------------------------------------------|
Gb||----------------------------------------------------------|
Db||-777777777------------------------------------------------|
Ab||-777777777-----/10----------------7-------------7-8-10-12-|
Eb||-555555555---------7----8--7-8-10---10-8-7-8-10-----------|

Eb||---------------------------------------------------|
Bb||---------------------------------------------------|
Gb||---------------------------------------------------|
Db||-9-10-12-10-9---12-9-10-12-10-9-10---12---9---10---|
Ab||-------------12------------------------------------|
Eb||---------------------------------------------------|


Tim
Eb||----------------------------------------------------------|
Bb||----------------------------------------------------------|
Gb||----------------------------------------------------------|
Db||-777777777------------------------------------------------|
Ab||-777777777------------------------------------------------|
Eb||-555555555------------------------------------------------|

Eb||---------------------------------------------------|
Bb||---------------------------------------------------|
Gb||--------------------------------9----10---7----9---|
Db||---------------------------------------------------|
Ab||---------------------------------------------------|
Eb||---------------------------------------------------|


Luke - Chorus
Eb||-------------------------------------------------------------------------|
Bb||-------------------------------------------------------------------------|
Gb||-17-17-17-17-17-17-17-17-17-17-17-17-14-14-14-14-14-14-14-14-14-14-14-14-|
Db||-------------------------------------------------------------------------|
Ab||-15-15-15-15-15-15-15-15-15-15-15-15-12-12-12-12-12-12-12-12-12-12-12-12-|
Eb||-------------------------------------------------------------------------|

Eb||-------------------------------------------------------------------------|
Bb||-------------------------------------------------------------------------|
Gb||-16-16-16-16-16-16-16-16-16-16-16-16-12-12-12-12-12-12-21-21-21-19-19-19-|
Db||-------------------------------------------------------------------------|
Ab||-14-14-14-14-14-14-14-14-14-14-14-14-10-10-10-10-10-10-19-19-19-17-17-17-|
Eb||-------------------------------------------------------------------------|

Eb||-------------------------------------------------------------------------|
Bb||-------------------------------------------------------------------------|
Gb||-14-14-14-14-14-14-14-14-14-14-14-14-10-10-10-10-10-10-10-10-10-10-10-10-|
Db||-------------------------------------------------------------------------|
Ab||-12-12-12-12-12-12-12-12-12-12-12-12-8--8--8--8--8--8--8--8--8--8--8--8--|
Eb||-------------------------------------------------------------------------|

Eb||-------------------------------------------------------------------------|
Bb||-------------------------------------------------------------------------|
Gb||-12-12-12-12-12-12-12-12-12-12-12-12-13-13-13-13-13-13-16-16-16-17-17-17-|
Db||-------------------------------------------------------------------------|
Ab||-10-10-10-10-10-10-10-10-10-10-10-10-11-11-11-11-11-11-14-14-14-15-15-15-|
Eb||-------------------------------------------------------------------------|


Tim - Chorus
Eb||----------------------------------------------------------------|
Bb||----------------------------------------------------------------|
Gb||----------------------------------------------------------------|
Db||-10--10--101010-9--9-9--9-9-9--10-1010-101010-9--9-9--9--9-9-9--|
Ab||-7---7---7-7-7--7--7-7--7-7-7--7--7-7--7-7-7--7--7-7--7--7-7-7--|
Eb||-5---5---5-5-5--5--5-5--5-5-5--5--5-5--5-5-5--5--5-5--5--5-5-5--|

Eb||----------------------------------------------------------------|
Bb||----------------------------------------------------------------|
Gb||-7---7---7-7-7--7--7-7--7-7-7--4--4-4--4-4-4--4--4-4--4--4-4-4--|
Db||-5---5---5-5-5--5--5-5--5-5-5--5--5-5--5-5-5--5--5-5--5--5-5-5--|
Ab||-7---7---7-7-7--7--7-7--7-7-7--7--7-7--7-7-7--7--7-7--7--7-7-7--|
Eb||-0---0---0-0-0--0--0-0--0-0-0--0--0-0--0-0-0--0--0-0--0--0-0-0--|

Eb||----------------------------------------------------------------|
Bb||----------------------------------------------------------------|
Gb||----------------------------------------------------------------|
Db||-3---3---3-3-3--3--3-3--3-3-3--3--3-3--3-3-3--3--3-3--3--3-3-3--|
Ab||-3---3---3-3-3--3--3-3--3-3-3--3--3-3--3-3-3--3--3-3--3--3-3-3--|
Eb||-1---1---1-1-1--1--1-1--1-1-1--1--1-1--1-1-1--1--1-1--1--1-1-1--|

Eb||----------------------------------------------------------------|
Bb||----------------------------------------------------------------|
Gb||-5---5---5---5---5---5---5---5----------------------------------|
Db||-5---5---5---5---5---5---5---5---5---5---5---5---5---5---5---5--|
Ab||-3---3---3---3---3---3---3---3---5---5---5---5---5---5---5---5--|
Eb||---------------------------------3---3---3---3---3---3---3---3--|


Luke - Tapping Riff 3
Eb||------------------------------------------------| x6
Bb||-------t13----t12------t15------t17------t13/15-|
Gb||------------------------------------------------|
Db||----------h7h9---h10h12---h10h12---h10h12-------|
Ab||-h10h12-----------------------------------------|
Eb||------------------------------------------------|


Tim - Tapping Riff 3 Rhythm
Eb||---------------------------------------------------------------------|
Bb||---------------------------------------------------------------------|
Gb||---------------------------------------------------------------------|
Db||--3--3--3--3-------7--7--7--7-------5--5--5--5-------5--5--5--5------|
Ab||--3--3--3--3--2h3--7--7--7--7--2h3--5--5--5--5--2h3--5--5--5--5--2h3-|
Eb||--1--1--1--1-------5--5--5--5-------3--3--3--3-------3--3--3--3------|


Tim - Tapping Riff 3
Eb||-0-0-12-0-0-10-0-0-13-0-0-15-0-0-12-13-| x2
Bb||---------------------------------------|
Gb||---------------------------------------|
Db||---------------------------------------|
Ab||---------------------------------------|
Eb||---------------------------------------|


Luke - Chorus
Eb||-----------------------------------------------------------------|
Bb||-----------------------------------------------------------------|
Gb||-----------------5-5-5-5-5-5-5-5-----------------9-9-7-7-5-5-4-4-|
Db||-3-3-3-3-3-3-3-3-5-5-5-5-5-5-5-5-5-5-5-5-5-5-5-5-----------------|
Ab||-3-3-3-3-3-3-3-3-3-3-3-3-3-3-3-3-5-5-5-5-5-5-5-5-7-7-5-5-3-3-2-2-|
Eb||-1-1-1-1-1-1-1-1-----------------3-3-3-3-3-3-3-3-----------------|

Eb||-----------------------------------------------------------------|
Bb||-----------------------------------------------------------------|
Gb||-----------------5-5-5-5-5-5-5-5-----------------9-9-7-7-10109-9-|
Db||-3-3-3-3-3-3-3-3-5-5-5-5-5-5-5-5-5-5-5-5-5-5-5-5-----------------|
Ab||-3-3-3-3-3-3-3-3-3-3-3-3-3-3-3-3-5-5-5-5-5-5-5-5-7-7-5-5-8-8-7-7-|
Eb||-1-1-1-1-1-1-1-1-----------------3-3-3-3-3-3-3-3-----------------|

Eb||---------------------------------------------------------------------------|
Bb||---------------------------------------------------------------------------|
Gb||-------9h10p9-----------9h10p9------------16h17p16------------16h17p16-----|
Db||-----10------10-------10------10--------17--------17--------17--------17---|
Ab||-7h12----------12-7h12----------12-15h19------------19-15h19------------19-|
Eb||---------------------------------------------------------------------------|

Eb||---------------------------------------------------------------------------------15-17-| x2
Bb||---------------------------------------------------------15--------------15-17-18------|
Gb||---------------------------------14--------------14-16-17--17-16-14-16-17--------------|
Db||---------14--------------14-15-17--17-15-14-15-17--------------------------------------|
Ab||-14-15-17--17-15-14-15-17--------------------------------------------------------------|
Eb||---------------------------------------------------------------------------------------|


Tim - Chorus
Eb||-----------------------------------------------------------------| x4
Bb||-----------------------------------------------------------------|
Gb||-----------------5-5-5-5-5-5-5-5---------------------------------|
Db||-3-3-3-3-3-3-3-3-5-5-5-5-5-5-5-5-5-5-5-5-5-5-5-5-5-5-5-5-5-5-5-5-|
Ab||-3-3-3-3-3-3-3-3-3-3-3-3-3-3-3-3-5-5-5-5-5-5-5-5-5-5-5-5-5-5-5-5-|
Eb||-1-1-1-1-1-1-1-1-----------------3-3-3-3-3-3-3-3-3-3-3-3-3-3-3-3-|


Luke & Tim - Intro (pt1)                             
Eb||---------------------------------------------------| x2
Bb||---------------------------------------------------| 
Gb||15-15-1515-15-15-15-151515-15-1515-15-15-15-151515-|
Db||---------------------------------------------------|
Ab||12-12-1212-12-12-12-121212-12-1212-12-12-12-121212-|
Eb||---------------------------------------------------|


Luke & Tim - Outro
Eb||-------------------------------|
Bb||-------------------------------|
Gb||-------------------------------|
Db||----7h9------------------------|
Ab||-2--5h7--5h7---7--8-----7-8-9--|
Eb||-0-----0-3h5-0-5--6--0--5-6-7--|

Eb||-------------------------------|
Bb||-------------------------------|
Gb||-------------------------------|
Db||----7h9------------------------|
Ab||-2--5h7--5h7---7--8-----9-8-5--|
Eb||-0-----0-3h5-0-5--6--0--7-6-3--|

Eb||-------------------------------|
Bb||-------------------------------|
Gb||-------------------------------|
Db||----7h9------------------------|
Ab||-2--5h7--5h7---7--8-----7-8-9--|
Eb||-0-----0-3h5-0-5--6--0--5-6-7--|

Eb||-------------------------------|----||
Bb||-------------------------------|----||
Gb||-------------------------------|----||
Db||----7h9------------------------|-2--||
Ab||-2--5h7--5h7---7--8--9---------|-2--||
Eb||-0-----0-3h5-0-5--6--7---------|-0--||
comments
We did not receive enough feedback on this tab! Please rate:
print report bad tab
1 2 3 4 5
I want to post or [tab]
guest
You may want to rate the tab now too:
select rating
Please do not post tabs as comments. Select "correction" instead!