Oops, an error
Loading. Please wait.

Bone Marrow Bass Tab

ver1
ver1

Whole song

Interactive

More versions @911Tabs.com
3,929 views 17 this week
2 commentsread comments
1 2 3 4 5
accurate
x 3
add to favorites launch autoscroll
font size
0
reset
Autoscroll
+/-
esc
set tempo
stop
WARNING: You are trying to view
                                    content from Ultimate-Guitar.com
                                    in an unauthorized application,
                                    which is prohibited.

                                    Please use an official Ultimate
                                    Guitar Tabs application for iPhone,
                                    iPad or Android to access legitimate
                                    chords, guitar, bass, and drum tabs
                                    from Ultimate-Guitar.com database.

                                    Type "ultimate guitar tabs" in Apple
                                    App Store's or Android Market's
                                    search to find the application.
Arif Mirabdolbaghi

For everyone without Guitar Pro. Tabbed by Tom Delonge II.

      Q       W                   W                   W                 
F#||-------|-------------------|-------------------|-------------------|
C#||-------|-------------------|-------------------|-------------------|
G#||-------|-------------------|-------------------|-------------------|
D#||-------|-------------------|-------------------|-------------------|
A#||-------|-------------------|-------------------|-------------------|


  W                   W                   W                   W                 
-------------------|-------------------|-------------------|-------------------|
-------------------|-------------------|-------------------|-------------------|
-------------------|-------------------|-------------------|-------------------|
-------------------|-------------------|-------------------|-------------------|
-------------------|-------------------|-------------------|-------------------|


  W                   E  S S S S S S S S S S S S S S  
-------------------|---------------------------------|
-------------------|---------------------------------|
-------------------|---------------------------------|
-------------------|--2--6---6---6---5---5---3---3---|
-------------------|-------------------------------2-|


                          |--3--|                                       
  E  S S S S S S S S S S  S  S  S E     E  S S S S S S S S S S S S S S  
-------------------------------------|---------------------------------|
-------------------------------------|---------------------------------|
-------------------------10p-9p-7----|---------------------------------|
-----6---6---6---5---5------------9--|--2--6---6---6---5---5---3---3---|
--L----------------------------------|---------------------------------|


  H        H           S E  E  E  S S E  S S E  S  
--------------------|-----------------------------|
--------------------|-----------------------------|
--------------------|-----------------------------|
-----------7--------|--2-2--2--2--2-2-2--2-0-0--0-|
--5-----------------|-----------------------------|


  S E  E  E  S S E  S S E  S    S E  E  E  S S E  S S E  S  
-----------------------------|-----------------------------|
-----------------------------|-----------------------------|
----------------------2-2--2-|-----------------------------|
--2-2--2--2--2-2-2--2--------|--2-2--2--2--2-2-2--2-0-0--0-|
-----------------------------|-----------------------------|


           T          T          T          T          T          T          T  
   |---3---|  |---3---|  |---3---|  |---3---|  |---3---|  |---3---|  |---3---|  
   S   S   S  S   S   S  S   S   S  S   S   S  S   S   S  S   S   S  S   S   S  
-------------------------------------------------------------------------------1
----------------------------------------------13h-14h-16------------13h-14h-16--
-------------12h-14h-16------------12h-14h-16------------12h-14h-16-------------
--12h-14h-16------------12h-14h-16----------------------------------------------
--------------------------------------------------------------------------------


  S E  E  E  S S E  S S E  S    S E  E  E  S S E  S S E  S  
-----------------------------|-----------------------------|
-----------------------------|-----------------------------|
-----------------------------|----------------------2-2--2-|
--2-2--2--2--2-2-2--2-0-0--0-|--2-2--2--2--2-2-2--2--------|
-----------------------------|-----------------------------|


  S E  E  E  S S E  S S E  S  
-----------------------------|
-----------------------------|
-----------------------------|
--2-2--2--2--2-2-2--2-0-0--0-|
-----------------------------|


           T          T          T          T          T          T          T  
   |---3---|  |---3---|  |---3---|  |---3---|  |---3---|  |---3---|  |---3---|  
   S   S   S  S   S   S  S   S   S  S   S   S  S   S   S  S   S   S  S   S   S  
-------------------------------------------------------------------------------1
----------------------------------------------13h-14h-16------------13h-14h-16--
-------------12h-14h-16------------12h-14h-16------------12h-14h-16-------------
--12h-14h-16------------12h-14h-16----------------------------------------------
--------------------------------------------------------------------------------


  E  E  E  E  E  E  E  E  E  S S    E  E  E  E  E  E  Q     
---------------------------------|-------------------------|
---------------------------------|-------------------------|
---------------------------------|-------------------------|
--2--0--2--0--2--0--2--0--2--2-0-|--L--2--0--2--0--2--3----|
---------------------------------|-------------------------|


  S S H        Q    E      S  S  S S S  S  S S S S S S S S S S  
-----------------------|--11-11-11-8-8-------------------------|
-----------------------|---------------10-10-7-7---------------|
-----------------------|-------------------------9-9-6-6-------|
--0-0------------------|---------------------------------8-8-5-|
-----------------------|---------------------------------------|


  S S H        Q    E      S  S  S S S  S  S S S S S S S S S S  
-----------------------|--11-11-11-8-8-------------------------|
-----------------------|---------------10-10-7-7---------------|
-----------------------|-------------------------9-9-6-6-------|
--0-0------------------|---------------------------------8-8-5-|
-----------------------|---------------------------------------|


   S  S  S S S S S S S S S S S S S S    E  E  E  S E  S E  E  E   
--10-10-10-6-6-----------------------|---------------------------|
---------------8-8-5-5---------------|---------------------------|
-----------------------7-7-4-4-------|---------------------------|
-------------------------------6-6-3-|--4-----4--4-4--4-4--4--4--|
-------------------------------------|---------------------------|


  E  E  E  S E  S E  E  E     E  E  S S S S E  E  S E  S  
---------------------------|-----------------------------|
---------------------------|-----------------------------|
---------------------------|-----------------------------|
--4-----4--4-4--4-4--4--4--|--4-------4-4-4-4--4----4----|
---------------------------|-----------------------------|


  E  E  E  S E  S E  E  E     E  E  S S S S E  E  S E  S  
---------------------------|-----------------------------|
---------------------------|-----------------------------|
---------------------------|-----------------------------|
--4-----4--4-4--4-4--4--4--|--4-------4-4-4-4--4----4----|
---------------------------|-----------------------------|


  S S S S S S S S S S S S S S S S    E  E   E   E  E  E  E  E   
----------------------------------|----------------------9--9--|
----------------------------------|----------------9--9--------|
----------2-2-2-2-3-3-3-3-5-5-5-5-|--7--7--11--11--------------|
--0-0-0-0-------------------------|----------------------------|
----------------------------------|----------------------------|


  E  E  E  E   E   E  E  E     E  E  E  E   E   E   E   E   
--7--7----------------------|------------------------------|
--------9--9----------------|----------------------10--10--|
--------------10--10--------|--------7--7--10--10----------|
----------------------7--7--|--8--8------------------------|
----------------------------|------------------------------|


  E  E  E  E  E  E  E  E     E  E  E  E   E   E  E  E   
--3--3--------------------|--9--9----------------------|
--------4--4--------------|--------9--9----------------|
--------------4--4--------|--------------11--11--7--7--|
--------------------2--2--|----------------------------|
--------------------------|----------------------------|


  E  E   E   E  E  E  E  E      E   E   E   E  E  E  E  E   
----------------------7--7--|------------------------------|
----------------9--9--------|--10--10----------------------|
--------10--10--------------|----------10--10--7--7--------|
--7--7----------------------|------------------------8--8--|
----------------------------|------------------------------|


  E  E  E  E  E  E  E  E     E.  E.  Q    E  E.  S    E  Q    E  E  E  Q     
--------------------3--3--|------------------------|------------------------|
--------------4--4--------|------------------------|------------------------|
--------4--4--------------|------------------------|------------------------|
--2--2--------------------|----------5----7--------|-----5----7-------------|
--------------------------|--7---5-----------7---5-|--L----------7--7--5----|


  E.  E.  Q    E  E.  S    E  Q    E  E  Q    E     E.  E.  Q    E  E.  S  
------------------------|------------------------|------------------------|
------------------------|------------------------|------------------------|
------------------------|------------------------|------------------------|
----------5----7--------|-----5----7-------------|----------5----7--------|
--7---5-----------7---5-|--L----------7----------|--7---5-----------7---5-|


  E  Q    E  E  E  Q       E.  E.  Q    E  E.  S    E  Q    E  E  E  E  E   
------------------------|------------------------|-------------------------|
------------------------|------------------------|-------------------------|
------------------------|------------------------|-------------------------|
-----5----7-------------|----------5----7--------|-----5----7--------------|
--L----------7--7--5----|--7---5-----------7---5-|--L----------7--7--7--7--|


   E  E  S S S S E  E  E  E      E  E  Q    E  E  E  E   
-----------------------------|--------------------------|
-----------------------------|--------------------------|
-----------------------------|---------9----------------|
-----------------------------|--------------------------|
--10--7----7---7-7--7--7--7--|--10--7-------7--7--7--7--|


   S S S S S S S S E  E  E  E      E  E  Q       E  S E  S E  S   E.  E  E   
-------------------------------|--------------|-----------------------------|
-------------------------------|--------------|-----------------------6-----|
-------------------------------|---------9----|-------7---------5g7------7--|
-------------------------------|--------------|--5---------5----------------|
--10-7---7---7---7-7--7--7--7--|--10--7-------|-----------------------------|


  E  S E  S E  Q    Q       E  S E  S E  S   E.  E  E   
-------------------------|-----------------------------|
-------------------------|-----------------------6-----|
-------7-----------------|-------7---------5g7------7--|
--5---------5--5----4----|--5---------5----------------|
-------------------------|-----------------------------|


  Q    E  Q    E   Q        E  S E  S E  S   E.  E  E   
------------------14\----|-----------------------------|
-------------------------|-----------------------6-----|
-------------------------|-------7---------5g7------7--|
--3----3--5----5---------|--5---------5----------------|
-------------------------|-----------------------------|


  E  S E  S E  Q    Q       E  S E  S E  S   E.  E  E     Q    E  Q    E   
-------------------------|-----------------------------|------------------|
-------------------------|-----------------------6-----|------------------|
-------7-----------------|-------7---------5g7------7--|------------------|
--5---------5--5----4----|--5---------5----------------|--3----3--5----5--|
-------------------------|-----------------------------|------------------|


                                                            |--3--|     
  E  S S S S S S S S S S S S S S    E  S S S S S S S S S S  S  S  S E   
---------------------------------|-------------------------------------|
---------------------------------|-------------------------------------|
---------------------------------|-------------------------10p-9p-7----|
--2--6---6---6---5---5---3---3---|-----6---6---6---5---5------------9--|
-------------------------------2-|--L----------------------------------|


                                                            |--3--|     
  E  S S S S S S S S S S S S S S    E  S S S S S S S S S S  S  S  S E   
---------------------------------|-------------------------------------|
---------------------------------|-------------------------------------|
---------------------------------|-------------------------10p-9p-7----|
--2--6---6---6---5---5---3---3---|-----6---6---6---5---5------------9--|
-------------------------------2-|--L----------------------------------|


      |---3---|       |---3--|      |--3--|                 
  E   S   S   S  S S  S   S  S  S S S  S  S S E  S S S S S  
-----15p-14p-12------12p-11p-9------9p-8p-6----------------|
----------------14-------------11-----------8--------------|
-----------------------------------------------------------|
---------------------------------------------------3-3-3---|
-----------------------------------------------------------|


  S S S E  S S S S S S S    S S S S S E  S S S S S    S S S E  S S S S S S S  
-------------------------|-------------------------|-------------------------|
-------------------------|-------------------------|-------------------------|
-------------------------|-------------------------|-------------------------|
--2-2-2------2-2-2---2-2-|--2---2-2-2------3-3-3---|--2-2-2------2-2-2---2-2-|
-------------------------|-------------------------|-------------------------|


  S S S S S E  S S S    S S S E  S S S S S S S S S S S S S S S  
---------------------|-----------------------------------------|
---------------------|-----------------------------------------|
---------------------|-----------------------------------------|
--2---2-2-2------3-3-|--0-0-0------0-0-0---0-0-0---0---0-0-0---|
---------------------|-----------------------------------------|


  S S S E  S S S S S S S S S S S    S S S E  S S S S S S S S S S S  
---------------------------------|---------------------------------|
---------------------------------|---------------------------------|
---------------------------------|---------------------------------|
--0-0-0------0-0-0---0-0-0---0---|--0-0-0------0-0-0---0-0-0---0-0-|
---------------------------------|---------------------------------|


  S H        Q    E  S     H.           Q      
-----------------------|--12------------L\----|
-----------------------|--14------------L\----|
-----------------------|----------------------|
--0--------------------|----------------------|
-----------------------|----------------------|


  S S S S S S S S S S S S S S S S    S S S S S S S S S S S S S S S S  
----------------------------------|----------------------------------|
----------------------------------|----------------------------------|
----------------------------------|----------------------------------|
--7---7---7---7---7---7---7---7---|--8---8---8---8---8---8---8---8---|
----------------------------------|----------------------------------|


  S S S S S S S S S S S S S S S S    S S S S S S S S S S S S S S S S  
----------------------------------|----------------------------------|
----------------------------------|----------------------------------|
----------------------------------|----------------------------------|
--7---7---7---7---7---7---7---7---|--5---5---5---5---5---5---5---5---|
----------------------------------|----------------------------------|


  S S S S S S S S S S S S S S S S  
----------------------------------|
----------------------------------|
----------------------------------|
--7---7---7---7---7---7---7---7---|
----------------------------------|


        T  T    T  T          T  T    T  T     
  S S   S  S S  S  S  S S S   S  S S  S  S  S  
-------------9---------------------9----------|
----------10---10---------------10---10-------|
----7h-10---------10p-7---7h-10---------10p-7-|
--8---------------------8---------------------|
----------------------------------------------|


        T T   T  T          T T   T  T     
  S S   S S S S  S  S S S   S S S S  S  S  
------------9-------------------9---------|
----------9---9---------------9---9-------|
----7h-10-------10p-7---7h-10-------10p-7-|
--7-------------------7-------------------|
------------------------------------------|


       T T   T T         T T   T T                                        
  S S  S S S S S  S S S  S S S S S  S    S S S S S S S S S S S S S S S S  
-----------8-----------------8--------|----------------------------------|
---------9---9-------------9---9------|----------------------------------|
----6h-9-------9p-6---6h-9-------9p-6-|----------------------------------|
--7-----------------7-----------------|--7---7---7---7---7---7---7---7---|
--------------------------------------|----------------------------------|


  S S S S S S S S S S S S S S S S    S S S S S S S S S S S S S S S S  
----------------------------------|----------------------------------|
----------------------------------|----------------------------------|
----------------------------------|----------------------------------|
--8---8---8---8---8---8---8---8---|--7---7---7---7---7---7---7---7---|
----------------------------------|----------------------------------|


  S S S S S S S S S S S S S S S S    S S S S S S S S S S S S S S S S  
----------------------------------|----------------------------------|
----------------------------------|----------------------------------|
----------------------------------|----------------------------------|
--5---5---5---5---5---5---5---5---|--7---7---7---7---7---7---7---7---|
----------------------------------|----------------------------------|


        T  T    T  T          T  T    T  T     
  S S   S  S S  S  S  S S S   S  S S  S  S  S  
-------------9---------------------9----------|
----------10---10---------------10---10-------|
----7h-10---------10p-7---7h-10---------10p-7-|
--8---------------------8---------------------|
----------------------------------------------|


        T T   T  T          T T   T  T     
  S S   S S S S  S  S S S   S S S S  S  S  
------------9-------------------9---------|
----------9---9---------------9---9-------|
----7h-10-------10p-7---7h-10-------10p-7-|
--7-------------------7-------------------|
------------------------------------------|


       T T   T T         T T   T T                                          
  S S  S S S S S  S S S  S S S S S  S    S S S S E  S S S S E  S S S S S S  
-----------8-----------------8--------|------------------------------------|
---------9---9-------------9---9------|------------------------------------|
----6h-9-------9p-6---6h-9-------9p-6-|------------------------------------|
--7-----------------7-----------------|--3-3-3-3----3-3-3-3----3-3-3-3-3-3-|
--------------------------------------|------------------------------------|


  S S S S E  S S S S E     S S S S E  S S S S E  S S S S S S  
------------------------|------------------------------------|
------------------------|------------------------------------|
------------------------|------------------------------------|
--3-3-3-3----3-3-3-3----|--3-3-3-3----3-3-3-3----3-3-3-3-3-3-|
---------------------1--|------------------------------------|


  S S S S E  S S S S E  E     S S S S E  S S S S E   
---------------------------|------------------------|
---------------------------|------------------------|
---------------------------|------------------------|
--3-3-3-3----3-3-3-3-------|--3-3-3-3----3-3-3-3----|
---------------------1--0--|------------------------|


  S S S S S S S S S S S S S S S S    H        H         
----------------------------------|--------------------|
--------5-7-8-7-5-----------------|--------------------|
--5-6-8-----------8-6-5-----------|--------------------|
------------------------8-6-5-----|-----------7--------|
------------------------------8-6-|--5-----------------|


  S E  E  E  S S E  S S E  S    S E  E  E  S S E  S S E  S  
-----------------------------|-----------------------------|
-----------------------------|-----------------------------|
-----------------------------|----------------------2-2--2-|
--2-2--2--2--2-2-2--2-0-0--0-|--2-2--2--2--2-2-2--2--------|
-----------------------------|-----------------------------|


  S E  E  E  S S E  S S E  S  
-----------------------------|
-----------------------------|
-----------------------------|
--2-2--2--2--2-2-2--2-0-0--0-|
-----------------------------|


           T          T          T          T          T          T          T  
   |---3---|  |---3---|  |---3---|  |---3---|  |---3---|  |---3---|  |---3---|  
   S   S   S  S   S   S  S   S   S  S   S   S  S   S   S  S   S   S  S   S   S  
-------------------------------------------------------------------------------1
----------------------------------------------13h-14h-16------------13h-14h-16--
-------------12h-14h-16------------12h-14h-16------------12h-14h-16-------------
--12h-14h-16------------12h-14h-16----------------------------------------------
--------------------------------------------------------------------------------


  S E  E  E  S S E  S S E  S    S E  E  E  S S E  S S E  S  
-----------------------------|-----------------------------|
-----------------------------|-----------------------------|
-----------------------------|----------------------2-2--2-|
--2-2--2--2--2-2-2--2-0-0--0-|--2-2--2--2--2-2-2--2--------|
-----------------------------|-----------------------------|


  S E  E  E  S S E  S S E  S  
-----------------------------|
-----------------------------|
-----------------------------|
--2-2--2--2--2-2-2--2-0-0--0-|
-----------------------------|


           T          T          T          T          T          T          T  
   |---3---|  |---3---|  |---3---|  |---3---|  |---3---|  |---3---|  |---3---|  
   S   S   S  S   S   S  S   S   S  S   S   S  S   S   S  S   S   S  S   S   S  
-------------------------------------------------------------------------------1
----------------------------------------------13h-14h-16------------13h-14h-16--
-------------12h-14h-16------------12h-14h-16------------12h-14h-16-------------
--12h-14h-16------------12h-14h-16----------------------------------------------
--------------------------------------------------------------------------------


  H.           Q        E  E  E  E  E   Q    E     E  E  E  E  H         
--L------------L\----|--------------------------|-----------------------|
---------------------|--------------------------|-----------------------|
---------------------|--------7--9--------------|-----------------------|
---------------------|-----9--------------------|-----9-----7-----------|
---------------------|--7-----------7\----------|-----------------------|


  E  E  E  E  H            E  E  E   E  E  E  E  E       Q    E  E  E  E  Q     
------------------------|---------------------------|--------------------------|
------------------------|-----------11-----9--6-----|--5g7---------------------|
--------7--9------------|--------9---------------7--|--------------------------|
-----9------------------|-----7---------------------|--------------------------|
--7-----------7\--------|---------------------------|---------7-----7-----7----|


  E  E  E  E  H           E  E  E  E  H            E  Q    E  E  E  E  E   
-----------------------|------------------------|-------------------------|
-----------------------|------------------------|-------------------------|
-----------------------|--------7--9------------|-------------------------|
-----9-----7-----------|-----9------------------|-----7----7--9--9--9--9--|
-----------------------|--7-----------7\--------|-------------------------|


  E  E  E  E     E  E  E  E  H            E  E  E  E  H         
--------------|------------------------|-----------------------|
--------------|------------------------|-----------------------|
--------------|--------7--9------------|-----------------------|
--9--9--9--9--|-----9------------------|-----9-----7-----------|
--------------|--7-----------7\--------|-----------------------|


  E  E  E  E  H            E  E  E  Q    E  E  E       Q    E  E  E  E  Q     
------------------------|-------------------------|--------------------------|
------------------------|----------------9--6-----|--5g7---------------------|
--------7--9------------|--------9----------------|--------------------------|
-----9------------------|-----7-------------------|--------------------------|
--7-----------7\--------|-------------------------|---------7-----7-----7----|


  E  E   E  E   E  E   E  E     Q     E  E  E  E  Q      
-----7p--6-------------------|--------------------------|
------------6h--7------------|--------------------------|
-------------------9p--7-----|--------------------------|
--------------------------9--|--L\----------------------|
-----------------------------|--------7-----7-----7\----|


  E  E  E  E  E  E  E  E     E  E  E  E     E  E  E  E  E  E  E  E   
--------------------------|--------------|--------------------------|
--------------------------|--------------|--------------------------|
--------------------------|--------------|--3--3--3--3--3--3--3--3--|
-----7--7--7--9--9--9--9--|--9--9--9--9--|--------------------------|
--------------------------|--------------|--------------------------|


  E  E  E  E  E  E  E  E     E  E  E  E  E  E  E  E   
--------------------------|--------------------------|
--------------------------|--------------------------|
--3--3--3--3--3--3--3--3--|--------------------------|
--------------------------|--1--1--1--1--1--1--1--1--|
--------------------------|--------------------------|


  E  E  E  E  E  E  E  E     E  E  E  E  E  E  E  E   
--------------------------|--------------------------|
--------------------------|--------------------------|
--------------------------|--3--3--3--3--3--3--3--3--|
--4--4--4--4--4--4--4--4--|--------------------------|
--------------------------|--------------------------|


  E  E  E  E  E  E  E  E     E  E  E  E  E  E  E  E   
--------------------------|--------------------------|
--------------------------|--------------------------|
--3--3--3--3--3--3--3--3--|--------------------------|
--------------------------|--2--2--2--2--2--2--2--2--|
--------------------------|--------------------------|


  E  E  E  E  E  E  E  E     S E  E  S S S S S Q    S S  
--------------------------|-----------------------------|
--------------------------|-----------------------------|
--------------------------|-----------------------------|
--1--1--1--1--1--1--1--1--|--0-0--0--0-0-0-0-0------0-0-|
--------------------------|-----------------------------|


  H        E  S S S S S S    S E  E  S S S S S Q    S S  
--------------------------|-----------------------------|
--------------------------|-----------------------------|
--------------------------|-----------------------------|
--------------0-0---0-0---|--0-0--0--0-0-0-0-0------0-0-|
--------------------------|-----------------------------|


  Q    E  S S S S S S S S S S    E  E  E  E  E  E  E  E   
------------------------------|--------------------------|
------------------------------|--------------------------|
------------------------------|--3--3--3--3--3--3--3--3--|
----------0-0-0---0-0---0-0---|--------------------------|
------------------------------|--------------------------|


  E  E  E  E  E  E  E  E     E  E  E  E  E  E  E  E   
--------------------------|--------------------------|
--------------------------|--------------------------|
--3--3--3--3--3--3--3--3--|--------------------------|
--------------------------|--1--1--1--1--1--1--1--1--|
--------------------------|--------------------------|


  E  E  E  E  E  E  E  E     E  E  E  E  E  E  E  E   
--------------------------|--------------------------|
--------------------------|--------------------------|
--------------------------|--3--3--3--3--3--3--3--3--|
--4--4--4--4--4--4--4--4--|--------------------------|
--------------------------|--------------------------|


  E  E  E  E  E  E  E  E     E  E  E  E  E  E  E  E   
--------------------------|--------------------------|
--------------------------|--------------------------|
--3--3--3--3--3--3--3--3--|--------------------------|
--------------------------|--2--2--2--2--2--2--2--2--|
--------------------------|--------------------------|


  E  E  E  E  E  E  E  E     S E  E  S S S S S Q    S S  
--------------------------|-----------------------------|
--------------------------|-----------------------------|
--------------------------|-----------------------------|
--1--1--1--1--1--1--1--1--|--0-0--0--0-0-0-0-0------0-0-|
--------------------------|-----------------------------|


  H        E  S S S S S S    S E  E  S S S S S Q    S S  
--------------------------|-----------------------------|
--------------------------|-----------------------------|
--------------------------|-----------------------------|
--------------0-0---0-0---|--0-0--0--0-0-0-0-0------0-0-|
--------------------------|-----------------------------|


  Q    E  S S S S S S S S S S    S H        Q    E  S    Q    Q    Q    Q     
------------------------------|-----------------------|----------------------|
------------------------------|-----------------------|----------------------|
------------------------------|-----------------------|-------3--------------|
----------0-0-0---0-0---0-0---|--0--------------------|------------4---------|
------------------------------|-----------------------|-----------------5----|


  Q    H        Q       W                   W                 
---------------------|-------------------|-------------------|
---------------------|-------------------|-------------------|
---------------------|-------------------|-------------------|
---------------------|-------------------|-------------------|
--1------------------|-------------------|-------------------|


  W                   W                   W                   W                 
-------------------|-------------------|-------------------|-------------------|
-------------------|-------------------|-------------------|-------------------|
-------------------|-------------------|-------------------|-------------------|
-------------------|-------------------|-------------------|-------------------|
-------------------|-------------------|-------------------|-------------------|


  W                   W                   W                   W                 
-------------------|-------------------|-------------------|-------------------|
-------------------|-------------------|-------------------|-------------------|
-------------------|-------------------|-------------------|-------------------|
-------------------|-------------------|-------------------|-------------------|
-------------------|-------------------|-------------------|-------------------|


  W                   W                   W                   W                 
-------------------|-------------------|-------------------|-------------------|
-------------------|-------------------|-------------------|-------------------|
-------------------|-------------------|-------------------|-------------------|
-------------------|-------------------|-------------------|-------------------|
-------------------|-------------------|-------------------|-------------------|


  W                   W                   W                   W                 
-------------------|-------------------|-------------------|-------------------|
-------------------|-------------------|-------------------|-------------------|
-------------------|-------------------|-------------------|-------------------|
-------------------|-------------------|-------------------|-------------------|
-------------------|-------------------|-------------------|-------------------|


  W                   W                   W                   W                 
-------------------|-------------------|-------------------|-------------------|
-------------------|-------------------|-------------------|-------------------|
-------------------|-------------------|-------------------|-------------------|
-------------------|-------------------|-------------------|-------------------|
-------------------|-------------------|-------------------|-------------------|


  W                   W                   W                   W                 
-------------------|-------------------|-------------------|-------------------|
-------------------|-------------------|-------------------|-------------------|
-------------------|-------------------|-------------------|-------------------|
-------------------|-------------------|-------------------|-------------------|
-------------------|-------------------|-------------------|-------------------|


  W                  
-------------------||
-------------------||
-------------------||
-------------------||
-------------------||




Duration Legend
---------------
W - whole
H - half
Q - quarter
E - 8th
S - 16th
T - 32nd
X - 64th
. - note dotted
|-n-|  - n-tuplets


Tablature Legend
----------------
L - tied note
x - dead note
g - grace note
(n) - ghost note
> - accentuded note
NH - natural harmonic
AH - artificial harmonic
TH - tapped harmonic
SH - semi harmonic
PH - pitch harmonic
h - hammer on
p - pull off
b - bend
br - bendRelease
pb - preBend
pbr - preBendRelease
brb - bendReleaseBend
\n/ - tremolo bar dip
\n - tremolo bar dive
-/n - tremolo bar Release up
/n\ - tremolo bar inverted dip
/n - tremolo bar return
-\n - tremolo bar Release down
S - shift slide
s - legato slide
/ -  slide into from below or out of upwards
\ -  slide into from above or out of downwards
~ - vibrato
W - wide vibrato
tr - trill
TP - tremolo picking
T - tapping
S - slap
P - pop
< - fade in
^ - brush up
v - brush down
comments
We did not receive enough feedback on this tab! Please rate:
print report bad tab
1 2 3 4 5
2 comments total.
0 reply
xDallasx wrote on July 15 2009, 04:51 am

the intro you put is wrong
after the beginning rest there is a slap part

0 reply
MoTTKidd wrote on August 21 2009, 09:31 pm

I know there is a slap part there. I also did not tab this though, Tom Delonge II did. I put this here for the people who do not have guitar pro because that is what Tom Delonge II used.

I want to post or [tab]
guest
You may want to rate the tab now too:
select rating
Please do not post tabs as comments. Select "correction" instead!