Oops, an error
Loading. Please wait.

Bury The Hatchet Tab

ver1
ver1

Whole song

Interactive

More versions @911Tabs.com
7,913 views 12 this week
no commentswrite comment
1 2 3 4 5
accurate
x 1
Autoscroll
+/-
esc
set tempo
stop
Contributor
Difficulty
Tuning
advanced
C# G# C# F# A# D#
Hey! There's an official Ultimate Guitar app which is ideal
for learning songs when you're away from computer. Get the app
WARNING: You are trying to view
                                    content from Ultimate-Guitar.com
                                    in an unauthorized application,
                                    which is prohibited.

                                    Please use an official Ultimate
                                    Guitar Tabs application for iPhone,
                                    iPad or Android to access legitimate
                                    chords, guitar, bass, and drum tabs
                                    from Ultimate-Guitar.com database.

                                    Type "ultimate guitar tabs" in Apple
                                    App Store's or Android Market's
                                    search to find the application.
Bury the Hatchet - Protest the Hero

Sorry it's long, I exported it from Guitar Pro. Luke's part is shown first, then Tim's. 
general Luke does the lead, and Tim the rhythm and harmonies, but that's not always the 
Enjoy.

Luke Hoskin

      E  E  E  E  E  E  E  E     E  E  E  E  E  E  E  E
D#||--------------------------|--------------------------|
A#||--------------------------|--------------------------|
F#||--------------------------|--------------------------|
C#||-----------8-----------7--|-----------6--------------|
G#||--5--7--5-----5--7--5-----|--5--8--5-----5--5--8--7--|
C#||--------------------------|--------------------------|


  E  E  E  E  E  E  E  E     E  E  E  E  E  E  E  E
--------------------------|--------------------------|
--------------------------|--------------------------|
--------------------------|--------------------------|
-----------8-----------7--|--------------------------|
--5--7--5-----5--7--5-----|--3--5--------7--8--7--3--|
--------------------------|--------8--7--------------|


  E  E  E  E  E  E  E  E     E  E  E  E  E  E  E  E
--------------------------|--------------------------|
--------------------------|--------------------------|
--------------------------|--------------------------|
-----------8-----------7--|-----------6--------------|
--5--7--5-----5--7--5-----|--5--8--5-----5--5--8--7--|
--------------------------|--------------------------|


  E  E  E  E  E  E  E  E     E  E  E  E  E  E
--------------------------|--------------------|
--------------------------|--------------------|
--------------------------|--------------------|
-----------8-----------7--|--------------------|
--5--7--5-----5--7--5-----|--8--7--5--0--------|
--------------------------|--------------3--0--|


  PM   PM                               PM   PM
  Q    E  E  E  E  E  E  E  E  E  E     Q    E  E  E  E  E  E  E    Q.
-------------------------------------|---------------------------------------|
-------------------------------------|---------------------------------------|
-------------------------------------|---------------------------------------|
--0----0--3-----------------------3--|--0----0--3----------------------------|
--0----0-----5--4--0--1--0--3--5-----|--0----0-----5--4--3-------------------|
--0----0-----------------------------|--0----0--------------5--4--<>6b~------|


  PM   PM
  Q    E  E  E  E  E  E  E  E  E  E
-------------------------------------|
-------------------------------------|
-------------------------------------|
--0----0--3-----------7--------------|
--0----0-----5--4--8-----8--3--5--0--|
--0----0-----------------------------|


  E  E   E  E  E  E  E   E   E  E  E   E
------------------------------------------|
------------------------------------------|
------------------------------------------|
------------------------------------------|
------------5--7--8-------------7--8--10--|
--7--8--10-----------8--10--12------------|


  PM   PM                               PM   PM
  Q    E  E  E  E  E  E  E  E  E  E     Q    E  E  E  E  E  E  E    Q.
-------------------------------------|---------------------------------------|
-------------------------------------|---------------------------------------|
-------------------------------------|---------------------------------------|
--0----0--3-----------------------3--|--0----0--3----------------------------|
--0----0-----5--4--0--1--0--3--5-----|--0----0-----5--4--3-------------------|
--0----0-----------------------------|--0----0--------------5--4--<>6b~------|


  PM   PM
  Q    E  E  E  E  E  E  E  E  E  E
-------------------------------------|
-------------------------------------|
-------------------------------------|
--0----0--3-----------7--------------|
--0----0-----5--4--8-----8--3--5--0--|
--0----0-----------------------------|


  E  E   E  E  E  E  E   E   E  E  E   E
------------------------------------------|
------------------------------------------|
------------------------------------------|
------------------------------------------|
------------5--7--8-------------7--8--10--|
--7--8--10-----------8--10--12------------|


  PM PM PM           PM PM PM
  E  E  E   E  E  E  E  E  E   E  E  E
----------------------------------------|
----------------------------------------|
----------------------------------------|
----------------------------------------|
-----------12-----8-----------10-----7--|
--0--0--0------------0--0--0------------|


  PM PM PM          PM PM PM               PM PM PM          PM PM PM
  E  E  E  E  E  E  E  E  E  E   E   E     E  E  E  E  E  E  E  E  E  E  E  E
----------------------------------------|--------------------------------------|
----------------------------------------|--------------------------------------|
----------------------------------------|--------------------------------------|
----------------------------------------|--------------------------------------|
-----------8-----5-----------3h--5h--7--|-----------5-----7-----------5-----8--|
--0--0--0-----------0--0--0-------------|--0--0--0-----------0--0--0-----------|


  PM PM PM
  E  E  E  E  E   E   E  E  E   E  E  E
---------------------10--7---------------|
----------------------------9------------|
-------------------------------10--7-----|
--------------------------------------9--|
-----------7-----10----------------------|
--0--0--0--------------------------------|


  PM PM PM           PM PM PM
  E  E  E   E  E  E  E  E  E   E  E  E
----------------------------------------|
----------------------------------------|
----------------------------------------|
----------------------------------------|
-----------12-----8-----------10-----7--|
--0--0--0------------0--0--0------------|


  PM PM PM          PM PM PM
  E  E  E  E  E  E  E  E  E  E   E   E
----------------------------------------|
----------------------------------------|
----------------------------------------|
----------------------------------------|
-----------8-----5-----------3h--5h--7--|
--0--0--0-----------0--0--0-------------|


  E   E    E  E   E   E  E    E    E  E   E    E
--------------------------------------------------|
--------------------------------------------------|
--------------------------------------------------|
--------------------------------------------------|
--------------5h--7h--8---------------7h--8h--10--|
--7h--8h--10-------------8h--10h--12--------------|


  E   E   E  E   E   E  E   E   E  E   E   E
----------------------------------------------|
----------------------------------------------|
----------------------------------------------|
-------------3h--5h--7--8p--7p--5-------------|
--3h--5h--7------------------------8p--7p--5--|
----------------------------------------------|


  PM PM PM             PM PM PM
  E  E  E   E  E    E  E  E  E   E  E   E
-------------------------------------------|
-------------------------------------------|
-----------14--Ls--10-----------12--Ls--9--|
------------x--------------------x---------|
-----------12--Ls---8-----------10--Ls--7--|
--0--0--0--------------0--0--0-------------|


  PM PM PM            PM PM PM
  E  E  E   E  E   E  E  E  E  E   E   E
------------------------------------------|
------------------------------------------|
-----------10--Ls--7----------------------|
------------x-----------------------------|
------------8--Ls--5-----------3h--5h--7--|
--0--0--0-------------0--0--0-------------|


  PM PM PM           PM PM PM
  E  E  E  E  E   E  E  E  E  E  E    E
-----------------------------------------|
-----------------------------------------|
-----------7--Ls--9-----------7--Ls--10--|
-----------x------------------x----------|
-----------5--Ls--7-----------5--Ls---8--|
--0--0--0------------0--0--0-------------|


  PM PM PM
  E  E  E  E  E    E   E   E   E   E   E   E
----------------------10----------------------|
--------------------------12------------------|
-----------9--Ls--12----------13--10----------|
-----------x--------------------------12------|
-----------7--Ls--10----------------------14--|
--0--0--0-------------------------------------|


  PM PM PM             PM PM PM
  E  E  E   E  E    E  E  E  E   E  E   E
-------------------------------------------|
-------------------------------------------|
-----------14--Ls--10-----------12--Ls--9--|
------------x--------------------x---------|
-----------12--Ls---8-----------10--Ls--7--|
--0--0--0--------------0--0--0-------------|


  PM PM PM            PM PM PM
  E  E  E   E  E   E  E  E  E  E   E   E
------------------------------------------|
------------------------------------------|
-----------10--Ls--7----------------------|
------------x-----------------------------|
------------8--Ls--5-----------3h--5h--7--|
--0--0--0-------------0--0--0-------------|


  E   E    E  E   E   E  E    E    E  E   E    E
--------------------------------------------------|
--------------------------------------------------|
--------------------------------------------------|
--------------------------------------------------|
--------------5h--7h--8---------------7h--8h--10--|
--7h--8h--10-------------8h--10h--12--------------|


  E   E   E  E   E   E  E   E   E  E   E   E
----------------------------------------------|
----------------------------------------------|
----------------------------------------------|
-------------3h--5h--7--8p--7p--5-------------|
--3h--5h--7------------------------8p--7p--5--|
----------------------------------------------|


  E   E    E  E   E   E  E    E    E  E   E    E
--------------------------------------------------|
--------------------------------------------------|
--------------------------------------------------|
--------------------------------------------------|
--------------5h--7h--8---------------7h--8h--10--|
--7h--8h--10-------------8h--10h--12--------------|


                                                              PM PM PM
  E   E   E  E   E   E  E   E   E  E   E   E     H.           E  E  E  Q.
----------------------------------------------|-------------------------------|
----------------------------------------------|-------------------------------|
----------------------------------------------|------------------------5------|
-------------3h--5h--7--8p--7p--5-------------|--0------------0--0--0--5------|
--3h--5h--7------------------------8p--7p--5--|--0------------0--0--0--3------|
----------------------------------------------|--0------------0--0--0---------|


               PM PM PM
  H.           E  E  E  Q.        H.           H.
-------------------------------|----------------------------|
-------------------------------|----------------------------|
--4---------------------4------|--3------------3------------|
--4------------0--0--0--4------|--3------------3------------|
--2------------0--0--0--2------|--1------------1------------|
---------------0--0--0---------|----------------------------|


                                                      PM PM PM
  E  E  E  E  E  E  E  E  E  E  E  E     H.           E  E  E  Q.
--------------------------------------|-------------------------------|
--------------------------------------|-------------------------------|
-----------8--7--6-----------8--7--6--|------------------------5------|
--8--7--6-----------8--7--6-----------|--0------------0--0--0--5------|
--------------------------------------|--0------------0--0--0--3------|
--------------------------------------|--0------------0--0--0---------|


               PM PM PM
  H.           E  E  E  Q.        H.           H.
-------------------------------|----------------------------|
-------------------------------|----------------------------|
--4---------------------4------|--3------------3------------|
--4------------0--0--0--4------|--3------------3------------|
--2------------0--0--0--2------|--1------------1------------|
---------------0--0--0---------|----------------------------|


  E  E  E  E  E  E  E  E  E  E  E  E
--------------------------------------|
--------------------------------------|
-----------8--7--6-----------8--7--6--|
--8--7--6-----------8--7--6-----------|
--------------------------------------|
--------------------------------------|


   E   E   E   E   E   E   E   E   E   E   E   E
----------13--17--13--------------13--17--13------|
------15--------------15------15--------------15--|
--14----------------------14----------------------|
--------------------------------------------------|
--------------------------------------------------|
--------------------------------------------------|


   E   E   E   E   E   E   E   E   E   E   E   E
----------13--17--13--------------13--17--13------|
------15--------------15------15--------------15--|
--14----------------------14----------------------|
--------------------------------------------------|
--------------------------------------------------|
--------------------------------------------------|


   E   E   E   E   E   E   E   E   E   E   E   E
----------13--16--13--------------13--16--13------|
------15--------------15------15--------------15--|
--13----------------------13----------------------|
--------------------------------------------------|
--------------------------------------------------|
--------------------------------------------------|


   E   E   E   E   E   E   E   E   E   E   E   E
--------------------------------------------------|
--------------16--15--14--------------16--15--14--|
--15--14--13--------------15--14--13--------------|
--------------------------------------------------|
--------------------------------------------------|
--------------------------------------------------|


   E   E   E   E   E   E   E   E   E   E   E   E
----------13--17--13--------------13--17--13------|
------15--------------15------15--------------15--|
--14----------------------14----------------------|
--------------------------------------------------|
--------------------------------------------------|
--------------------------------------------------|


   E   E   E   E   E   E   E   E   E   E   E   E
----------13--17--13--------------13--17--13------|
------15--------------15------15--------------15--|
--14----------------------14----------------------|
--------------------------------------------------|
--------------------------------------------------|
--------------------------------------------------|


   E   E   E   E   E   E   E   E   E   E   E   E
----------13--16--13--------------13--16--13------|
------15--------------15------15--------------15--|
--13----------------------13----------------------|
--------------------------------------------------|
--------------------------------------------------|
--------------------------------------------------|


   E   E   E   E   E   E   E   E   E   E   E   E
--------------------------------------------------|
--------------16--15--14--------------16--15--14--|
--15--14--13--------------15--14--13--------------|
--------------------------------------------------|
--------------------------------------------------|
--------------------------------------------------|


     PM PM PM    PM PM      PM PM      PM PM   PM PM
  E  E  S  S  E  S  S  Q    S  S     S S  S  S S  S  E  S  S  E  E   E
----------------------------------|-------------------------------------|
----------------------------------|-------------------------------------|
----------------------------------|-------------------------------------|
-----0--0--0-----0--0-------0--0--|----0--0----0--0---------------------|
-----0--0--0-----0--0-------0--0--|----0--0----0--0-----8p-7p-5--7--10--|
-----0--0--0-----0--0-------0--0--|----0--0----0--0---------------------|


     PM PM PM    PM PM      PM PM
  E  E  S  S  E  S  S  Q    S  S     E  E   S  S E   E  E  E  E
----------------------------------|------------------------------|
----------------------------------|------------------------------|
----------------------------------|------------------------------|
-----0--0--0-----0--0-------0--0--|-----7------------------------|
-----0--0--0-----0--0-------0--0--|--------10p-8-7--10-----8--7--|
-----0--0--0-----0--0-------0--0--|------------------------------|


     PM PM PM    PM PM      PM PM      PM PM   PM PM
  E  E  S  S  E  S  S  Q    S  S     S S  S  S S  S  E  S  S  E  E   E
----------------------------------|-------------------------------------|
----------------------------------|-------------------------------------|
----------------------------------|-------------------------------------|
-----0--0--0-----0--0-------0--0--|----0--0----0--0---------------------|
-----0--0--0-----0--0-------0--0--|----0--0----0--0-----8p-7p-5--7--10--|
-----0--0--0-----0--0-------0--0--|----0--0----0--0---------------------|


     PM PM PM    PM PM      PM
  E  E  S  S  E  S  S  Q    E
-------------------------------|
-------------------------------|
-------------------------------|
-----0--0--0-----0--0-------0--|
-----0--0--0-----0--0-------0--|
-----0--0--0-----0--0-------0--|


               T            T            T
  S  S  S  S   S  S  S  S   S  S  S  S   S  S  S  S
----------------------------------------------------|
----------------------------------------------------|
----------------------------------------------------|
--8p-7h-8p-7h-14p-7h-8p-7h-15p-7h-8p-7h-14p-7h-8p-7-|
----------------------------------------------------|
----------------------------------------------------|


     PM PM PM    PM PM      PM PM      PM PM   PM PM
  E  E  S  S  E  S  S  Q    S  S     S S  S  S S  S  E  S  S  E  E   E
----------------------------------|-------------------------------------|
----------------------------------|-------------------------------------|
----------------------------------|-------------------------------------|
-----0--0--0-----0--0-------0--0--|----0--0----0--0---------------------|
-----0--0--0-----0--0-------0--0--|----0--0----0--0-----8p-7p-5--7--10--|
-----0--0--0-----0--0-------0--0--|----0--0----0--0---------------------|


     PM PM PM    PM PM      PM PM
  E  E  S  S  E  S  S  Q    S  S     E  E   S  S E   E  E  E  E
----------------------------------|------------------------------|
----------------------------------|------------------------------|
----------------------------------|------------------------------|
-----0--0--0-----0--0-------0--0--|-----7------------------------|
-----0--0--0-----0--0-------0--0--|--------10p-8-7--10-----8--7--|
-----0--0--0-----0--0-------0--0--|------------------------------|


     PM PM PM    PM PM      PM PM      PM PM   PM PM
  E  E  S  S  E  S  S  Q    S  S     S S  S  S S  S  E  S  S  E  E   E
----------------------------------|-------------------------------------|
----------------------------------|-------------------------------------|
----------------------------------|-------------------------------------|
-----0--0--0-----0--0-------0--0--|----0--0----0--0---------------------|
-----0--0--0-----0--0-------0--0--|----0--0----0--0-----8p-7p-5--7--10--|
-----0--0--0-----0--0-------0--0--|----0--0----0--0---------------------|


     PM PM PM    PM PM      PM
  E  E  S  S  E  S  S  Q    E
-------------------------------|
-------------------------------|
-------------------------------|
-----0--0--0-----0--0-------0--|
-----0--0--0-----0--0-------0--|
-----0--0--0-----0--0-------0--|


               T            T            T
  S  S  S  S   S  S  S  S   S  S  S  S   S  S  S  S Q
---------------------------------------------------------|
---------------------------------------------------------|
---------------------------------------------------------|
--8p-7h-8p-7h-14p-7h-8p-7h-15p-7h-8p-7h-14p-7h-8p-7------|
---------------------------------------------------------|
---------------------------------------------------------|


  PM                              PM PM PM PM
  E   E   E   E   E   E      Q    E  E  S  S  E      E   E   E   E   E   E
-----15--13--10----------|-----------------------|--------------------------|
-----------------11------|-----------------------|--------------------------|
---------------------10--|-----------------------|----------------------10--|
--0----------------------|--12----0--0--0--0-----|------12------12--14------|
--0----------------------|--------0--0--0--0-----|--13------13--------------|
--0----------------------|--------0--0--0--0-----|--------------------------|


                            PM                              PM PM PM PM
   Q      E   E   E   E     E   E   E   E   E   E      Q    E  E  S  S  E
-------------------------|-----15--13--10----------|-----------------------|
-----------------13--17--|-----------------11------|-----------------------|
--12b----10--14----------|---------------------10--|-----------------------|
-------------------------|--0----------------------|--12----0--0--0--0-----|
-------------------------|--0----------------------|--------0--0--0--0-----|
-------------------------|--0----------------------|--------0--0--0--0-----|


                                                       PM
   E   E   E   E   E   E      Q      E   E   E   E     E   E   E   E   E   E
--------------------------|-------------------------|-----15--13--10----------|
--------------------------|-----------------13--17--|-----------------11------|
----------------------10--|--12b----10--14----------|---------------------10--|
------12------12--14------|-------------------------|--0----------------------|
--13------13--------------|-------------------------|--0----------------------|
--------------------------|-------------------------|--0----------------------|


        PM PM PM PM
   Q    E  E  S  S  E      E   E   E   E   E   E      Q      E   E   E   E
-----------------------|--------------------------|-------------------------|
-----------------------|--------------------------|-----------------13--17--|
-----------------------|----------------------10--|--12b----10--14----------|
--12----0--0--0--0-----|------12------12--14------|-------------------------|
--------0--0--0--0-----|--13------13--------------|-------------------------|
--------0--0--0--0-----|--------------------------|-------------------------|


  PM                              PM PM PM PM
  E   E   E   E   E   E      Q    E  E  S  S  E      E   E   E   E   E   E
-----15--13--10----------|-----------------------|--------------------------|
-----------------11------|-----------------------|--------------------------|
---------------------10--|-----------------------|--------------------------|
--0----------------------|--12----0--0--0--0-----|------12------12--14--12--|
--0----------------------|--------0--0--0--0-----|--13------13--------------|
--0----------------------|--------0--0--0--0-----|--------------------------|


   |---3---|          |---3---|   |---3---|
   E   E   E   E  E   E   E   E   E   E   E      E  Q    E  S E.
---------------------------------------------|--------------------|
---------------------------------------------|--------------------|
--------------12-----------------------------|--------------------|
--12--14--15---------15--14--12--14--12------|--------------------|
-----------------------------------------13--|--12------------7---|
---------------------------------------------|--------------------|


    H.            E  E      E  E  E  E  E  E  E  E     E  E  E  E  E  E  E  E
-------------------------|--------------------------|--------------------------|
-------------------------|--------------------------|--------------------------|
-------------------------|--------------------------|--------------------------|
--<>7~------------L--L\--|-----------8-----------7--|-----------6--------------|
-------------------------|--5--7--5-----5--7--5-----|--5--8--5-----5--5--8--7--|
-------------------------|--------------------------|--------------------------|


  E  E  E  E  E  E  E  E     E  E  E  E  E  E  E  E
--------------------------|--------------------------|
--------------------------|--------------------------|
--------------------------|--------------------------|
-----------8-----------7--|--------------------------|
--5--7--5-----5--7--5-----|--3--5--------7--8--7--3--|
--------------------------|--------8--7--------------|


  E  E  E  E  E  E  E  E     E  E  E  E  E  E  E  E
--------------------------|--------------------------|
--------------------------|--------------------------|
--------------------------|--------------------------|
-----------8-----------7--|-----------6--------------|
--5--7--5-----5--7--5-----|--5--8--5-----5--5--8--7--|
--------------------------|--------------------------|


  E  E  E  E  E  E  E  E     E  E  E  E  E  Q    E
--------------------------|-------------------------|
--------------------------|-------------------------|
--------------------------|-------------------------|
-----------8-----------7--|----------------------0--|
--5--7--5-----5--7--5-----|--8--7--5--0----------0--|
--------------------------|--------------3--0----0--|


        PM    PM    PM        PM     PM PM       PM
  E  E  E  E  E  E  E   E     E   E  E  E  E  E  E  E
---------------------------|---------------------------|
---------------------------|---------------------------|
---------------------------|---------------------------|
--L------------------------|---------------------------|
--L--8--5-----5--8-----10--|-----12--------2--5-----8--|
--L-----------------0------|--0------0--0--------0-----|


        PM    PM    PM        PM          PM
  E  E  E  E  E  E  E   E     E  E  E  E  E  E  Q
---------------------------|--------------------------|
---------------------------|--------------------------|
---------------------------|--------------------------|
---------------------------|-----7--------------------|
-----8--5-----5--8-----10--|--------8--------5--4~----|
--------------------0------|--0--------7--0-----------|


       PM PM PM PM PM
  Q    E  E  E  E  E  E     E  E  Q    E  E  E  E     E  E  Q    E  E  E  E
-------------------------|-------------------------|-------------------------|
-------------------------|-------------------------|-------------------------|
----------------------7--|--L--7--7----7--7--7--9--|--L--9--9----9--9--9-----|
--0----0--0--0--0--0--x--|--L--x--x----x--x--x--x--|-----x--x----x--x--x-----|
--0----0--0--0--0--0--5--|--L--5--5----5--5--5--7--|--L--7--7----7--7--7-----|
--0----0--0--0--0--0-----|-------------------------|----------------------1--|


                                  PM PM PM PM PM
  E  E  E  E  E  E  E  E     Q    E  E  E  E  E  E     E  E  Q    E  E  E  E
--------------------------|-------------------------|-------------------------|
--------------------------|-------------------------|-------------------------|
--------------------------|----------------------7--|--L--7--7----7--7--7--9--|
-----------------------0--|--L----0--0--0--0--0--x--|--L--x--x----x--x--x--x--|
-----------------------0--|--L----0--0--0--0--0--5--|--L--5--5----5--5--5--7--|
--L--5--3--1--3--7--5--0--|--L----0--0--0--0--0-----|-------------------------|


  E  E  Q    E  E  E  E     E  E  E  E  E  E  E  E
-------------------------|--------------------------|
-------------------------|--------------------------|
--L--9--9----9--9--9-----|--------------------------|
-----x--x----x--x--x-----|-----------------------0--|
--L--7--7----7--7--7-----|-----------------------0--|
----------------------1--|--L--5--3--1--3--7--5--0--|


              PM    PM        PM     PM PM       PM
  E  E  E  E  E  E  E   E     E   E  E  E  E  E  E  E
---------------------------|---------------------------|
---------------------------|---------------------------|
---------------------------|---------------------------|
--L------------------------|---------------------------|
--L--8--5-----5--8-----10--|-----12--------2--5-----8--|
--L-----------------0------|--0------0--0--------0-----|


              PM    PM        PM          PM
  E  E  E  E  E  E  E   E     E  E  E  E  E  E  Q
---------------------------|-------------------------|
---------------------------|-------------------------|
---------------------------|-------------------------|
---------------------------|-----7-------------------|
-----8--5-----5--8-----10--|--------8--------5--4----|
--------------------0------|--0--------7--0----------|


  PM          PM    PM        PM     PM PM       PM
  E  E  E  E  E  E  E   E     E   E  E  E  E  E  E  E
---------------------------|---------------------------|
---------------------------|---------------------------|
---------------------------|---------------------------|
---------------------------|---------------------------|
-----8--5-----5--8-----10--|-----12--------2--5-----8--|
--0-----------------0------|--0------0--0--------0-----|


              PM    PM        PM          PM
  E  E  E  E  E  E  E   E     E  E  E  E  E  E    Q
---------------------------|----------------------------|
---------------------------|----------------------------|
---------------------------|----------------------------|
---------------------------|-----7--------------<>3~----|
-----8--5-----5--8-----10--|--------8--------5----------|
--------------------0------|--0--------7--0-------------|


  E  E  E   E   E   E  E  E     E  E   E   E   E   E
-----------------------------|------------------------|
-----------------------------|------------------------|
-----------------------------|------------------------|
--------5h--7p--5s--4--------|-----7h--9p--7s--5s--4--|
--3--3-----------------0--5--|--5---------------------|
-----------------------------|------------------------|


  PM PM      PM PM      PM PM          PM PM      PM PM      PM
  S  S  Q    S  S  Q    S  S  E     E  S  S  Q    S  S  Q    E
---------------------------------|------------------------------|
---------------------------------|------------------------------|
---------------------------------|------------------------------|
--0--0-------0--0-------0--0-----|-----0--0-------0--0-------0--|
--0--0-------0--0-------0--0-----|-----0--0-------0--0-------0--|
--0--0-------0--0-------0--0-----|-----0--0-------0--0-------0--|


  E  E  E   E   E   E  E  E     E  E   E  E  E   E
-----------------------------|----------------------|
-----------------------------|---------------7h--8--|
-----------------------------|------------7---------|
--------5h--7p--5s--4--------|-----7h--9------------|
--3--3-----------------0--5--|--5-------------------|
-----------------------------|----------------------|


  PM PM      PM PM                 PM PM      PM PM
  S  S  Q    S  S  Q      Q        S  S  Q    S  S  Q      Q
--------------------------------|--------------------------------|
--------------------------------|--------------------------------|
------------------------<>7~----|--------------------------------|
--0--0-------0--0---------------|--0--0-------0--0-------<>7~----|
--0--0-------0--0---------------|--0--0-------0--0---------------|
--0--0-------0--0---------------|--0--0-------0--0---------------|


  E  E  E   E   E   E  E  E     E  E   E   E   E   E
-----------------------------|------------------------|
-----------------------------|------------------------|
-----------------------------|------------------------|
--------5h--7p--5s--4--------|-----7h--9p--7s--5s--4--|
--3--3-----------------0--5--|--5---------------------|
-----------------------------|------------------------|


  PM PM      PM PM      PM PM          PM PM      PM PM      PM
  S  S  Q    S  S  Q    S  S  E     E  S  S  Q    S  S  Q    E
---------------------------------|------------------------------|
---------------------------------|------------------------------|
---------------------------------|------------------------------|
--0--0-------0--0-------0--0-----|-----0--0-------0--0-------0--|
--0--0-------0--0-------0--0-----|-----0--0-------0--0-------0--|
--0--0-------0--0-------0--0-----|-----0--0-------0--0-------0--|


  E  E  E   E   E   E  E  E     E  E   E  E  E   E
-----------------------------|----------------------|
-----------------------------|---------------7h--8--|
-----------------------------|------------7---------|
--------5h--7p--5s--4--------|-----7h--9------------|
--3--3-----------------0--5--|--5-------------------|
-----------------------------|----------------------|


  PM PM      PM PM
                               |---3---|  |---3---|  |----3---|  |----3---|
  S  S  Q    S  S  H           E   E   E  E   E   E  E   E    E  E   E    E
----------------------------|------------------------------------------------|
----------------------------|------------------------------------------------|
----------------------------|------------------------------------------------|
--0--0-------0--0-----------|-------------5h--7h--8--------------7h--8h--10--|
--0--0-------0--0-----------|--5h--7h--8-------------7h--8h--10--------------|
--0--0-------0--0-----------|------------------------------------------------|


                               PM PM    PM
  W                   H        E  E  E  E     W
-------------------|-----------------------|-------------------|
-------------------|-----------------------|-------------------|
-------------------|-----------------------|-------------------|
--0----------------|--L--------0--0-----0--|--0----------------|
--0----------------|--L--------0--0-----0--|--0----------------|
--0----------------|--L--------0--0-----0--|--0----------------|


                      PM PM PM PM PM PM PM PM    PM PM PM PM PM PM PM PM
  W                   E  E  E  E  E  E  E  E     E  E  E  E  E  E  E  E
-------------------|--------------------------|--------------------------|
-------------------|--------------------------|--------------------------|
-------------------|--------------------------|--------------------------|
--L----------------|--------------------------|--------------------------|
--L----------------|--5--5--5--5--5--4--4--3--|--3--0--------------------|
--L----------------|--------------------------|--------5--0--5--4--3--3--|


  PM PM PM PM PM PM PM PM    PM PM PM
  E  E  E  E  E  E  E  E     E  E  E  E  E  E  E  E
--------------------------|--------------------------|
--------------------------|--------------------------|
--------------------------|--------------------------|
--------------------------|--------------------------|
-----------5--5--4--4--3--|--3--0--------------------|
--0--0--0-----------------|--------5--0--5--4--3--3--|


  E  E  E  E  E  E  E  E     E  E  E  E  E  E  E  E
--------------------------|--------------------------|
--------------------------|--------------------------|
-----------7--7--6--6--5--|--5-----------------------|
--0--0--0--7--7--6--6--5--|--5--7--5--0--5--4--3--3--|
--0--0--0--5--5--4--4--3--|--3--7--5--0--5--4--3--3--|
--0--0--0-----------------|-----7--5--0--5--4--3--3--|


  E  E  E  E  E  E  E  E     E  E  E  E  E  E  E  E
--------------------------|--------------------------|
--------------------------|--------------------------|
-----------7--7--6--6--5--|--5-----------------------|
--0--0--0--7--7--6--6--5--|--5--7--5--0--5--4--3--3--|
--0--0--0--5--5--4--4--3--|--3--7--5--0--5--4--3--3--|
--0--0--0-----------------|-----7--5--0--5--4--3--3--|


  E  E  E  E  E  E  E  E     E  E  E  E  E  E  E  E
--------------------------|--------------------------|
--------------------------|--------------------------|
-----------7--7--6--6--5--|--5-----------------------|
--0--0--0--7--7--6--6--5--|--5--7--5--0--5--4--3--3--|
--0--0--0--5--5--4--4--3--|--3--7--5--0--5--4--3--3--|
--0--0--0-----------------|-----7--5--0--5--4--3--3--|


  E  E  E  E  E  E  E  E     E  E  E  E  E  E  E  E
--------------------------|--------------------------|
--------------------------|--------------------------|
-----------7--7--6--6--5--|--5-----------------------|
--0--0--0--7--7--6--6--5--|--5--7--5--0--5--4--3--3--|
--0--0--0--5--5--4--4--3--|--3--7--5--0--5--4--3--3--|
--0--0--0-----------------|-----7--5--0--5--4--3--3--|


  PM PM PM PM PM PM PM PM    PM PM PM PM PM PM PM PM    PM
  E  E  E  E  E  E  E  E     E  E  E  E  E  E  E  E     E  Q    E
--------------------------|--------------------------|-------------|
--------------------------|--------------------------|-------------|
--------------------------|--------------------------|-------------|
-----------8-----------7--|-----------6--------------|--0----------|
--5--7--5-----5--7--5-----|--5--8--5-----5--8--8--7--|--0----------|
--------------------------|--------------------------|--0----------|


  PM PM PM PM PM PM PM PM    PM PM PM PM PM PM PM PM    PM
  E  E  E  E  E  E  E  E     E  E  E  E  E  E  E  E     E  Q    E
--------------------------|--------------------------|-------------|
--------------------------|--------------------------|-------------|
--------------------------|--------------------------|-------------|
-----------8-----------7--|-----------6--------------|--0----------|
--5--7--5-----5--7--5-----|--5--8--5-----5--8--8--7--|--0----------|
--------------------------|--------------------------|--0----------|


  PM PM PM PM PM PM PM PM    PM PM PM PM PM PM PM PM    PM
  E  E  E  E  E  E  E  E     E  E  E  E  E  E  E  E     E  Q    E
--------------------------|--------------------------|-------------|
--------------------------|--------------------------|-------------|
--------------------------|--------------------------|-------------|
-----------8-----------7--|-----------6--------------|--0----------|
--5--7--5-----5--7--5-----|--5--8--5-----5--8--8--7--|--0----------|
--------------------------|--------------------------|--0----------|


  PM PM PM PM PM PM PM PM    PM PM PM PM PM PM PM PM    PM
  E  E  E  E  E  E  E  E     E  E  E  E  E  E  E  E     E  Q    E
--------------------------|--------------------------|-------------|
--------------------------|--------------------------|-------------|
--------------------------|--------------------------|-------------|
-----------8-----------7--|-----------6--------------|--0----------|
--5--7--5-----5--7--5-----|--5--8--5-----5--8--8--7--|--0----------|
--------------------------|--------------------------|--0----------|


  PM PM PM PM PM PM PM PM    PM PM PM PM PM PM PM PM    PM
  E  E  E  E  E  E  E  E     E  E  E  E  E  E  E  E     E  Q    E
--------------------------|--------------------------|-------------||
--------------------------|--------------------------|-------------||
--------------------------|--------------------------|-------------||
-----------8-----------7--|-----------6--------------|--0----------||
--5--7--5-----5--7--5-----|--5--8--5-----5--8--8--7--|--0----------||
--------------------------|--------------------------|--0----------||


Tim Millar

      E   E  E   E  E   E  E   E     E   E  E  E  E  E   E   E
D#||------------------------------|-----------------------------|
A#||------------------------------|-----------------------------|
F#||------------------------------|-----------------------------|
C#||------------12------------10--|------------9----------------|
G#||--8--10--8------8--10--8------|--8--12--8-----8--8--12--10--|
C#||------------------------------|-----------------------------|


  E   E  E   E  E   E  E   E     E  E   E   E   E   E   E  E
------------------------------|-------------------------------|
------------------------------|-------------------------------|
------------------------------|-------------------------------|
------------12------------10--|-------------------------------|
--8--10--8------8--10--8------|--7--8----------10--12--10--7--|
------------------------------|--------12--10-----------------|


  E   E  E   E  E   E  E   E     E   E  E  E  E  E   E   E
------------------------------|-----------------------------|
------------------------------|-----------------------------|
------------------------------|-----------------------------|
------------12------------10--|------------9----------------|
--8--10--8------8--10--8------|--8--12--8-----8--8--12--10--|
------------------------------|-----------------------------|


  E   E  E   E  E   E  E   E      E   E  E  E  E  E
------------------------------|----------------------|
------------------------------|----------------------|
------------------------------|----------------------|
------------12------------10--|----------------------|
--8--10--8------8--10--8------|--12--10--8--3--0-----|
------------------------------|-------------------3--|


  PM   PM                               PM   PM
  Q    E  E  E  E  E  E  E  E  E  E     Q    E  E  E  E  E  E  E    Q.
-------------------------------------|---------------------------------------|
-------------------------------------|---------------------------------------|
-------------------------------------|---------------------------------------|
--0----0--3-----------------------3--|--0----0--3----------------------------|
--0----0-----5--4--0--1--0--3--5-----|--0----0-----5--4--3-------------------|
--0----0-----------------------------|--0----0--------------5--4--<>6b~------|


  PM   PM
  Q    E  E  E  E  E  E  E  E  E   E
--------------------------------------|
--------------------------------------|
--------------------------------------|
--0----0--3-----------7---------------|
--0----0-----5--4--8-----8--7--8------|
--0----0--------------------------10--|


   E   E   E  E   E   E   E   E   E   E   E   E
-------------------------------------------------|
-------------------------------------------------|
-------------------------------------------------|
-------------------------------------------------|
--------------8--10--12--------------10--12--13--|
--10--12--14-------------12--14--15--------------|


  PM   PM                               PM   PM
  Q    E  E  E  E  E  E  E  E  E  E     Q    E  E  E  E  E  E  E    Q.
-------------------------------------|---------------------------------------|
-------------------------------------|---------------------------------------|
-------------------------------------|---------------------------------------|
--0----0--3-----------------------3--|--0----0--3----------------------------|
--0----0-----5--4--0--1--0--3--5-----|--0----0-----5--4--3-------------------|
--0----0-----------------------------|--0----0--------------5--4--<>6b~------|


  PM   PM
  Q    E  E  E  E  E  E  E  E  E   E
--------------------------------------|
--------------------------------------|
--------------------------------------|
--0----0--3-----------7---------------|
--0----0-----5--4--8-----8--7--8------|
--0----0--------------------------10--|


   E   E   E  E   E   E   E   E   E   E   E   E
-------------------------------------------------|
-------------------------------------------------|
-------------------------------------------------|
-------------------------------------------------|
--------------8--10--12--------------10--12--13--|
--10--12--14-------------12--14--15--------------|


  PM PM PM            PM PM PM
  E  E  E   E  E   E  E  E  E   E  E   E
------------------------------------------|
------------------------------------------|
------------------------------------------|
------------------------------------------|
-----------15-----12-----------13-----10--|
--0--0--0-------------0--0--0-------------|


  PM PM PM           PM PM PM
  E  E  E   E  E  E  E  E  E  E   E    E
------------------------------------------|
------------------------------------------|
------------------------------------------|
------------------------------------------|
-----------12-----8-----------7h--8h--10--|
--0--0--0------------0--0--0--------------|


  PM PM PM           PM PM PM
  E  E  E  E  E   E  E  E  E  E  E   E
----------------------------------------|
----------------------------------------|
----------------------------------------|
----------------------------------------|
-----------8-----10-----------8-----12--|
--0--0--0------------0--0--0------------|


  PM PM PM
  E  E  E   E  E   E   E   E   E   E   E   E
----------------------13----------------------|
--------------------------15------------------|
------------------------------16--13----------|
--------------------------------------15------|
-----------10-----13----------------------17--|
--0--0--0-------------------------------------|


  PM PM PM            PM PM PM
  E  E  E   E  E   E  E  E  E   E  E   E
------------------------------------------|
------------------------------------------|
------------------------------------------|
------------------------------------------|
-----------15-----12-----------13-----10--|
--0--0--0-------------0--0--0-------------|


  PM PM PM           PM PM PM
  E  E  E   E  E  E  E  E  E  E   E    E
------------------------------------------|
------------------------------------------|
------------------------------------------|
------------------------------------------|
-----------12-----8-----------7h--8h--10--|
--0--0--0------------0--0--0--------------|


  E   E   E  E   E   E  E   E   E  E   E   E
----------------------------------------------|
----------------------------------------------|
----------------------------------------------|
-------------3h--5h--7-------------5h--7h--8--|
--3h--5h--7-------------5h--7h--8-------------|
----------------------------------------------|


  E   E    E  E   E    E   E    E   E   E    E   E
----------------------------------------------------|
----------------------------------------------------|
----------------------------------------------------|
--------------7h--8h--10--12p--10p--8---------------|
--7h--8h--10---------------------------12p--10p--8--|
----------------------------------------------------|


  PM PM PM             PM PM PM
  E  E  E   E  E    E  E  E  E   E  E    E
--------------------------------------------|
--------------------------------------------|
-----------17--Ls--14-----------15--Ls--12--|
------------x--------------------x----------|
-----------15--Ls--12-----------13--Ls--10--|
--0--0--0--------------0--0--0--------------|


  PM PM PM             PM PM PM
  E  E  E   E  E    E  E  E  E  E   E    E
--------------------------------------------|
--------------------------------------------|
-----------14--Ls--10-----------------------|
------------x-------------------------------|
-----------12--Ls---8-----------7h--8h--10--|
--0--0--0--------------0--0--0--------------|


  PM PM PM             PM PM PM
  E  E  E   E  E    E  E  E  E   E  E    E
--------------------------------------------|
--------------------------------------------|
-----------10--Ls--12-----------10--Ls--14--|
------------x--------------------x----------|
------------8--Ls--10------------8--Ls--12--|
--0--0--0--------------0--0--0--------------|


  PM PM PM
  E  E  E   E  E    E   E   E   E   E   E   E
-----------------------13----------------------|
---------------------------15------------------|
-----------12--Ls--15----------16--13----------|
------------x--------------------------15------|
-----------10--Ls--13----------------------17--|
--0--0--0--------------------------------------|


  PM PM PM             PM PM PM
  E  E  E   E  E    E  E  E  E   E  E    E
--------------------------------------------|
--------------------------------------------|
-----------17--Ls--14-----------15--Ls--12--|
------------x--------------------x----------|
-----------15--Ls--12-----------13--Ls--10--|
--0--0--0--------------0--0--0--------------|


  PM PM PM             PM PM PM
  E  E  E   E  E    E  E  E  E  E   E    E
--------------------------------------------|
--------------------------------------------|
-----------14--Ls--10-----------------------|
------------x-------------------------------|
-----------12--Ls---8-----------7h--8h--10--|
--0--0--0--------------0--0--0--------------|


  E   E   E  E   E   E  E   E   E  E   E   E
----------------------------------------------|
----------------------------------------------|
----------------------------------------------|
-------------3h--5h--7-------------5h--7h--8--|
--3h--5h--7-------------5h--7h--8-------------|
----------------------------------------------|


  E   E    E  E   E    E   E    E   E   E    E   E
----------------------------------------------------|
----------------------------------------------------|
----------------------------------------------------|
--------------7h--8h--10--12p--10p--8---------------|
--7h--8h--10---------------------------12p--10p--8--|
----------------------------------------------------|


  E   E   E  E   E   E  E   E   E  E   E   E
----------------------------------------------|
----------------------------------------------|
----------------------------------------------|
-------------3h--5h--7-------------5h--7h--8--|
--3h--5h--7-------------5h--7h--8-------------|
----------------------------------------------|


  E   E    E  E   E    E   E    E   E   E    E   E
----------------------------------------------------|
----------------------------------------------------|
----------------------------------------------------|
--------------7h--8h--10--12p--10p--8---------------|
--7h--8h--10---------------------------12p--10p--8--|
----------------------------------------------------|


               PM PM PM                          PM PM PM
  H.           E  E  E   Q.         H.           E  E  E   Q.
--------------------------------|---------------------------------|
--------------------------------|---------------------------------|
------------------------12------|--11---------------------11------|
--0------------0--0--0---x------|---x------------0--0--0---x------|
--0------------0--0--0--10------|---9------------0--0--0---9------|
--0------------0--0--0----------|----------------0--0--0----------|


   H.            H.               E   E  E   E   E  E   E   E  E   E   E  E
------------------------------|----------------------------------------------|
------------------------------|----------------------------------------------|
--10------------10------------|-------------11--10--9-------------11--10--9--|
---x-------------x------------|--11--10--9-------------11--10--9-------------|
---8-------------8------------|----------------------------------------------|
------------------------------|----------------------------------------------|


               PM PM PM                          PM PM PM
  H.           E  E  E   Q.         H.           E  E  E   Q.
--------------------------------|---------------------------------|
--------------------------------|---------------------------------|
------------------------12------|--11---------------------11------|
--0------------0--0--0---x------|---x------------0--0--0---x------|
--0------------0--0--0--10------|---9------------0--0--0---9------|
--0------------0--0--0----------|----------------0--0--0----------|


   H.            H.               E   E  E   E   E  E   E   E  E   E   E  E
------------------------------|----------------------------------------------|
------------------------------|----------------------------------------------|
--10------------10------------|-------------11--10--9-------------11--10--9--|
---x-------------x------------|--11--10--9-------------11--10--9-------------|
---8-------------8------------|----------------------------------------------|
------------------------------|----------------------------------------------|


  PM PM PM PM PM PM PM PM PM    PM          PM PM PM PM PM PM PM PM PM PM PM
  E  E  E  E  E  E  E  E  E  E  E  E     E  E  E  E  E  E  E  E  E  E  E  E
--------------------------------------|--------------------------------------|
--------------------------------------|--------------------------------------|
-----------------------------5-----5--|--4-----------------------------------|
-----------------------------5-----5--|--4-----------------------------------|
-----------------------------3--3--3--|--2--2--2--2--2--2--2--2--2--2--2--2--|
--0--0--0--0--0--0--0--0--0-----------|--------------------------------------|


     PM PM PM PM PM PM PM PM PM PM PM
  E  E  E  E  E  E  E  E  E  E  E  E     E  E  E  E  E  E  E  E  E  E  E  E
--------------------------------------|--------------------------------------|
--------------------------------------|--------------------------------------|
--3-----------------------------------|-----------8--7--6-----------8--7--6--|
--3-----------------------------------|--8--7--6-----------8--7--6-----------|
--1--1--1--1--1--1--1--1--1--1--1--1--|--------------------------------------|
--------------------------------------|--------------------------------------|


  PM PM PM PM PM PM PM PM PM    PM          PM PM PM PM PM PM PM PM PM PM PM
  E  E  E  E  E  E  E  E  E  E  E  E     E  E  E  E  E  E  E  E  E  E  E  E
--------------------------------------|--------------------------------------|
--------------------------------------|--------------------------------------|
-----------------------------5-----5--|--4-----------------------------------|
-----------------------------5-----5--|--4-----------------------------------|
-----------------------------3--3--3--|--2--2--2--2--2--2--2--2--2--2--2--2--|
--0--0--0--0--0--0--0--0--0-----------|--------------------------------------|


     PM PM PM PM PM PM PM PM PM PM PM
  E  E  E  E  E  E  E  E  E  E  E  E     E  E  E  E  E  E  E  E  E  E  E  E
--------------------------------------|--------------------------------------|
--------------------------------------|--------------------------------------|
--3-----------------------------------|-----------8--7--6-----------8--7--6--|
--3-----------------------------------|--8--7--6-----------8--7--6-----------|
--1--1--1--1--1--1--1--1--1--1--1--1--|--------------------------------------|
--------------------------------------|--------------------------------------|


     PM PM PM    PM PM      PM PM      PM PM   PM PM
  E  E  S  S  E  S  S  Q    S  S     S S  S  S S  S  E   S   S  E   E  E
----------------------------------|---------------------------------------|
----------------------------------|---------------------------------------|
----------------------------------|---------------------------------------|
-----0--0--0-----0--0-------0--0--|----0--0----0--0--------------------8--|
-----0--0--0-----0--0-------0--0--|----0--0----0--0-----12p-10p-8--10-----|
-----0--0--0-----0--0-------0--0--|----0--0----0--0-----------------------|


     PM PM PM    PM PM      PM PM
  E  E  S  S  E  S  S  Q    S  S     E   E  S  S E  E  E  E  E
----------------------------------|-----------------------------|
----------------------------------|-----------------------------|
----------------------------------|-----------------------------|
-----0--0--0-----0--0-------0--0--|-----10--8p-7-5--8-----7--5--|
-----0--0--0-----0--0-------0--0--|-----------------------------|
-----0--0--0-----0--0-------0--0--|-----------------------------|


     PM PM PM    PM PM      PM PM      PM PM   PM PM
  E  E  S  S  E  S  S  Q    S  S     S S  S  S S  S  E   S   S  E   E  E
----------------------------------|---------------------------------------|
----------------------------------|---------------------------------------|
----------------------------------|---------------------------------------|
-----0--0--0-----0--0-------0--0--|----0--0----0--0--------------------8--|
-----0--0--0-----0--0-------0--0--|----0--0----0--0-----12p-10p-8--10-----|
-----0--0--0-----0--0-------0--0--|----0--0----0--0-----------------------|


     PM PM PM    PM PM      PM
  E  E  S  S  E  S  S  Q    E     W
-------------------------------|-------------------|
-------------------------------|-------------------|
-------------------------------|-------------------|
-----0--0--0-----0--0-------0--|-------------------|
-----0--0--0-----0--0-------0--|-------------------|
-----0--0--0-----0--0-------0--|-------------------|


     PM PM PM    PM PM      PM PM      PM PM   PM PM
  E  E  S  S  E  S  S  Q    S  S     S S  S  S S  S  E   S   S  E   E  E
----------------------------------|---------------------------------------|
----------------------------------|---------------------------------------|
----------------------------------|---------------------------------------|
-----0--0--0-----0--0-------0--0--|----0--0----0--0--------------------8--|
-----0--0--0-----0--0-------0--0--|----0--0----0--0-----12p-10p-8--10-----|
-----0--0--0-----0--0-------0--0--|----0--0----0--0-----------------------|


     PM PM PM    PM PM      PM PM
  E  E  S  S  E  S  S  Q    S  S     E   E  S  S E  E  E  E  E
----------------------------------|-----------------------------|
----------------------------------|-----------------------------|
----------------------------------|-----------------------------|
-----0--0--0-----0--0-------0--0--|-----10--8p-7-5--8-----7--5--|
-----0--0--0-----0--0-------0--0--|-----------------------------|
-----0--0--0-----0--0-------0--0--|-----------------------------|


     PM PM PM    PM PM      PM PM      PM PM   PM PM
  E  E  S  S  E  S  S  Q    S  S     S S  S  S S  S  E   S   S  E   E  E
----------------------------------|---------------------------------------|
----------------------------------|---------------------------------------|
----------------------------------|---------------------------------------|
-----0--0--0-----0--0-------0--0--|----0--0----0--0--------------------8--|
-----0--0--0-----0--0-------0--0--|----0--0----0--0-----12p-10p-8--10-----|
-----0--0--0-----0--0-------0--0--|----0--0----0--0-----------------------|


     PM PM PM    PM PM      PM
  E  E  S  S  E  S  S  Q    E
-------------------------------|
-------------------------------|
-------------------------------|
-----0--0--0-----0--0-------0--|
-----0--0--0-----0--0-------0--|
-----0--0--0-----0--0-------0--|


                   T               T               T
   S   S   S   S   S   S   S   S   S   S   S   S   S   S   S   S Q
----------------------------------------------------------------------|
----------------------------------------------------------------------|
----------------------------------------------------------------------|
--12p-10h-12p-10h-17p-10h-12p-10h-19p-10h-12p-10h-17p-10h-12p-10------|
----------------------------------------------------------------------|
----------------------------------------------------------------------|


  PM                              PM PM PM PM
  E   E   E   E   E   E      Q    E  E  S  S  E      E   E   E   E   E   E
-----18--17--13----------|-----------------------|--------------------------|
-----------------15------|-----------------------|----------------------10--|
---------------------14--|-----------------------|------10------10--12------|
--0----------------------|--15----0--0--0--0-----|--12------12--------------|
--0----------------------|--------0--0--0--0-----|--------------------------|
--0----------------------|--------0--0--0--0-----|--------------------------|


                            PM                              PM PM PM PM
   Q      E   E   E   E     E   E   E   E   E   E      Q    E  E  S  S  E
-----------------12--15--|-----18--17--13----------|-----------------------|
--11b----10--13----------|-----------------15------|-----------------------|
-------------------------|---------------------14--|-----------------------|
-------------------------|--0----------------------|--15----0--0--0--0-----|
-------------------------|--0----------------------|--------0--0--0--0-----|
-------------------------|--0----------------------|--------0--0--0--0-----|


                                                       PM
   E   E   E   E   E   E      Q      E   E   E   E     E   E   E   E   E   E
--------------------------|-----------------12--15--|-----18--17--13----------|
----------------------10--|--11b----10--13----------|-----------------15------|
------10------10--12------|-------------------------|---------------------14--|
--12------12--------------|-------------------------|--0----------------------|
--------------------------|-------------------------|--0----------------------|
--------------------------|-------------------------|--0----------------------|


        PM PM PM PM
   Q    E  E  S  S  E      E   E   E   E   E   E      Q      E   E   E   E
-----------------------|--------------------------|-----------------12--15--|
-----------------------|----------------------10--|--11b----10--13----------|
-----------------------|------10------10--12------|-------------------------|
--15----0--0--0--0-----|--12------12--------------|-------------------------|
--------0--0--0--0-----|--------------------------|-------------------------|
--------0--0--0--0-----|--------------------------|-------------------------|


  PM                              PM PM PM PM
  E   E   E   E   E   E      Q    E  E  S  S  E      E   E   E   E   E   E
-----18--17--13----------|-----------------------|--------------------------|
-----------------15------|-----------------------|--------------------------|
---------------------14--|-----------------------|------10------10--12--10--|
--0----------------------|--15----0--0--0--0-----|--12------12--------------|
--0----------------------|--------0--0--0--0-----|--------------------------|
--0----------------------|--------0--0--0--0-----|--------------------------|


  Q     E  H        E      E  Q    E  S  E.       H.            E  E
-----------------------|---------------------|-------------------------|
-----------------------|---------------------|-------------------------|
-------12--------------|--14------------12---|-------------------------|
--------x--------------|---x-------------x---|--<>7~------------L--L\--|
-------10--------------|--12------------10---|-------------------------|
-----------------------|---------------------|-------------------------|


  E   E  E   E  E   E  E   E     E   E  E  E  E  E   E   E
------------------------------|-----------------------------|
------------------------------|-----------------------------|
------------------------------|-----------------------------|
------------12------------10--|------------9----------------|
--8--10--8------8--10--8------|--8--12--8-----8--8--12--10--|
------------------------------|-----------------------------|


  E   E  E   E  E   E  E   E     E  E   E   E   E   E   E  E
------------------------------|-------------------------------|
------------------------------|-------------------------------|
------------------------------|-------------------------------|
------------12------------10--|-------------------------------|
--8--10--8------8--10--8------|--7--8----------10--12--10--7--|
------------------------------|--------12--10-----------------|


  E   E  E   E  E   E  E   E     E   E  E  E  E  E   E   E
------------------------------|-----------------------------|
------------------------------|-----------------------------|
------------------------------|-----------------------------|
------------12------------10--|------------9----------------|
--8--10--8------8--10--8------|--8--12--8-----8--8--12--10--|
------------------------------|-----------------------------|


  E   E  E   E  E   E  E   E      E   E  E  E  E  Q    E
------------------------------|---------------------------|
------------------------------|---------------------------|
------------------------------|---------------------------|
------------12------------10--|------------------------0--|
--8--10--8------8--10--8------|--12--10--8--3--0-------0--|
------------------------------|-------------------0----0--|


        PM    PM    PM        PM     PM PM       PM
  E  E  E  E  E  E  E   E     E   E  E  E  E  E  E  E
---------------------------|---------------------------|
---------------------------|---------------------------|
---------------------------|---------------------------|
--L------------------------|---------------------------|
--L--8--5-----5--8-----10--|-----12--------2--5-----8--|
--L-----------------0------|--0------0--0--------0-----|


        PM    PM    PM        PM          PM
  E  E  E  E  E  E  E   E     E  E  E  E  E  E  Q
---------------------------|--------------------------|
---------------------------|--------------------------|
---------------------------|--------------------------|
---------------------------|-----7--------------------|
-----8--5-----5--8-----10--|--------8--------5--4~----|
--------------------0------|--0--------7--0-----------|


       PM PM PM PM PM
  Q    E  E  E  E  E  E     E  E  Q    E  E  E  E     E  E  Q    E  E  E  E
-------------------------|-------------------------|-------------------------|
-------------------------|-------------------------|-------------------------|
-------------------------|-------------------------|-------------------------|
--0----0--0--0--0--0--3--|--L--3--3----3--3--3--5--|--L--5--5----5--5--5-----|
--0----0--0--0--0--0--3--|--L--3--3----3--3--3--5--|--L--5--5----5--5--5-----|
--0----0--0--0--0--0--3--|--L--3--3----3--3--3--5--|--L--5--5----5--5--5--1--|


                                  PM PM PM PM PM
  E  E  E  E  E  E  E  E     Q    E  E  E  E  E  E     E  E  Q    E  E  E  E
--------------------------|-------------------------|-------------------------|
--------------------------|-------------------------|-------------------------|
--------------------------|-------------------------|-------------------------|
-----------------------0--|--L----0--0--0--0--0--3--|--L--3--3----3--3--3--5--|
-----------------------0--|--L----0--0--0--0--0--3--|--L--3--3----3--3--3--5--|
--L--5--3--1--3--7--5--0--|--L----0--0--0--0--0--3--|--L--3--3----3--3--3--5--|


                                                          PM PM    PM PM
  E  E  Q    E  E  E  E     E  E  E  E  E  E  E  E     E  E  E  E  E  E  E  E
-------------------------|--------------------------|--------------------------|
-------------------------|--------------------------|--------------------------|
-------------------------|--------------------------|--------------------------|
--L--5--5----5--5--5-----|-----------------------0--|--L--0--0-----0--0-----3--|
--L--5--5----5--5--5-----|-----------------------0--|--L--0--0-----0--0-----3--|
--L--5--5----5--5--5--1--|--L--5--3--1--3--7--5--0--|--L--0--0-----0--0-----3--|


     PM PM    PM PM             PM PM    PM PM
  E  E  E  E  E  E  E  E     E  E  E  E  E  E  E  E     Q    Q    Q    Q
--------------------------|--------------------------|----------------------|
--------------------------|--------------------------|----------------------|
--------------------------|--------------------------|----------------------|
--L--3--3-----3--3-----5--|--L--5--5-----5--5-----1--|--L----2----3----5----|
--L--3--3-----3--3-----5--|--L--5--5-----5--5-----1--|--L----2----3----5----|
--L--3--3-----3--3-----5--|--L--5--5-----5--5-----1--|--L----2----3----5----|


       PM PM    PM PM          PM PM    PM PM             PM PM    PM PM
  Q    E  E  E  E  E  E     E  E  E  E  E  E  E  E     E  E  E  E  E  E  E  E
-------------------------|--------------------------|--------------------------|
-------------------------|--------------------------|--------------------------|
-------------------------|--------------------------|--------------------------|
--0----0--0-----0--0--3--|--L--3--3-----3--3-----5--|--L--5--5-----5--5-----1--|
--0----0--0-----0--0--3--|--L--3--3-----3--3-----5--|--L--5--5-----5--5-----1--|
--0----0--0-----0--0--3--|--L--3--3-----3--3-----5--|--L--5--5-----5--5-----1--|


  Q    Q    Q    Q       E  H        Q    E     H        Q
----------------------|----------------------|----------------|
----------------------|----------------------|----------------|
----------------------|----------------------|----------------|
--L----2----3----5----|--0----------------0--|----------------|
--L----2----3----5----|--0----------------0--|----------------|
--L----2----3----5----|--0----------------0--|----------------|


  PM PM      PM PM      PM PM          PM PM      PM PM      PM
  S  S  Q    S  S  Q    S  S  E     E  S  S  Q    S  S  Q    E
---------------------------------|------------------------------|
---------------------------------|------------------------------|
---------------------------------|------------------------------|
--0--0-------0--0-------0--0-----|-----0--0-------0--0-------0--|
--0--0-------0--0-------0--0-----|-----0--0-------0--0-------0--|
--0--0-------0--0-------0--0-----|-----0--0-------0--0-------0--|


                                        PM PM      PM PM
  H.           E  E     H.              S  S  Q    S  S  H
---------------------|---------------|----------------------------|
---------------------|---------------|----------------------------|
---------------------|---------------|----------------------------|
--3------------L--5--|--L------------|--0--0-------0--0-----------|
--3------------L--5--|--L------------|--0--0-------0--0-----------|
--3------------L--5--|--L------------|--0--0-------0--0-----------|


  PM PM      PM PM
  S  S  Q    S  S  H           H.           E  E     H.
----------------------------|---------------------|---------------|
----------------------------|---------------------|---------------|
----------------------------|---------------------|---------------|
--0--0-------0--0-----------|--3------------L--5--|--L------------|
--0--0-------0--0-----------|--3------------L--5--|--L------------|
--0--0-------0--0-----------|--3------------L--5--|--L------------|


  PM PM      PM PM      PM PM          PM PM      PM PM      PM
  S  S  Q    S  S  Q    S  S  E     E  S  S  Q    S  S  Q    E
---------------------------------|------------------------------|
---------------------------------|------------------------------|
---------------------------------|------------------------------|
--0--0-------0--0-------0--0-----|-----0--0-------0--0-------0--|
--0--0-------0--0-------0--0-----|-----0--0-------0--0-------0--|
--0--0-------0--0-------0--0-----|-----0--0-------0--0-------0--|


                                        PM PM      PM PM
  H.           E  E     H.              S  S  Q    S  S  H
---------------------|---------------|----------------------------|
---------------------|---------------|----------------------------|
---------------------|---------------|----------------------------|
--3------------L--5--|--L------------|--0--0-------0--0-----------|
--3------------L--5--|--L------------|--0--0-------0--0-----------|
--3------------L--5--|--L------------|--0--0-------0--0-----------|


  |----3----|  |----3----|   |----3----|   |----3----|
  E    E    E  E    E    E   E    E    E   E    E    E     W
--------------------------------------------------------|-------------------|
--------------------------------------------------------|-------------------|
--------------------------------------------------------|-------------------|
---------------8h--10h--12----------------10h--12h--14--|--0----------------|
--8h--10h--12---------------10h--12h--13----------------|--0----------------|
--------------------------------------------------------|--0----------------|


           PM PM    PM
  H        E  E  E  E     W                   W
-----------------------|-------------------|-------------------|
-----------------------|-------------------|-------------------|
-----------------------|-------------------|-------------------|
--L--------0--0-----0--|--0----------------|--L----------------|
--L--------0--0-----0--|--0----------------|--L----------------|
--L--------0--0-----0--|--0----------------|--L----------------|


  PM PM PM PM PM PM PM PM    PM PM PM PM PM PM PM PM
  E  E  E  E  E  E  E  E     E  E  E  E  E  E  E  E
--------------------------|--------------------------|
--------------------------|--------------------------|
--------------------------|--------------------------|
--------------------------|--------------------------|
--5--5--5--5--5--4--4--3--|--3--0--------------------|
--------------------------|--------5--0--5--4--3--3--|


  PM PM PM PM PM PM PM PM    PM PM PM
  E  E  E  E  E  E  E  E     E  E  E  E  E  E  E  E
--------------------------|--------------------------|
--------------------------|--------------------------|
--------------------------|--------------------------|
--------------------------|--------------------------|
-----------5--5--4--4--3--|--3--0--------------------|
--0--0--0-----------------|--------5--0--5--4--3--3--|


  E  E  E  E  E  E  E  E     E  E  E  E  E  E  E  E
--------------------------|--------------------------|
--------------------------|--------------------------|
-----------7--7--6--6--5--|--5-----------------------|
--0--0--0--7--7--6--6--5--|--5--7--5--0--5--4--3--3--|
--0--0--0--5--5--4--4--3--|--3--7--5--0--5--4--3--3--|
--0--0--0-----------------|-----7--5--0--5--4--3--3--|


  E  E  E  E  E  E  E  E     E  E  E  E  E  E  E  E
--------------------------|--------------------------|
--------------------------|--------------------------|
-----------7--7--6--6--5--|--5-----------------------|
--0--0--0--7--7--6--6--5--|--5--7--5--0--5--4--3--3--|
--0--0--0--5--5--4--4--3--|--3--7--5--0--5--4--3--3--|
--0--0--0-----------------|-----7--5--0--5--4--3--3--|


  E  E  E   E   E   E   E   E      E  E  E  E  E  E  E  E
-------------------------------|---------------------------|
-------------------------------|---------------------------|
-----------14--14--13--13--12--|--12-----------7--6--5--5--|
--0--0--0---x---x---x---x---x--|---x--7--5--7--x--x--x--x--|
--0--0--0--12--12--11--11--10--|--10--7--5--x--5--4--3--3--|
--0--0--0----------------------|------7--5--7--------------|


  E  E  E   E   E   E   E   E      E  E  E  E  E  E  E  E
-------------------------------|---------------------------|
-------------------------------|---------------------------|
-----------14--14--13--13--12--|--12-----------7--6--5--5--|
--0--0--0---x---x---x---x---x--|---x--7--5--7--x--x--x--x--|
--0--0--0--12--12--11--11--10--|--10--7--5--x--5--4--3--3--|
--0--0--0----------------------|------7--5--7--------------|


  PM  PM PM  PM PM  PM PM  PM    PM  PM PM PM PM  PM  PM  PM    PM
  E   E  E   E  E   E  E   E     E   E  E  E  E   E   E   E     E  Q    E
------------------------------|------------------------------|-------------|
------------------------------|------------------------------|-------------|
------------------------------|------------------------------|-------------|
------------12------------10--|------------9-----------------|-------------|
--8--10--8------8--10--8------|--8--12--8-----8--12--12--10--|--8----------|
------------------------------|------------------------------|-------------|


  PM  PM PM  PM PM  PM PM  PM    PM  PM PM PM PM  PM  PM  PM    PM
  E   E  E   E  E   E  E   E     E   E  E  E  E   E   E   E     E  Q    E
------------------------------|------------------------------|-------------|
------------------------------|------------------------------|-------------|
------------------------------|------------------------------|-------------|
------------12------------10--|------------9-----------------|-------------|
--8--10--8------8--10--8------|--8--12--8-----8--12--12--10--|--8----------|
------------------------------|------------------------------|-------------|


  PM  PM PM  PM PM  PM PM  PM    PM  PM PM PM PM  PM  PM  PM    PM
  E   E  E   E  E   E  E   E     E   E  E  E  E   E   E   E     E  Q    E
------------------------------|------------------------------|-------------|
------------------------------|------------------------------|-------------|
------------------------------|------------------------------|-------------|
------------12------------10--|------------9-----------------|-------------|
--8--10--8------8--10--8------|--8--12--8-----8--12--12--10--|--8----------|
------------------------------|------------------------------|-------------|


  PM  PM PM  PM PM  PM PM  PM    PM  PM PM PM PM  PM  PM  PM    PM
  E   E  E   E  E   E  E   E     E   E  E  E  E   E   E   E     E  Q    E
------------------------------|------------------------------|-------------|
------------------------------|------------------------------|-------------|
------------------------------|------------------------------|-------------|
------------12------------10--|------------9-----------------|-------------|
--8--10--8------8--10--8------|--8--12--8-----8--12--12--10--|--8----------|
------------------------------|------------------------------|-------------|


  PM  PM PM  PM PM  PM PM  PM    PM  PM PM PM PM  PM  PM  PM    PM
  E   E  E   E  E   E  E   E     E   E  E  E  E   E   E   E     E  Q    E
------------------------------|------------------------------|-------------||
------------------------------|------------------------------|-------------||
------------------------------|------------------------------|-------------||
------------12------------10--|------------9-----------------|-------------||
--8--10--8------8--10--8------|--8--12--8-----8--12--12--10--|--8----------||
------------------------------|------------------------------|-------------||

Duration Legend
---------------
W - whole
H - half
Q - quarter
E - 8th
S - 16th
T - 32nd
X - 64th
. - note dotted
|-n-|  - n-tuplets


Tablature Legend
----------------
L - tied note
x - dead note
g - grace note
(n) - ghost note
> - accentuded note
NH - natural harmonic
AH - artificial harmonic
TH - tapped harmonic
SH - semi harmonic
PH - pitch harmonic
h - hammer on
p - pull off
b - bend
br - bendRelease
pb - preBend
pbr - preBendRelease
brb - bendReleaseBend
\n/ - tremolo bar dip
\n - tremolo bar dive
-/n - tremolo bar Release up
/n\ - tremolo bar inverted dip
/n - tremolo bar return
-\n - tremolo bar Release down
S - shift slide
s - legato slide
/ -  slide into from below or out of upwards
\ -  slide into from above or out of downwards
~ - vibrato
W - wide vibrato
tr - trill
TP - tremolo picking
T - tapping
S - slap
P - pop
< - fade in
^ - brush up
v - brush down
comments
We did not receive enough feedback on this tab! Please rate:
print report bad tab
1 2 3 4 5
I want to post or [tab]
guest
You may want to rate the tab now too:
select rating
Please do not post tabs as comments. Select "correction" instead!