Oops, an error
Loading. Please wait.

Divine Suicide Of K Bass Tab

ver1
ver1

Whole song

Interactive

More versions @911Tabs.com
693 views 3 this week
no commentswrite comment
1 2 3 4 5
please rate
add to favorites launch autoscroll
font size
0
reset
Autoscroll
+/-
esc
set tempo
stop
Contributor
Difficulty
advanced
WARNING: You are trying to view
                                    content from Ultimate-Guitar.com
                                    in an unauthorized application,
                                    which is prohibited.

                                    Please use an official Ultimate
                                    Guitar Tabs application for iPhone,
                                    iPad or Android to access legitimate
                                    chords, guitar, bass, and drum tabs
                                    from Ultimate-Guitar.com database.

                                    Type "ultimate guitar tabs" in Apple
                                    App Store's or Android Market's
                                    search to find the application.
                           The Divine Suicide of K.                             


                                                                Protest the Hero
Arif Mirabdolbaghi



          |--3--| |--3--|     |--3--| |--3--|           
      S S S  S  S S  S  S S S S  S  S S  S  S S  S S S  
F#||---------------------------------------------------|
C#||--------------5h-7h-8-------------5h-7h-8----------|
G#||------5h-7h-8-------------5h-7h-8------------------|
C#||--0-0-----------------0-0-----------------0-10-0-6-|


      |--3--| |--3--|     |--3--| |---3--| |---3--|      
  S S S  S  S S  S  S S S S  S  S S  S   S S  S   S E    
----------------------------------------------------7\--|
--------------5h-7h-8----------------------7h-8h-10-----|
------5h-7h-8-------------5h-7h-8-7h-8h-10--------------|
--0-0-----------------0-0-------------------------------|


      |--3--| |--3--|     |--3--| |--3--|           
  S S S  S  S S  S  S S S S  S  S S  S  S S  S S S  
---------------------------------------------------|
--------------5h-7h-8-------------5h-7h-8----------|
------5h-7h-8-------------5h-7h-8------------------|
--0-0-----------------0-0-----------------0-10-0-6-|


  |--3--| |--3--| |---3--| |--3--| |---3--| |---3--| |---3--|       
  S  S  S S  S  S S  S   S S  S  S S  S   S S  S   S S  S   S  E    
-----------------------------------------------------7h-9h-10-14\--|
----------5h-7h-8---------------------------7h-8h-10---------------|
--5h-7h-8------------------5h-7h-8-7h-8h-10------------------------|
------------------7h-8h-10-----------------------------------------|


      |--3--| |--3--|     |--3--| |--3--|           
  S S S  S  S S  S  S S S S  S  S S  S  S S  S S S  
---------------------------------------------------|
--------------5h-7h-8-------------5h-7h-8----------|
------5h-7h-8-------------5h-7h-8------------------|
--0-0-----------------0-0-----------------0-10-0-6-|


      |--3--| |--3--|     |--3--| |---3--| |---3--|      
  S S S  S  S S  S  S S S S  S  S S  S   S S  S   S E    
----------------------------------------------------7\--|
--------------5h-7h-8----------------------7h-8h-10-----|
------5h-7h-8-------------5h-7h-8-7h-8h-10--------------|
--0-0-----------------0-0-------------------------------|


      |--3--| |--3--|     |--3--| |--3--|           
  S S S  S  S S  S  S S S S  S  S S  S  S S  S S S  
---------------------------------------------------|
--------------5h-7h-8-------------5h-7h-8----------|
------5h-7h-8-------------5h-7h-8------------------|
--0-0-----------------0-0-----------------0-10-0-6-|


  |--3--| |--3--| |---3--| |--3--| |---3--| |---3--| |---3--|       
  S  S  S S  S  S S  S   S S  S  S S  S   S S  S   S S  S   S  E    
-----------------------------------------------------7h-9h-10-14\--|
----------5h-7h-8---------------------------7h-8h-10---------------|
--5h-7h-8------------------5h-7h-8-7h-8h-10------------------------|
------------------7h-8h-10-----------------------------------------|


   |--3--|    |--3--|    |--3--|                      
   S  S  S S  S  S  S S  S  S  S S S  S S  S  S S  S  
-----------------------------------9-12-9----12-9----|
------------------------------------------10------10-|
--13-13-13---12-12-12---10-10-10---------------------|
-----------------------------------------------------|


  S S S S S S S S S S S S S S S S    S S S S S S S S S S S S S S S S  
----------------------------------|----------------------------------|
----------------------------------|----------------------------------|
----------------------------------|----------------------------------|
--0-0-0-0-0-0-0-0-0-0-0-0-0-0-0-0-|--8-8-8-8-8-8-8-8-8-8-8-8-8-8-8-8-|


  S S S S S S S S S S S S S S S S    S S S S S S S S S S S S S S S S  
----------------------------------|----------------------------------|
----------------------------------|----------------------------------|
----------------------------------|----------------------------------|
--0-0-0-0-0-0-0-0-0-0-0-0-0-0-0-0-|--6-6-6-6-6-6-6-6-6-6-6-6-6-6-6-6-|


  S S S S S S S S S S S S S S S S    S S S S S S S S S S S S S S S S  
----------------------------------|----------------------------------|
----------------------------------|----------------------------------|
----------------------------------|----------------------------------|
--0-0-0-0-0-0-0-0-0-0-0-0-0-0-0-0-|--8-8-8-8-8-8-8-8-8-8-8-8-8-8-8-8-|


  S S S S S S S S S S S S S S S S    S S S S S S S S S S S S S S S S  
----------------------------------|----------------------------------|
----------------------------------|----------------------------------|
----------------------------------|----------------------------------|
--0-0-0-0-0-0-0-0-0-0-0-0-0-0-0-0-|--6-6-6-6-6-6-6-6-6-6-6-6-6-6-6-6-|


  S S S S S S S E  S S S  S S S S    S S S S S S S E  S  S  E  S E   
----------------------------------|---------------------------------|
----------------------------------|---------------------------------|
---------------------7-8-10-8-7-8-|---------------------12-----7-8--|
--0-0---0-0---0-8--8--------------|--0-0---0-0-0-0-8--0----10-------|


  S S S S S S S E  S S S  S S S S    S S S S S S S S S S S S S S S S  
----------------------------------|----------------------------------|
----------------------------------|----------------------------------|
---------------------7-8-10-8-7-8-|----------------------------------|
--0-0-0-0-0-0-0-8--8--------------|--0-0---0-0-0---0-3-6-5-0-9-8-6-8-|


  S S S S S S S E  S S S  S S S S    S S S S S S S E  S  S  E  S E   
----------------------------------|---------------------------------|
----------------------------------|---------------------------------|
---------------------7-8-10-8-7-8-|---------------------12-----7-8--|
--0-0---0-0---0-8--8--------------|--0-0---0-0-0-0-8--0----10-------|


  S S S S S S S E  S S S  S S S S    S S S S S S S S S S S S S S S S Q     
----------------------------------|---------------------------------------|
----------------------------------|---------------------------------------|
---------------------7-8-10-8-7-8-|---------------------------------------|
--0-0-0-0-0-0-0-8--8--------------|--0-0---0-0---0-0-3-6-5-0-9-8-6-8------|


  S S S S S S S S S S S S S S    S S S S S S S E  S S S S S E   
------------------------------|--------------------------------|
------------------------------|--------------------------------|
------------------------------|--------------------------------|
--3-6-5-0-9-8-6-8-3-6-5-0-9-8-|--3-6-5-0-9-8-6----8-3-6-5-1----|


          |-3-|                                                      
  S S S S S S S S S E     S  S  S S  S S S  S  S  S  S S  S S S  S   
-----------------------|---------------7--------------------7-------|
-----------------------|--------------------------------------------|
-----------------------|----------0h-5-----------------0h-5---------|
--3-6-5-0-9-8-6---0----|--0h-3h-5--------5h-7p-0h-3h-5--------5h-7h-|


  S  S  S S  S S S  S  S  S  S S  S S S  S   
---------------7--------------------7-------|
--------------------------------------------|
----------0h-5-----------------0h-5---------|
--0h-3h-5--------5h-7p-0h-3h-5--------5h-7h-|


  S  S  S S  S S S  S  S  S  S S  S S S  S   
---------------7--------------------7-------|
--------------------------------------------|
----------0h-5-----------------0h-5---------|
--0h-3h-5--------5h-7p-0h-3h-5--------5h-7h-|


  S  S  S S  S S S  S  S  S  S S  S S S  S   
---------------7--------------------7-------|
--------------------------------------------|
----------0h-5-----------------0h-5---------|
--0h-3h-5--------5h-7p-0h-3h-5--------5h-7h-|


  S  S  S S  S S S  S  S  S  S S  S S S  S   
---------------7--------------------7-------|
--------------------------------------------|
----------0h-5-----------------0h-5---------|
--0h-3h-5--------5h-7p-0h-3h-5--------5h-7h-|


  S  S  S S  S S S  S  S  S  S S  S S S  S    E  S E  S S S S S S S S S S S  
---------------7--------------------7------|--------------------------------|
-------------------------------------------|--------------------------------|
----------0h-5-----------------0h-5--------|--------------------------------|
--0h-3h-5--------5h-7p-0h-3h-5--------5h-7-|--0--0-0--0-0---0---0-0-0---0-0-|


  E  S E  S E  S E  S    E  S E  S S S S S S S S S S S S S E     Q.     Q.      
----------------------|---------------------------------------|----------------|
----------------------|---------------------------------------|----------------|
--1--1-1--1-3--3-3--3-|---------------------------------------|--1------3------|
----------------------|--0--0-0--0-0---0---0-0-0---0-0-0---0--|----------------|


  E  S E  S S S S S S S S S S S    E  S E  S E  S E  S  
--------------------------------|----------------------|
--------------------------------|----------------------|
--------------------------------|--1--1-1--1-3--3-3--3-|
--0--0-0--0-0---0---0-0-0---0-0-|----------------------|


  E  S E  S S S S S S S S S S S S S E     E  Q    E  Q       S S S S S S E   
---------------------------------------|------------------|-----------------|
---------------------------------------|------------------|--5-7-8-3-5-7-8--|
---------------------------------------|--1-------3-------|-----------------|
--0--0-0--0-0---0---0-0-0---0-0-0---0--|------------------|-----------------|


  E  E  E  E  E  E  E  E  E  E  E  E     E  E  E  E  E  E  E  E  E  E  E  E   
--------------------------------------|--------------------------------------|
-----------1-----------------1--------|-----------6-----------------6--------|
-----1-----------------1--------------|-----6-----------------6--------------|
--1-----1-----1--1--1-----1-----1--1--|--6-----6-----6--6--6-----6-----6--6--|


  E  E  E  E  E  E  E  E  E  E  E  E     E  E  E  E  E  E  E  E  E  E  E  E   
--------------------------------------|--------------------------------------|
-----------1-----------------1--------|-----------6-----------------6--------|
-----1-----------------1--------------|-----6-----------------6--------------|
--1-----1-----1--1--1-----1-----1--1--|--6-----6-----6--6--6-----6-----6--6--|


  E  E  E  E  E  E  E  E  E  E  E  E     E  E  E  E  E  E  E  E  E  E  E  E   
--------------------------------------|--------------------------------------|
-----------3-----------------3--------|-----------6-----------------6--------|
-----3-----------------3--------------|-----6-----------------6--------------|
--3-----3-----3--3--3-----3-----3--3--|--6-----6-----6--6--6-----6-----6--6--|


  E  E  E  E  E  E  E  E  E  E  E  E     E  E  E  E  E  E  E  E  E  E  E  E   
--------------------------------------|--------------------------------------|
-----------3-----------------3--------|-----------6-----------------8--------|
-----3-----------------3--------------|-----6-----------------8--------------|
--3-----3-----3--3--3-----3-----3--3--|--6-----6-----6--6--8-----8-----8--8--|


  Q.        E  E.   E.  E     Q.     S S Q    S. S. S  
---------------8-----------|--------------------------|
---------8g10------10---5--|--------------------------|
---------------------------|--------------------------|
--1------------------------|--6------L-6-6----6--5--6-|


  Q.        E  E.   E.  E     Q    Q    S S  S S S  S S S  
---------------8-----------|------------8-7---------------|
---------8g10------10---5--|----------------10-8-6--------|
---------------------------|-----------------------10-8-6-|
--1------------------------|--6----6----------------------|


  S. S. S E     E  E.   E.  E     S. S. S S. S. S S. S. S S. S. S  
-------------------8-----------|----------------------------------|
-------------8g10------10---5--|--------------------------6-------|
-------------------------------|------------------6---------------|
--1--1--1-1--------------------|--6--6--6-6--6--6----6--6----6--6-|


  S. S. S E     E  E.   E.  E     S. S. S E.  S S S S S S S S S  
-------------------8-----------|--------------------------------|
-------------8g10------10---5--|--------------------------------|
-------------------------------|--------------------------------|
--1--1--1-1--------------------|--6--6--6-6---6-8-8-8-8-8-8-8-8-|


   S. S. S  Q     S. S. S Q         S. S. S  Q     S. S. S S S S S  
--------------------------------|----------------------------------|
--------------------------------|----------------------------------|
---------------------8----------|---------------------6------------|
--10-10-10-13\----8-----8-8\----|--12-12-12-12\----6-----6-6---8---|


   S. S. S  Q     S. S. S E   E     S S S S S S S S S S S S S S S S  
---------------------------------|----------------------------------|
------------------------------5--|----------------------------------|
---------------------8-----------|----------------------------------|
--10-10-10-13\----8-----8-8\-----|--5-5-5-5-5-5-5-5-5-5-5-5-5-5-5-5-|


  H.              H.              H.              H.              H.            
---------------|---------------|---------------|---------------|---------------|
---------------|---------------|---------------|---------------|---------------|
---------------|---------------|---------------|---------------|---------------|
--0------------|--L------------|--L------------|--L------------|--0------------|


  H.              H.              H.              Q.     Q.      
---------------|---------------|---------------|----------------|
---------------|---------------|---------------|----------------|
--4------------|---------------|--4------------|----------------|
---------------|--0------------|---------------|--4------2------|


  Q.     Q.        Q.     Q.        Q.     Q.        Q.      Q.      
----------------|----------------|----------------|-----------------|
----------------|----------------|----------------|-----------------|
----------------|----------------|----------------|-----------------|
--5------4------|--7------5------|--7------8------|--9------11------|


  E  E  E  E  E  E     E  E  E   E   E   E     E  E  E   
--------------------|-----------------------|-----------|
--------------------|-----------------------|-----------|
--------------------|-----------------------|-----------|
--0--0--0--0--0--0--|--9--9--9--11--11--11--|--0--0--0--|


   S  S  S  S  S  S  S  S  S  S  S S     S S  S S  S  S  S  S S  S S S  
--17-16-14-16-14-12-14-12-11-12-11-9-|--11-9----9----------------------|
-------------------------------------|-------12---12-10-12-10-9-10-9-7-|
-------------------------------------|---------------------------------|
-------------------------------------|---------------------------------|


  S S  S S  S S Q.        S S S S S S S S S S S S  
-----------------------|--------------------------|
--9-7----7-------------|--------------------------|
------10---10-9-7------|--8-7-5-7-5-3-5-3-2-3-2-0-|
-----------------------|--------------------------|


  |--3--|  |--3--|  |--3--|                                   
  E  E  E  E  E  E  E  E  E     S S S E  S  S S S E  E  E  S  
-----------------------------|-------------------------------|
-----------------------------|--------------------------5--7-|
--2--0-----0-----------------|--------8--7-10-8-5-7--8-------|
--------5-----5--3--5--3--2--|--0-0-0------------------------|


  S S E  S S E  S S S S S S E  E     S S S E  S  S S S E  E  E  S  
----------------------------------|-------------------------------|
----------------------------------|--------------------------5--7-|
----------------------------------|--------8--7-10-8-5-7--8-------|
--0-0----0-0----0-0-0-0-0-0-0--0--|--0-0-0------------------------|


  S S E  S S E  S S S S S S E     S S S S S S S S S S  
-------------------------------|----------------------|
-------------------------------|----------------------|
-------------------------------|----------------------|
--0-0----0-0----0-0-0-0-0-0-0--|--0---0---0---0---0---|


  S S S E  S  S S S E  E  E  S    S S E  S S E  S S S S S S E  E   
-------------------------------|----------------------------------|
--------------------------5--7-|----------------------------------|
--------8--7-10-8-5-7--8-------|----------------------------------|
--0-0-0------------------------|--0-0----0-0----0-0-0-0-0-0-0--0--|


  S S S E  S  S S S E  E  E  S    S S E  S S E  S S S S S S E     S S S S S S  
-------------------------------|-------------------------------|--------------|
--------------------------5--7-|-------------------------------|--------------|
--------8--7-10-8-5-7--8-------|-------------------------------|--------------|
--0-0-0------------------------|--0-0----0-0----0-0-0-0-0-0-0--|--0---0---0---|


  Q    E  Q    E     E  E  E  E  E  E     E  E  E  E  E  E     Q    E  Q    E   
------------------|--------------------|--------------------|------------------|
------------------|--------------------|--------------------|------------------|
------------------|--------------------|--------------------|------------------|
-------0-------0--|--0--0--0--0--0--0--|--0--0--0--0--0--0--|-------0-------0--|


  Q    E  Q    E     S S S S S S S H        S    S S S S S S S H        S  
------------------|---------------------------|---------------------------|
------------------|---------------------------|---------------------------|
------------------|---------------------------|---------------------------|
-------0-------0--|--0---0---0---0------------|--3---3---3---3------------|


  S S S S S S S H        S    Q.     E  E  E  E  E     E  E  E  E  E  E  E  E   
---------------------------|------------------------|--------------------------|
---------------------------|------------------------|--------------------------|
---------------------------|------------------------|--------------------------|
--5---5---5---5------------|--3------5--2--2--2--2--|--0--0--0--0--0--0--0--0--|


   E  E  E  E  E  E  E  E     E  E  E  E  E  E  E  E   
---------------------------|--------------------------|
---------------------------|--------------8-----------|
---------------------------|-----------8--------------|
--12--0--0--0--0--0--0--0--|--8--8--8--------8--8--8--|


  E  E  E  E  E  E  E  E     E  E  E  E  E  E  E  E   
--------------------------|--------------------------|
-----------8--------------|--3-----3-----3-----3-----|
--8-----------8-----8-----|--------------------------|
-----8--8--------8-----8--|-----3-----3-----3-----3--|


  E  E  E  E  E  E  E  E     E  E  E  E  E  E  E  E   
--------------------------|--------------------------|
--3-----3-----3-----3-----|--------------------------|
--------------------------|--------------------------|
-----3-----3-----3-----3--|--2--5--2--2--5--2--2--2--|


  E  E  E  E  E  E  E  E     E  E  E  E   E  E  E  E   
--------------------------|---------------------------|
--------------------------|---------------------------|
--------------------------|---------------------------|
--5--2--2--2--2--2--2--1--|--0--0--0--0--12--0--0--0--|


  E  E  E  E   E  E   E   E     E  E  E  E  E  E  E  E   
-----------------------------|--------------------------|
-----------------------------|--------8-----------------|
-----------------------------|--8-----------8-----8-----|
--0--0--0--0--12--0--12--12--|-----8-----8-----8-----8--|


  E  E  E  E  E  E  E  E     E  E  E  E  E  E  E  E   
--------------------------|--------------------------|
-----------8--8--8--8--8--|--3-----7-----3-----3-----|
--8-----8-----------------|--------------------------|
-----8--------------------|-----3-----3-----3-----3--|


  E  E  E  E  E  E  E  E     E  E  E  E  E  E  E  E   
--------------------------|--------------------------|
--5-----3-----3-----3-----|--------------------------|
--------------------------|--------------------------|
-----3-----3-----3-----3--|--2--2--2--2--2--2--2--2--|


  E  E  E  E  E  E  E  E     W                   W                 
--------------------------|-------------------|-------------------|
--------------------------|-------------------|-------------------|
--------------------------|-------------------|-------------------|
--2--2--2--2--2--2--2--2--|--0----------------|--L----------------|


  W                   W                   W                   W                 
-------------------|-------------------|-------------------|-------------------|
-------------------|-------------------|-------------------|-------------------|
-------------------|-------------------|-------------------|-------------------|
--L----------------|--L----------------|--L----------------|--L----------------|


  W                   W                   W                   W                 
-------------------|-------------------|-------------------|-------------------|
-------------------|-------------------|-------------------|-------------------|
-------------------|-------------------|-------------------|-------------------|
--L----------------|--L----------------|--L----------------|--L----------------|


  W                   W                   W                   W                 
-------------------|-------------------|-------------------|-------------------|
-------------------|-------------------|-------------------|-------------------|
-------------------|-------------------|-------------------|-------------------|
--L----------------|--L----------------|--L----------------|--L----------------|


  W                   W                   W                   W                 
-------------------|-------------------|-------------------|-------------------|
-------------------|-------------------|-------------------|-------------------|
-------------------|-------------------|-------------------|-------------------|
--L----------------|--L----------------|-------------------|-------------------|


  W                   W                   W                   W                 
-------------------|-------------------|-------------------|-------------------|
-------------------|-------------------|-------------------|-------------------|
-------------------|-------------------|-------------------|-------------------|
-------------------|-------------------|-------------------|-------------------|


  W                   W                   W                   W                 
-------------------|-------------------|-------------------|-------------------|
-------------------|-------------------|-------------------|-------------------|
-------------------|-------------------|-------------------|-------------------|
-------------------|-------------------|-------------------|-------------------|


  H        Q       W                   W                   W                 
----------------|-------------------|-------------------|-------------------|
----------------|-------------------|-------------------|-------------------|
----------------|-------------------|-------------------|-------------------|
----------------|-------------------|-------------------|-------------------|


  W                Q      
------------------------||
------------------------||
------------------------||
------------------------||




Duration Legend
---------------
W - whole
H - half
Q - quarter
E - 8th
S - 16th
T - 32nd
X - 64th
. - note dotted
|-n-|  - n-tuplets


Tablature Legend
----------------
L - tied note
x - dead note
g - grace note
(n) - ghost note
> - accentuded note
NH - natural harmonic
AH - artificial harmonic
TH - tapped harmonic
SH - semi harmonic
PH - pitch harmonic
h - hammer on
p - pull off
b - bend
br - bendRelease
pb - preBend
pbr - preBendRelease
brb - bendReleaseBend
\n/ - tremolo bar dip
\n - tremolo bar dive
-/n - tremolo bar Release up
/n\ - tremolo bar inverted dip
/n - tremolo bar return
-\n - tremolo bar Release down
S - shift slide
s - legato slide
/ -  slide into from below or out of upwards
\ -  slide into from above or out of downwards
~ - vibrato
W - wide vibrato
tr - trill
TP - tremolo picking
T - tapping
S - slap
P - pop
< - fade in
^ - brush up
v - brush down
comments
We did not receive enough feedback on this tab! Please rate:
print report bad tab
1 2 3 4 5
I want to post or [tab]
guest
You may want to rate the tab now too:
select rating
Please do not post tabs as comments. Select "correction" instead!