Oops, an error
Loading. Please wait.

Divinity Within Bass Tab

ver1
ver1

Whole song

Interactive

More versions @911Tabs.com
1,848 views 3 this week
no commentswrite comment
1 2 3 4 5
accurate
x 2
add to favorites launch autoscroll
font size
0
reset
Autoscroll
+/-
esc
set tempo
stop
Contributor
Difficulty
advanced
WARNING: You are trying to view
                                    content from Ultimate-Guitar.com
                                    in an unauthorized application,
                                    which is prohibited.

                                    Please use an official Ultimate
                                    Guitar Tabs application for iPhone,
                                    iPad or Android to access legitimate
                                    chords, guitar, bass, and drum tabs
                                    from Ultimate-Guitar.com database.

                                    Type "ultimate guitar tabs" in Apple
                                    App Store's or Android Market's
                                    search to find the application.
                                Divinity Within                                 


                                                                Protest The Hero
Arif Mirabdolbaghi



      E  H        E     E  E  E  H        E     E  H        Q    E   
F#||-----------------|-----------------------|----------------------|
C#||-----------------|-----------------------|----------------------|
G#||-----------------|-----------------------|----------------------|
C#||--0--------------|-----0--0--------------|--0----------------0--|


  H        H           E  E  E  E  E  E  E  E     E  E  E  E  E  E  E  E   
--------------------|--------------------------|--------------------------|
--------------------|--------------------------|--------------------------|
--------------------|--------------------------|--------------------------|
--8--------7--------|--0--0--0--0--0--0--0--0--|--0--0--0--0--0--0--0--0--|


                    |---3---|                                
  E  E  E  E  E  E  E   E   E     E  E  E  E  E  E  S  S E   
-------------------------------|----------------------------|
-------------------------------|----------------------------|
-------------------------------|-----------------3--2h-3-5--|
--0--0--0--0--0--0--2h--3p--2--|--3--5--3--2--0-------------|


  E  E  E  E  E  E  E  E     E  E  E  E  E  E  E  E   
--------------------------|--------------------------|
--------------------------|--------------------------|
--------------------------|--------------------------|
--0--0--0--0--0--0--0--0--|--0--0--0--0--0--0--0--0--|


  |---3---|                       |---3---|                
  E   E   E  E  E  E  E  E  E     E   E   E  E  E  E   E   
-------------------------------|--------------------------|
-------------------------------|--------------------------|
----------------------------3--|--2h--3p--2--3--0---------|
--2h--3p--2--3--5--3--2--0-----|-------------------6S--3--|


  E  E  E  E  E  E  E  E     E  E  E  E  E  E  E  E     E  E  E  E  E  E   
--------------------------|--------------------------|--------------------|
--------------------------|--------------------------|--------------------|
--------------------------|--------------------------|--------------------|
--0--0--0--0--0--0--0--0--|--0--0--0--0--0--0--0--0--|--0--0--0--0--0--0--|


  |---3---|                                                
  E   E   E  E  E  E  E  E  E     E  E  E  E  E  E  E  E   
-------------------------------|--------------------------|
-------------------------------|--------------------------|
----------------------------3--|--------------------------|
--2h--3p--2--3--5--3--2--0-----|--0--0--0--0--0--0--0--0--|


  E  E  E  E  E  E  E  E     E  H        Q    E     E  Q    E  E  E  E  E   
--------------------------|----------------------|-------------------------|
--------------------------|----------------------|-------------------------|
--------------------------|----------------------|-------------------------|
--0--0--0--0--0--0--0--0--|--0----------------0--|--0----------0-----0-----|


  E  Q    E  E  Q    E     W                   W                 
------------------------|-------------------|-------------------|
------------------------|-------------------|-------------------|
------------------------|-------------------|-------------------|
--0----------0----------|--0----------------|--L----------------|


  W                   E   E  E   E  E   E  E   E     W                 
-------------------|-----------------------6h--9--|-------------------|
-------------------|----------------5h--8---------|-------------------|
-------------------|---------4h--7----------------|-------------------|
--L----------------|--5h--8-----------------------|--0----------------|


  W                   W                   E   E  E   E  E   E  E   E   
-------------------|-------------------|--6h--9-----------------------|
-------------------|-------------------|---------5h--8----------------|
-------------------|-------------------|----------------4h--7---------|
--L----------------|--L----------------|-----------------------5h--8--|


  W                   W                   W                 
-------------------|-------------------|-------------------|
-------------------|-------------------|-------------------|
-------------------|-------------------|-------------------|
--0----------------|--L----------------|--L----------------|


  E   E  E   E  E   E  E   E     E  S S E  E  S S E  S S E   
-----------------------6h--9--|-----------------------------|
----------------5h--8---------|-----------------------------|
---------4h--7----------------|-----------------------------|
--5h--8-----------------------|--0--0-0-0--0--0-0-0--0-0-0--|


  E  S S E  E  S S E  S S E     E  S S E  E  S S E  S S E   
-----------------------------|-----------------------------|
-----------------------------|-----------------------------|
-----------------------------|-----------------------------|
--0--0-0-0--0--0-0-0--0-0-0--|--0--0-0-0--0--0-0-0--0-0-0--|


  E   E  E   E  E   E  E   E     E  S S E  E  S S E  S S E   
--6h--9-----------------------|-----------------------------|
---------5h--8----------------|-----------------------------|
----------------4h--7---------|-----------------------------|
-----------------------5h--8--|--0--0-0-0--0--0-0-0--0-0-0--|


  Q    E  Q    E  Q       E  S S E  E  S S E  S S E     Q    E  Q    E  Q     
-----------------------|-----------------------------|-----------------------|
-----------------------|-----------------------------|-----------------------|
-----------------------|-----------------------------|-----------------------|
--5----5--3----3--3----|--0--0-0-0--0--0-0-0--0-0-0--|--5----5--7----7--7----|


  E  S S E  E  S S E  S S E     Q    E  Q    E  Q       Q    E  E  E  E  E  E   
-----------------------------|-----------------------|-------------------------|
-----------------------------|-----------------------|-------------------------|
-----------------------------|-----------------------|-------------------------|
--0--0-0-0--0--0-0-0--0-0-0--|--5----5--3----3--3----|--1----1--1--1--1--1--1--|


              |---3---|                                      
  E  E  E  E  E   E   E  Q       E  S S E  E  S S E  S S E   
------------------------------|-----------------------------|
------------------------------|-----------------------------|
------------------------------|-----------------------------|
--1--1--1--1--5p--3p--0--3----|--0--0-0-0--0--0-0-0--0-0-0--|


  Q    E  Q    E  Q       E  S S E  E  S S E  S S E     Q    E  Q    E  Q     
-----------------------|-----------------------------|-----------------------|
-----------------------|-----------------------------|-----------------------|
-----------------------|-----------------------------|-----------------------|
--5----5--3----3--3----|--0--0-0-0--0--0-0-0--0-0-0--|--5----5--7----7--7----|


  E  S S E  E  S S E  S S E     Q    E  Q    E  Q       Q    E  E  E  E  E  E   
-----------------------------|-----------------------|-------------------------|
-----------------------------|-----------------------|-------------------------|
-----------------------------|-----------------------|-------------------------|
--0--0-0-0--0--0-0-0--0-0-0--|--5----5--3----3--3----|--1----1--1--1--1--1--1--|


              |---3---|          |---3---|   |---3---|  |---3---|         
  E  E  E  E  E   E   E  Q       E   E   E   E   E   E  E   E   E  E  E   
------------------------------|--8p--7p--0-------------------------------|
--------------5p--3p--0--3----|-------------10p--8p--0--5h--7p--5--------|
------------------------------|------------------------------------7--8--|
--1--1--1--1------------------|------------------------------------------|


  W                   H        H           W                 
-------------------|--------------------|-------------------|
-------------------|--------------------|-------------------|
--1----------------|--L--------0--------|-------------------|
-------------------|--------------------|--0----------------|


  H        H           W                   H        H         
--------------------|-------------------|--------------------|
--------------------|-------------------|--------------------|
-----------0--------|--1----------------|--L--------0--------|
--L-----------------|-------------------|--------------------|


  E  E  E  E  E  E  E  E     W                   H        H         
--------------------------|-------------------|--------------------|
--------------------------|-------------------|--------------------|
-----------------------1--|--L----------------|--L--------0--------|
--0-----0--0--0-----0-----|-------------------|--------------------|


  W                   H        H           W                 
-------------------|--------------------|-------------------|
-------------------|--------------------|-------------------|
-------------------|-----------0--------|--1----------------|
--0----------------|--L-----------------|-------------------|


  H        H           W                   Q    Q    Q     Q     
--------------------|-------------------|-----------------------|
--------------------|-------------------|-----------------------|
--L--------0--------|-------------------|-----------------10----|
--------------------|--0----------------|--8----8----8-----L----|


  W                   Q    Q    E   E  Q       W                 
-------------------|------------------------|-------------------|
-------------------|------------5s--7--7----|--L----------------|
--L----------------|------------------------|-------------------|
--L----------------|--0----0----L---L--L----|--L----------------|


  Q    Q    Q     Q       W                   Q    Q    E  E  E  E   
-----------------------|-------------------|------------------------|
-----------------------|-------------------|------------------------|
-----------------10----|--L----------------|------------------------|
--8----8----8-----L----|--L----------------|--0----0----0--0--0--0--|


  Q    Q    E  E  E  E     E  E  Q    E  E  Q       E  E  Q    E  E  E  E   
------------------------|------------------------|-------------------------|
------------------------|------------------------|-------------------------|
------------------------|------------------------|-------------------------|
--0----0----7--7--7--8--|--L--8--8----8--8--8----|--8--8--8----7--7--7--0--|


  E  E  Q    E  E  Q       E  E  Q    E  E  E  E     E  E  Q    E  E  Q     
------------------------|-------------------------|------------------------|
------------------------|-------------------------|------------------------|
------------------------|-------------------------|------------------------|
--L--0--0----0--0--0----|--0--0--0----7--7--7--8--|--L--8--8----8--8--8----|


  E  E  Q    E  E  E  E     E  E  Q    E  E  Q       Q    E  E  E  E  E  E   
-------------------------|------------------------|-------------------------|
-------------------------|------------------------|-------------------------|
-------------------------|------------------------|-------------------------|
--8--8--8----7--7--7--0--|--L--0--0----0--0--0----|-------0--0--0-----0--0--|


  W                H.              W                H.            
--------------------------------|--------------------------------|
--------------------------------|--------------------------------|
--------------------------------|--------------------------------|
--0----------------L------------|--5----------------L------------|


  W                H.              W                H.            
--------------------------------|--------------------------------|
--------------------------------|--------------------------------|
--------------------------------|--------------------------------|
--8----------------L------------|--7----------------L------------|


  E  E  E  Q    E  E  E  E  E  E  E  E  E   
-------------------------------------------|
-------------------------------------------|
-------------------------------------------|
--0--0--0----------0--0-----0-----0-----0--|


  E  E  E  Q    E  E  E  E  E  E  E  E  E   
-------------------------------------------|
-------------------------------------------|
-------------------------------------------|
--0--0--0----------0--0-----0-----0-----0--|


  E  E  E  Q    E  E  E  E  E  E  E  E  E   
-------------------------------------------|
-------------------------------------------|
-------------------------------------------|
--0--0--0----------0--0-----0-----0-----0--|


  E  E  E  Q    E  E  E  H        E  E     W                   E  H        E   
----------------------------------------|-------------------|-----------------|
----------------------------------------|-------------------|-----------------|
----------------------------------------|--1----------------|-----------------|
--0--0--0----------0--0--------------0--|-------------------|--0--------------|


  H        Q       H        Q       E  H        E     E  E  E  E  E  E   
----------------|----------------|-----------------|--------------------|
----------------|----------------|-----------------|--------------------|
----------------|----------------|-----------------|--------8--------8--|
----------------|----------------|--0--------------|--0--------0--0-----|


  E  E  E  E  E  E     E  E  E  E  E  E     E  E  E  E  E  E   
--------------------|--------------------|--------------------|
--------------------|--------------------|--9--9--9--9--9--9--|
--------8--------8--|--------8--------8--|--------------------|
--0--------0--0-----|--0--------0--0-----|--------------------|


  E  E  E  E  Q       E  E  E  E  Q       E  E  E  E  Q       E  E  E  E  Q     
-------------------|-------------------|-------------------|-------------------|
-------------------|-------------------|-------------------|-------------------|
-----8--------8----|-----8--------8----|-----8--------8----|-----8--------8----|
--0-----0--0-------|--0-----0--0-------|--0-----0--0-------|--0-----0--0-------|


  E  E  E  E  Q       E  E  E  E  E  E     E  E  E  E  Q     
-------------------|--------------------|-------------------|
-------------------|--------------------|-------------------|
--------------8----|-----------------8--|--------------8----|
--0--0--0--0-------|--0--0--0--0--0-----|--0--0--0--0-------|


  E  E  E  E  E  E     E  E  E  E  Q       E  E  E  E  E  E   
--------------------|-------------------|--------------------|
--------------------|-------------------|--------------------|
-----------------8--|--------------8----|-----------------8--|
--0--0--0--0--0-----|--0--0--0--0-------|--0--0--0--0--0-----|


  E  E  E  E  E  Q    E     W                   Q    E  Q    E  Q     
-------------------------|-------------------|-----------------------|
-------------------------|-------------------|-----------------------|
--------------8----------|-------------------|-----------------------|
--0--0--0--0-------------|-------------------|--7----7--5----5--7----|


  E  Q    E  Q    Q       Q    E  Q    E  Q       E  Q    E  E  E  E  E   
-----------------------|-----------------------|-------------------------|
-----------------------|-----------------------|-------------------------|
-----------------------|-----------------------|-------------------------|
--7--0----0--2----2----|--7----7--5----5--8----|--8--7----7--3--2--3--5--|


  Q    E  Q    E  Q       E  Q    E  Q    Q       Q    E  Q    E  Q     
-----------------------|-----------------------|-----------------------|
-----------------------|-----------------------|-----------------------|
-----------------------|-----------------------|-----------------------|
--7----7--5----5--7----|--7--0----0--2----2----|--7----7--5----5--8----|


  E  Q    E  E  E  E  E     Q    E  Q    E  Q       E  Q    E  Q    Q     
-------------------------|-----------------------|-----------------------|
-------------------------|-----------------------|-----------------------|
-------------------------|-----------------------|-----------------------|
--8--7----7--3--2--3--5--|--7----7--5----5--7----|--7--0----0--2----2----|


  Q    E  Q    E  Q       E  Q    E  E  E  E  E     Q    E  Q    E  Q     
-----------------------|-------------------------|-----------------------|
-----------------------|-------------------------|-----------------------|
-----------------------|-------------------------|-----------------------|
--7----7--5----5--8----|--8--7----7--3--2--3--5--|--7----7--5----5--7----|


  E  Q    E  Q    Q       Q    E  Q    E  Q       E  Q    E  E  E  E  E   
-----------------------|-----------------------|-------------------------|
-----------------------|-----------------------|-------------------------|
-----------------------|-----------------------|-------------5--4--5--7--|
--7--0----0--2----2----|--7----7--5----5--8----|--8--7----7--------------|


                                        |---3--|   |---3---|   
  Q    E  E  Q    E  E      E  Q    E   E  E   E   E   E   E   
------------------------|-------------------------------------|
------------------------|-------------------------------------|
-------7--8-------8--7--|--10----------10--8--10--12--10--12--|
------------------------|-------------------------------------|


   E  Q    E   E   E  Q       E   E   E   E  H         
---------------------------|--------------------------|
---------------------------|--------------------------|
--13----------13--12-------|-----12--10--\8-----------|
---------------------------|--------------------------|


             |--3--|                                                     
  E  Q    E  E  E  E  Q       Q.     Q       E  S S E  E  S S E  S S E   
----------------0--2--3----|--------------|-----------------------------|
-------------3-------------|--2------L----|-----------------------------|
---------------------------|--------------|-----------------------------|
--0------------------------|--------------|--0--0-0-0--0--0-0-0--0-0-0--|


                                                      |--3--|   
  H        Q       H        Q       E  S S E  Q    E  E  E  E   
----------------|----------------|-----------------------------|
----------------|----------------|-----------------------------|
----------------|----------------|-----------------------------|
----------------|----------------|--0--0-0-0-------0--0--0--0--|


  W                   E  S S E  Q    E  Q       W                 
-------------------|-------------------------|-------------------|
-------------------|-------------------------|-------------------|
-------------------|-------------------------|-------------------|
-------------------|--0--0-0-0-------0-------|-------------------|


                    |--3--|                                                
  E  S S E  Q    E  E  E  E     W                   E  Q    E  Q    E  E   
-----------------------------|-------------------|------------------------|
-----------------------------|-------------------|------------------------|
-----------------------------|-------------------|-----6-------5-------3--|
--0--0-0-0-------0--0--0--0--|-------------------|--0-------0-------0-----|


                                           |--3--|                       
  E  E  Q    H           E  S S E  Q    E  E  E  E     W                 
----------------------|-----------------------------|-------------------|
----------------------|-----------------------------|-------------------|
--L-----1-------------|-----------------------------|-------------------|
-----0-------0--------|--0--0-0-0-------0--0--0--0--|-------------------|


  E  S S E  Q    E  Q       W                   E  S S E  S S  
-------------------------|-------------------|----------------|
-------------------------|-------------------|----------------|
-------------------------|-------------------|----------------|
--0--0-0-0-------0-------|-------------------|--0--0-0-0--0-0-|


  E  E  E  Q    E  E  E     W                   E  E  H        Q     
-------------------------|-------------------|----------------------|
-------------------------|-------------------|----------------------|
-------------------------|-------------------|----------------------|
--0--0--0-------0--0--0--|-------------------|--0--0----------------|


  W                   E  S S E  Q    E  Q       H.              H.            
-------------------|-------------------------|---------------|---------------|
-------------------|-------------------------|---------------|---------------|
-------------------|-------------------------|---------------|---------------|
-------------------|--0--0-0-0-------0-------|--5------------|--3------------|


  H.              Q.     Q.        H.              H.            
---------------|----------------|---------------|---------------|
---------------|----------------|---------------|---------------|
---------------|----------------|---------------|---------------|
--1------------|--L------0------|--5------------|--7------------|


  H.              Q    Q    Q       H.              H.            
---------------|-----------------|---------------|---------------|
---------------|-----------------|---------------|---------------|
---------------|-----------------|---------------|---------------|
--8------------|--7----8----7----|--5------------|--3------------|


  H.              H.              H.              H.              H.            
---------------|---------------|---------------|---------------|---------------|
---------------|---------------|---------------|---------------|---------------|
---------------|---------------|---------------|---------------|---------------|
--1------------|--L------------|--5------------|--7------------|--8------------|


  H.              E  E  E  E  E  E     E  E  E  E  E  E     E  E  E  E  E  E   
---------------|--------------------|--------------------|--------------------|
---------------|--------------------|--------------------|--------------------|
---------------|--------------------|--------------------|--------------------|
--L------------|--5--5--5--5--5--5--|--3--3--3--3--3--3--|--1--1--1--1--1--1--|


  E  E  E  E  E  E     E  E  E  E  E  E     E  E  E  E  E  E   
--------------------|--------------------|--------------------|
--------------------|--------------------|--------------------|
--------------------|--------------------|--------------------|
--1--1--1--1--1--1--|--5--5--5--5--5--5--|--7--7--7--7--7--7--|


  E  E  E  E  E  E     E  E  E  E  E  E     E  S S S S E  S S S S  
--------------------|--------------------|------------------------|
--------------------|--------------------|------------------------|
--------------------|--------------------|------------------------|
--8--8--8--8--8--8--|--8--8--8--8--8--8--|--5--5-5-5-5-5--5-5-5-5-|


  E  S S S S E  S S S S    E  S S S S E  S S S S    E  S S S S E  S S S S  
------------------------|------------------------|------------------------|
------------------------|------------------------|------------------------|
------------------------|------------------------|------------------------|
--3--3-3-3-3-3--3-3-3-3-|--1--1-1-1-1-1--1-1-1-1-|--1--1-1-1-1-1--1-1-1-1-|


  E  S S S S E  S S S S    E  S S S S E  S S S S    E  S S S S E  S S S S  
------------------------|------------------------|------------------------|
------------------------|------------------------|------------------------|
------------------------|------------------------|------------------------|
--5--5-5-5-5-5--5-5-5-5-|--7--7-7-7-7-7--7-7-7-7-|--8--8-8-8-8-8--8-8-8-8-|


  E  S S S S E  S S S S    E  S S S S E  S S S S    E  S S S S E  S S S S  
------------------------|------------------------|------------------------|
------------------------|------------------------|------------------------|
------------------------|------------------------|------------------------|
--8--8-8-8-8-8--8-8-8-8-|--5--5-5-5-5-5--5-5-5-5-|--3--3-3-3-3-3--3-3-3-3-|


  S S S S S S E  E  E     E  E  E  E  E  E     E  S S S S E  S S S S  
-----------------------|--------------------|------------------------|
-----------------------|--------------------|------------------------|
-----------------------|--------------------|------------------------|
--1-1-1-1-1-1-1--1--1--|--1--1--1--1--1--1--|--5--5-5-5-5-5--5-5-5-5-|


  E  S S S S E  S S S S    E  S S S S E  S S S S    E  S S S S E  S S S S  
------------------------|------------------------|------------------------|
------------------------|------------------------|------------------------|
------------------------|------------------------|------------------------|
--3--3-3-3-3-3--3-3-3-3-|--6--6-6-6-6-6--6-6-6-6-|--6--6-6-6-6-6--6-6-6-6-|


  E  S S S S E  S S S S    E  S S S S E  S S S S    W                 
------------------------|------------------------|-------------------|
------------------------|------------------------|-------------------|
------------------------|------------------------|-------------------|
--6--6-6-6-6-6--6-6-6-6-|--6--6-6-6-6-6--6-6-6-6-|--5----------------|


  E  S S E  S S S S S S Q       W                   H        Q     
-----------------------------|-------------------|----------------|
-----------------------------|-------------------|----------------|
-----------------------------|-------------------|----------------|
--0--0-0-0--0-0-0-0-0-0------|-------------------|----------------|


  H        Q       H        Q       H        Q       H        Q     
----------------|----------------|----------------|----------------|
----------------|----------------|----------------|----------------|
----------------|----------------|----------------|----------------|
----------------|----------------|----------------|----------------|


  H        Q       H        Q       H        Q       H        Q     
----------------|----------------|----------------|----------------|
----------------|----------------|----------------|----------------|
----------------|----------------|----------------|----------------|
----------------|----------------|----------------|----------------|


  H        Q       H        Q       H        Q       H        Q     
----------------|----------------|----------------|----------------|
----------------|----------------|----------------|----------------|
----------------|----------------|----------------|----------------|
----------------|----------------|----------------|----------------|


  H        Q       H        Q       H        Q       H        Q     
----------------|----------------|----------------|----------------|
----------------|----------------|----------------|----------------|
----------------|----------------|----------------|----------------|
----------------|----------------|----------------|----------------|


  H        Q       H        Q       H        Q       H        Q     
----------------|----------------|----------------|----------------|
----------------|----------------|----------------|----------------|
----------------|----------------|----------------|----------------|
----------------|----------------|----------------|----------------|


  H        Q       H        Q       H        Q       H        Q     
----------------|----------------|----------------|----------------|
----------------|----------------|----------------|----------------|
----------------|----------------|----------------|----------------|
----------------|----------------|----------------|----------------|


  H        Q       H        Q       H        Q       H        Q     
----------------|----------------|----------------|----------------|
----------------|----------------|----------------|----------------|
----------------|----------------|----------------|----------------|
----------------|----------------|----------------|----------------|


  H        Q       H        Q       H        Q       H        Q     
----------------|----------------|----------------|----------------|
----------------|----------------|----------------|----------------|
----------------|----------------|----------------|----------------|
----------------|----------------|----------------|----------------|


  H        Q       H        Q       H        Q       H        Q     
----------------|----------------|----------------|----------------|
----------------|----------------|----------------|----------------|
----------------|----------------|----------------|----------------|
----------------|----------------|----------------|----------------|


  H        Q       H        Q       H        Q       H        Q     
----------------|----------------|----------------|----------------|
----------------|----------------|----------------|----------------|
----------------|----------------|----------------|----------------|
----------------|----------------|----------------|----------------|


  H        Q       H        Q       H        Q       H        Q     
----------------|----------------|----------------|----------------|
----------------|----------------|----------------|----------------|
----------------|----------------|----------------|----------------|
----------------|----------------|----------------|----------------|


  H        Q       H        Q       H        Q       Q    E     H        Q     
----------------|----------------|----------------|----------|----------------|
----------------|----------------|----------------|----------|----------------|
----------------|----------------|----------------|----------|----------------|
----------------|----------------|----------------|----------|----------------|


  H        Q       H        Q       H        Q       H        Q     
----------------|----------------|----------------|----------------|
----------------|----------------|----------------|----------------|
----------------|----------------|----------------|----------------|
----------------|----------------|----------------|----------------|


  H        Q      
----------------||
----------------||
----------------||
----------------||




Duration Legend
---------------
W - whole
H - half
Q - quarter
E - 8th
S - 16th
T - 32nd
X - 64th
. - note dotted
|-n-|  - n-tuplets


Tablature Legend
----------------
L - tied note
x - dead note
g - grace note
(n) - ghost note
> - accentuded note
NH - natural harmonic
AH - artificial harmonic
TH - tapped harmonic
SH - semi harmonic
PH - pitch harmonic
h - hammer on
p - pull off
b - bend
br - bendRelease
pb - preBend
pbr - preBendRelease
brb - bendReleaseBend
\n/ - tremolo bar dip
\n - tremolo bar dive
-/n - tremolo bar Release up
/n\ - tremolo bar inverted dip
/n - tremolo bar return
-\n - tremolo bar Release down
S - shift slide
s - legato slide
/ -  slide into from below or out of upwards
\ -  slide into from above or out of downwards
~ - vibrato
W - wide vibrato
tr - trill
TP - tremolo picking
T - tapping
S - slap
P - pop
< - fade in
^ - brush up
v - brush down
comments
We did not receive enough feedback on this tab! Please rate:
print report bad tab
1 2 3 4 5
I want to post or [tab]
guest
You may want to rate the tab now too:
select rating
Please do not post tabs as comments. Select "correction" instead!