Oops, an error
Loading. Please wait.

Divinity Within Tab

14,640 views 39 this week
20 commentsread comments
1 2 3 4 5
excellent!
x 20
Autoscroll
+/-
esc
set tempo
stop
Contributor
Difficulty
intermediate
WARNING: You are trying to view
                                    content from Ultimate-Guitar.com
                                    in an unauthorized application,
                                    which is prohibited.

                                    Please use an official Ultimate
                                    Guitar Tabs application for iPhone,
                                    iPad or Android to access legitimate
                                    chords, guitar, bass, and drum tabs
                                    from Ultimate-Guitar.com database.

                                    Type "ultimate guitar tabs" in Apple
                                    App Store's or Android Market's
                                    search to find the application.
Hey this is Tim from PTH. Just wanted to note that this is the guitar parts for the
song as played live. So it's just the two guitar parts all the way through. At some
points there's a couple other over dubs but these are the most important parts. If
you have any questions don't hesitate to email me. tim@protestthehero.com
enjoy


#----------------------------------PLEASE NOTE---------------------------------#
#This file is the author's own work and represents their interpretation of the #
#song. You may only use this file for private study, scholarship, or research. #
#------------------------------------------------------------------------------##

                                 Divinty Within
                         As recorded by Protest The Hero
                           (From the 2005 Album KEZIA)

Words by Arif Mirabdolbagh

Music by Arif Mirabdolbaghi, Luke Hoskin, Moe Carlson, Rody Walker, Timba Millar
Arranged by Arif Mirabdolbaghi, Luke Hoskin, Moe Carlson, Rody Walker, Timba Millar
Transcribed by Timba Millar

Gtr I (C# G# C# F# A# D#) - 'Luke'
Gtr II (C# G# C# F# A# D#) - 'Timba'

  Q=216
 4/4
  Gtr I
|-12h13p12-13-15-13-12-------|-----------------------|
|----------------------15-13-|-12h13p12-13-10-9------|
|----------------------------|------------------10---|
|----------------------------|-----------------------|
|----------------------------|-----------------------|
|----------------------------|-----------------------|
|
|    Gtr II
|----------------------------|-----------------------|
|----------------------------|-----------------------|
|----------------------------|-----------------------|
|-----0--------------------0-|--0--------------------|
|-----0--------------------0-|--0--------------------|
|-----0--------------------0-|--0--------------------|


                                    ~~~~
|-------------------------|---------------|
|-------------------------|---------------|
|-9h10p9-10-12-10-9-------|---------------|
|-------------------12-10-|-12----[11]----|
|-------------------------|---------------|
|-------------------------|---------------|
|
|-------------------------|---------------|
|-------------------------|---------------|
|-------------------------|---------------|
|-0---------------------0-|--8------7-----|
|-0---------------------0-|--8------7-----|
|-0---------------------0-|--8------7-----|


  Gtrs I, II
                          PM   PM|
|-----------------------|-------------------------|
|-----------------------|-------------------------|
|-----------------------|---10-----9h10p9----9-10-|
|-----------------------|-0----0-0--------10------|
|-0-0-0-0-0--0-0-0-0-0--|-------------------------|
|-0-0-0-0-0--0-0-0-0-0--|-------------------------|


  PM-------------|
|------------------12h13p12-|-13-15-13-12-----------------|
|---------------------------|-------------15-13-12h13h15--|
|---------------------------|-----------------------------|
|---------------------------|-----------------------------|
|-0-0-0-0-0--0-0-0----------|-----------------------------|
|-0-0-0-0-0--0-0-0----------|-----------------------------|


  Gtr I
  PM----------------------|    PM|    PM   PM
|-----------------------|--------------------|
|-----------------------|--------------------|
|-----------------------|---10-----12---14---|
|-----------------------|-0----0-0----0----0-|
|-0-0-0-0-0--0-0-0-0-0--|--------------------|
|-0-0-0-0-0--0-0-0-0-0--|--------------------|
|
| Gtr II
| PM----------------------|    PM|    PM   PM
|-----------------------|--------------------|
|-----------------------|--------------------|
|-----------------------|---10-----12---14---|
|-----------------------|-0----0-0----0----0-|
|-0-0-0-0-0--0-0-0-0-0--|--------------------|
|-0-0-0-0-0--0-0-0-0-0--|--------------------|


  Gtr I
|-15h17p15-17-18-17-15-------|------------------------|
|----------------------18-17-|-15h17p15-17-13-12-15---|
|----------------------------|------------------------|
|----------------------------|------------------------|
|----------------------------|------------------------|
|----------------------------|------------------------|
|
| Gtr II
|-12h13p12-13-15-13-12-------|------------------------|
|----------------------15-13-|-12h13p12-13-10--9------|
|----------------------------|-------------------10---|
|----------------------------|------------------------|
|----------------------------|------------------------|
|----------------------------|------------------------|


  Gtr I
  PM----------------------|    PM|
|-----------------------|-------------------------|
|-----------------------|-------------------------|
|-----------------------|---10-----9h10p9----9-10-|
|-----------------------|-0----0-0--------10------|
|-0-0-0-0-0--0-0-0-0-0--|-------------------------|
|-0-0-0-0-0--0-0-0-0-0--|-------------------------|
|
| Gtr II
| PM----------------------|    PM|
|-----------------------|-------------------------|
|-----------------------|-------------------------|
|-----------------------|---10-----9h10p9----9-10-|
|-----------------------|-0----0-0--------10------|
|-0-0-0-0-0--0-0-0-0-0--|-------------------------|
|-0-0-0-0-0--0-0-0-0-0--|-------------------------|


                   Gtr II
  PM-------------|
|------------------12h13p12-|-13-15-13-12-------|-|
|---------------------------|-------------15-13-|-|
|---------------------------|-------------------|-|
|---------------------------|-------------------|-|
|-0-0-0-0-0--0-0-0----------|-------------------|-|
|-0-0-0-0-0--0-0-0----------|-------------------|-|
|
| PM-------------|
|------------------15h17p15-|-17-18-17-15-------|-|
|---------------------------|-------------18-17-|-|
|---------------------------|-------------------|-|
|---------------------------|-------------------|-|
|-0-0-0-0-0--0-0-0----------|-------------------|-|
|-0-0-0-0-0--0-0-0----------|-------------------|-|


  Gtr I
  PM----------------------|    PM|    PM   PM
|-----------------------|--------------------|-12h13p=12-13-15-13-12-------|
|-----------------------|--------------------|-----------------------15-13-|
|-----------------------|---10-----12---14---|-----------------------------|
|-----------------------|-0----0-0----0----0-|-----------------------------|
|-0-0-0-0-0--0-0-0-0-0--|--------------------|-----------------------------|
|-0-0-0-0-0--0-0-0-0-0--|--------------------|-----------------------------|
|
| Gtr II
| PM----------------------|    PM|    PM   PM
|-----------------------|--------------------|-----------------------------|
|-----------------------|--------------------|-----------------------------|
|-----------------------|---10-----12---14---|-----------------------------|
|-----------------------|-0----0-0----0----0-|--0------------------------0-|
|-0-0-0-0-0--0-0-0-0-0--|--------------------|--0------------------------0-|
|-0-0-0-0-0--0-0-0-0-0--|--------------------|--0------------------------0-|


|------------------------------------|------7----------|
|-12h13p=12-13-10-9h10h=12-10h12h=13-|-----------------|
|------------------------------------|-10S9---9S7------|
|------------------------------------|-----------------|
|------------------------------------|-----------------|
|------------------------------------|-----------------|
|
|------------------------------------|-----------------|
|------------------------------------|-----------------|
|------------------------------------|-----------------|
|--0--------------0---------0--------|--0-------0------|
|--0--------------0---------0--------|--0-------0------|
|--0--------------0---------0--------|--0-------0------|


|----------|------------|------------|-----------------|
|----------|------------|------------|-----------------|
|----------|------------|------------|-------------6h9-|
|-0--------|-(0)--------|-(0)--------|---------5h8-----|
|-0--------|-(0)--------|-(0)--------|-----4h7---------|
|-0--------|-(0)--------|-(0)--------|-5h8-------------|


|----------|------------|------------|-----------------|
|----------|------------|------------|-----------------|
|----------|------------|------------|-6h9-------------|
|-0--------|-(0)--------|-(0)--------|-----5h8---------|
|-0--------|-(0)--------|-(0)--------|---------4h7-----|
|-0--------|-(0)--------|-(0)--------|-------------5h8-|


  Gtr I
|----------|------------|------------|---------------------|
|----------|------------|------------|---------------------|
|----------|------------|------------|----------------6h=9-|
|-0--------|-(0)--------|-(0)--------|-----------5h=8------|
|-0--------|-(0)--------|-(0)--------|------4h=7-----------|
|-0--------|-(0)--------|-(0)--------|-5h=8----------------|
|
| Gtr II
|----------|------------|------------|---------------------|
|----------|------------|------------|---------------------|
|----------|------------|------------|----------------9h12-|
|-0--------|-(0)--------|-(0)--------|-----------8h11------|
|-0--------|-(0)--------|-(0)--------|------7h10-----------|
|-0--------|-(0)--------|-(0)--------|-8h11----------------|


  Gtr I
  PM------------------------------------------------------------------|
|-----------------------|-----------------------|--------------------------|
|-----------------------|-----------------------|--------------------------|
|-----------------------|-----------------------|--------------------------|
|-----------------------|-----------------------|--------------------------|
|-0-0-0-0-0-0-0-0-0-0-0-|-0-0-0-0-0-0-0-0-0-0-0-|-0-0-0-0-0-0-0-0-0-0-0----|
|-0-0-0-0-0-0-0-0-0-0-0-|-0-0-0-0-0-0-0-0-0-0-0-|-0-0-0-0-0-0-0-0-0-0-0----|
|
| Gtr II
| PM------------------------------------------------------------------|
|-----------------------|-----------------------|--------------------------|
|-----------------------|-----------------------|--------------------------|
|-----------------------|-----------------------|--------------------------|
|-----------------------|-----------------------|--------------------------|
|-0-0-0-0-0-0-0-0-0-0-0-|-0-0-0-0-0-0-0-0-0-0-0-|-0-0-0-0-0-0-0-0-0-0-0----|
|-0-0-0-0-0-0-0-0-0-0-0-|-0-0-0-0-0-0-0-0-0-0-0-|-0-0-0-0-0-0-0-0-0-0-0----|


  Gtr I
                          PM----------------------|    PM|    PM
|---------------------||------------------------|-----------------------|
|---------------------||o-----------------------|-----------------------|
|-6h=9----------------||------------------------|-----------------------|
|------5h=8-----------||------------------------|----8------7---3h=7----|
|-----------4h=7------||o-----------------------|-----------------------|
|----------------5h=8-||--0-0-0-0-0-0-0-0-0-0-0-|-5----5-3----3---------|
|
| Gtr II
|                         PM----------------------|    PM|    PM
|---------------------||------------------------|-----------------------|
|---------------------||o-----------------------|-----------------------|
|-9h12----------------||------------------------|-----------------------|
|------8h11-----------||------------------------|---12-----10---7h10----|
|-----------7h10------||o-----------------------|-----------------------|
|----------------8h11-||--0-0-0-0-0-0-0-0-0-0-0-|-8----8-7----7---------|


  PM----------------------|    PM|      PM
|-----------------------|-----------------------|
|-----------------------|-----------------------|
|-----------------------|-----------------------|
|-----------------------|----8------10-----7h10-|
|-----------------------|-----------------------|
|-0-0-0-0-0-0-0-0-0-0-0-|-5----5--7-----7-------|
|
| PM----------------------|    PM|      PM
|-----------------------|-----------------------|
|-----------------------|-----------------------|
|-----------------------|-----------------------|
|-----------------------|---12------13----10h13-|
|-----------------------|-----------------------|
|-0-0-0-0-0-0-0-0-0-0-0-|-8----8-10----10-------|


  PM----------------------|    PM|    PM
|-----------------------|--------------------|
|-----------------------|--------------------|
|-----------------------|--------------------|
|-----------------------|----8------7---3h=7-|
|-----------------------|--------------------|
|-0-0-0-0-0-0-0-0-0-0-0-|-5----5-3----3------|
|
| PM----------------------|    PM|    PM
|-----------------------|--------------------|
|-----------------------|--------------------|
|-----------------------|--------------------|
|-----------------------|---12-----10---7h10-|
|-----------------------|--------------------|
|-0-0-0-0-0-0-0-0-0-0-0-|-8----8-7----7------|


     PM|
|--------------------------|-------------------------||
|--------------------------|------------------------o||
|--------3p2p==0-5p3p==0---|-7p5p==0-5-7-8p7---7-----||
|-1------------------------|-----------------8-------||
|-1--1-1-------------------|------------------------o||
|-1--1-1-------------------|-------------------------||
|
|    PM----------------------------|
|--------------------------|-------------------------||
|--------------------------|------------------------o||
|--------------------------|-------------------------||
|-1------------------------|-------------5p3p0-3-----||
|-1--1-1-1---1---1---1-----|-1-1-1-1----------------o||
|-1--1-1-1---1---1---1-----|-1-1-1-1-----------------||


|------------------------|-------|-----------|-------|----------------|
|------------------------|-------|-----------|-------|----------------|
|-8p7p0------------------|-7-----|-(7)-----5-|-10----|-----(10)-----9-|
|-------10p8p0-5h7p5-----|-------|-----------|-------|----------------|
|--------------------7-8-|-5-----|-(5)-----3-|--8----|------(8)-----7-|
|------------------------|-------|-----------|-------|----------------|
|
|------------------------|-------|-----------|--1----|-(1)------------|
|------------------------|-------|-----------|--3----|-(3)------------|
|-5p3p0------------------|-3-----|-(3)---2---|--2----|-(2)--------2---|
|--------7p5p0-2h3p2-----|-3-----|-(3)---3---|--0----|-(0)--------3---|
|--------------------3-5-|-1-----|-(1)---0---|-------|------------0---|
|------------------------|-------|-----------|-------|----------------|


|-------|---------------|----------------------|----------|-----------------|
|-------|---------------|----------------------|----------|-----------------|
|-7-----|-----(7)----9--|-10-10-10-10---10-10--|-(10)-----|-----(10)-----15-|
|-------|---------------|----------------------|----------|-----------------|
|-5-----|-----(5)----7--|--8--8--8--8----8--8--|--(8)-----|------(8)-----13-|
|-------|---------------|----------------------|----------|-----------------|
|
|------|---------------|----------------------|----------|-----------------|
|------|---------------|----------------------|----------|-----------------|
|-3----|-(3)-----2-----|----------------3-----|--(3)-----|-(3)--------2----|
|-3----|-(3)-----3-----|----------------3-----|--(3)-----|-(3)--------3----|
|-1----|-(1)-----0-----|----------------1-----|--(1)-----|-(1)--------0----|
|------|---------------|--0--0--0--0-0--------|----------|-----------------|


|----------|--------------|----------|-------------|------------------------|
|----------|--------------|----------|-------------|------------------------|
|-14----12-|-10-----12----|-9--------|-10----------|-8p7p0------------------|
|----------|--------------|----------|-------------|-------10p8p0-5h7p5-----|
|-12----10-|--8-----10----|-7--------|--8----------|--------------------7-8-|
|----------|--------------|----------|-------------|------------------------|

|--1-------|-(1)----------|----------|-------------|------------------------|
|--3-------|-(3)----------|----------|-------------|------------------------|
|--2-------|-(2)-----2----|-3--------|-(3)----2----|-5p3p0------------------|
|--0-------|-(0)-----3----|-3--------|-(3)----3----|--------7p5p0-2h3p2-----|
|----------|---------0----|-1--------|-(1)----0----|--------------------3-5-|
|----------|--------------|----------|-------------|------------------------|


|------------------|------------------|-----------------|-----------------|
|------------------|------------------|-----------------|-----------------|
|------------------|------------------|-----------------|-----5-3---------|
|-0-7-3-0-7-3-0-7--|-3-0-7-3-5-----3--|-0-7-3-0-7-3-0-7-|-3-0-----7-5-3---|
|------------------|-----------3-7----|-----------------|---------------7-|
|------------------|------------------|-----------------|-----------------|
|
|------------------|------------------|-----------------|-----------------|
|------------------|------------------|-----------------|-----------------|
|------------------|------------------|-----------------|-----------------|
|------------------|------------------|-----------------|-----------------|
|-8---8---8-8-8-8--|-8---8---7-7-7-7--|-0---0---0-0-0-0-|-0-0---7-7-7-7---|
|-8---8---8-8-8-8--|-8---8---7-7-7-7--|-0---0---0-0-0-0-|-0-0---7-7-7-7---|


|-----------------|-----------------|-----------------|-----------------|
|-----------------|-----------------|-----------------|-----------------|
|-----------------|-----------------|-----------------|-----5-3---------|
|-0-7-3-0-7-3-0-7-|-3-0-7-3-5-----3-|-0-7-3-0-7-3-0-7-|-3-0-----7-5-3-0-|
|-----------------|-----------3-7---|-----------------|-----------------|
|-----------------|-----------------|-----------------|-----------------|
|
|-----------------|-----------------|-----------------|-----------------|
|-----------------|-----------------|-----------------|-----------------|
|-----------------|-----------------|-----------------|-----------------|
|-----------------|-----------------|-----------------|-----------------|
|-8---8---8-8-8-8-|-8---8---7-7-7-7-|-0---0---0-0-0-0-|-0---0---7-7-7-8-|
|-8---8---8-8-8-8-|-8---8---7-7-7-7-|-0---0---0-0-0-0-|-0---0---7-7-7-8-|


|-------------------|-----------------|-------------------|-----------------|
|-------------------|-----------------|-------------------|-----------------|
|-------------------|-----------------|-------------------|-----5-3---------|
|-(0)-7-3-0-7-3-0-7-|-3-0-7-3-5-----3-|--0--7-3-0-7-3-0-7-|-3-0-----7-5-3---|
|-------------------|-----------3-7---|-------------------|---------------7-|
|-------------------|-----------------|-------------------|-----------------|
|
|-------------------|-----------------|-------------------|-----------------|
|-------------------|-----------------|-------------------|-----------------|
|-------------------|-----------------|-------------------|-----------------|
|-------------------|-----------------|-------------------|-----------------|
|-(8)-8-8---8-8-8---|-8-8-8---7-7-7-0-|-(0)-0-0---0-0-0---|-0-0-0---7-7-7-8-|
|-(8)-8-8---8-8-8---|-8-8-8---7-7-7-0-|-(0)-0-0---0-0-0---|-0-0-0---7-7-7-8-|


|-------------------|-----------------|-------------------|-----------------|
|-------------------|-----------------|-------------------|-----------------|
|-------------------|-----------------|-------------------|-----5-3---------|
|--0--7-3-0-7-3-0-7-|-3-0-7-3-5-----3-|--0--7-3-0-7-3-0-7-|-3-0-----7-5-3---|
|-------------------|-----------3-7---|-------------------|---------------7-|
|-------------------|-----------------|-------------------|-----------------|
|
|                                                                   PM|
|-------------------|-----------------|-------------------|-----------------|
|-------------------|-----------------|-------------------|-----------------|
|-------------------|-----------------|-------------------|-----------------|
|-------------------|-----------------|-------------------|-----------------|
|-(8)-8-8---8-8-8---|-8-8-8---7-7-7-0-|-(0)-0-0---0-0-0---|-0-0-0---0-0-----|
|-(8)-8-8---8-8-8---|-8-8-8---7-7-7-0-|-(0)-0-0---0-0-0---|-0-0-0---0-0-----|


 7/4
|-----------------------13-12h13p=12-13-15-13-12----|
|-10h11p10-11-13--11-10--------------------------13-|
|---------------------------------------------------|
|---------------------------------------------------|
|---------------------------------------------------|
|---------------------------------------------------|
|
|---------------------------------------------------|
|---------------------------------------------------|
|---------------------------------------------------|
|--0----------(0)-------------(0)-------------------|
|--0----------(0)-------------(0)-------------------|
|--0----------(0)-------------(0)-------------------|


|----------------------13-12-13--15-13--12-------|
|-10h11p10-11-13-11-10---------------------13-15-|
|------------------------------------------------|
|------------------------------------------------|
|------------------------------------------------|
|------------------------------------------------|
|
|------------------------------------------------|
|------------------------------------------------|
|------------------------------------------------|
|--5-------------------------(5)----(5)----------|
|--5-------------------------(5)----(5)----------|
|--5-------------------------(5)----(5)----------|


|----------------------13-12h13p====12-13-15-13-12--------|
|-10h11p10-11-13-11-10------------------------------13----|
|---------------------------------------------------------|
|---------------------------------------------------------|
|---------------------------------------------------------|
|---------------------------------------------------------|
|
|---------------------------------------------------------|
|---------------------------------------------------------|
|---------------------------------------------------------|
|--8----------------------------(8)-------------(8)-------|
|--8----------------------------(8)-------------(8)-------|
|--8----------------------------(8)-------------(8)-------|


|----------------------13-12-13--15-13-15-17--13----|
|-10h11p10-11-13-11-10------------------------------|
|---------------------------------------------------|
|---------------------------------------------------|
|---------------------------------------------------|
|---------------------------------------------------|
|
|---------------------------------------------------|
|---------------------------------------------------|
|---------------------------------------------------|
|--7-------------------------(7)----------(7)-------|
|--7-------------------------(7)----------(7)-------|
|--7-------------------------(7)----------(7)-------|


|----------------------------13-12h13p=12-13-15-13-12-------|
|-10h==11p==10---11-13-11-10--------------------------13----|
|-----------------------------------------------------------|
|-----------------------------------------------------------|
|-----------------------------------------------------------|
|-----------------------------------------------------------|
|
|  PM-------------------------------------------------|
|-----------------------------------------------------------|
|-----------------------------------------------------------|
|-----------------------------------------------------------|
|-----------------------------------------------------------|
|--0-0----0----0--0--------0-----0---------0-----0-----0----|
|--0-0----0----0--0--------0-----0---------0-----0-----0----|


|----------------------------13-12-13-15-13-12-------|
|-10h==11p==10---11-13-11-10-------------------13-15-|
|----------------------------------------------------|
|----------------------------------------------------|
|----------------------------------------------------|
|----------------------------------------------------|
|
|  PM---------------------------------------------|
|----------------------------------------------------|
|----------------------------------------------------|
|----------------------------------------------------|
|----------------------------------------------------|
|--0-0----0----0--0--------0-----0-----0-----0-----0-|
|--0-0----0----0--0--------0-----0-----0-----0-----0-|


|----------------------------13-12h13p=12-13-15-13-12----|
|-10h==11p==10---11-13-11-10--------------------------13-|
|--------------------------------------------------------|
|--------------------------------------------------------|
|--------------------------------------------------------|
|--------------------------------------------------------|
|
|  PM-------------------------------------------------|
|--------------------------------------------------------|
|--------------------------------------------------------|
|--------------------------------------------------------|
|--------------------------------------------------------|
|--0-0----0----0--0--------0-----0---------0-----0-----0-|
|--0-0----0----0--0--------0-----0---------0-----0-----0-|


                                                      4/4
|----------------------------------------17-18-20-22-|-18----|
|-10h==11p==10---11-13-11-10-18-17-18-20-------------|-------|
|----------------------------------------------------|-------|
|----------------------------------------------------|-------|
|----------------------------------------------------|-------|
|----------------------------------------------------|-------|
|
|  PM------------|            PM|                  PM
|----------------------------------------------------|-------|
|----------------------------------------------------|-------|
|----------------------------------------------------|--3----|
|----------------------------------------------------|--2----|
|--0-0----0----0--0-----------0--0-------------------|--1----|
|--0-0----0----0--0-----------0--0-----------------0-|-------|


 3/4
  PM    PM|                     PM    PM|
|--------------|--------------|--------------|------------------------|
|-----7------7-|--------------|-----7------7-|--[6]----[6]b8---[6]----|
|----10-----10-|--------------|----10-----10-|------------------------|
|--------------|--------------|--------------|------------------------|
|--------------|--------------|--------------|------------------------|
|-0-----0-0----|--------------|-0-----0-0----|------------------------|
|
|                PM    PM|
|--------------|--------------|--------------|------------------------|
|--------------|-----8------8-|--------------|-[10]---[10]b11-[10]----|
|--------------|----11-----11-|--------------|------------------------|
|--------------|--------------|--------------|------------------------|
|--------------|--------------|--------------|------------------------|
|--------------|-0-----0-0----|--------------|------------------------|


  PM    PM|      PM    PM|      PM    PM|
|--------------|--------------|--------------|----------------------|
|-----7------7-|-----7------7-|-----7------7-|-10-10-10-10-10-10----|
|----10-----10-|----10-----10-|----10-----10-|-13-13-13-13-13-13----|
|--------------|--------------|--------------|----------------------|
|--------------|--------------|--------------|----------------------|
|-0-----0-0----|-0-----0-0----|-0-----0-0----|----------------------|
|
| PM    PM|      PM    PM|      PM    PM|
|--------------|--------------|--------------|----------------------|
|-----7------7-|-----7------7-|-----7------7-|-10-10-10-10-10-10----|
|----10-----10-|----10-----10-|----10-----10-|-13-13-13-13-13-13----|
|--------------|--------------|--------------|----------------------|
|--------------|--------------|--------------|----------------------|
|-0-----0-0----|-0-----0-0----|-0-----0-0----|----------------------|


|--------------|--------------|--------------|----------------|
|----7------7--|----7------7--|----7------7--|----7------7----|
|---10-----10--|---10-----10--|---10-----10--|---10-----10----|
|--------------|--------------|--------------|----------------|
|--------------|--------------|--------------|----------------|
|-0----0-0-----|-0----0-0-----|-0----0-0-----|-0----0-0-------|
|
|--------------|--------------|--------------|----------------|
|----7------7--|----7------7--|----7------7--|----7------7----|
|---10-----10--|---10-----10--|---10-----10--|---10-----10----|
|--------------|--------------|--------------|----------------|
|--------------|--------------|--------------|----------------|
|-0----0-0-----|-0----0-0-----|-0----0-0-----|-0----0-0-------|


|-------------|--------------|-------------|-----------------|
|----------7--|------------7-|----------7--|------------7----|
|---------10--|-----------10-|---------10--|-----------10----|
|-------------|--------------|-------------|-----------------|
|-------------|--------------|-------------|-----------------|
|-0-0-0-0-----|-0-0-0-0-0----|-0-0-0-0-----|-0-0-0-0-0-------|
|
|-------------|--------------|-------------|-----------------|
|----------7--|------------7-|----------7--|------------7----|
|---------10--|-----------10-|---------10--|-----------10----|
|-------------|--------------|-------------|-----------------|
|-------------|--------------|-------------|-----------------|
|-0-0-0-0-----|-0-0-0-0-0----|-0-0-0-0-----|-0-0-0-0-0-------|


                                           5/4
|-------------|--------------|------------|--------|
|----------7--|------------7-|------------|--------|
|---------10--|-----------10-|------------|--------|
|-------------|--------------|------------|--------|
|-------------|--------------|------------|--------|
|-0-0-0-0-----|-0-0-0-0-0----|-0-0-0-0-0--|--------|
|
|-------------|--------------|------------|--------|
|---------10--|-----------10-|------------|--------|
|---------13--|-----------13-|------------|--------|
|-------------|--------------|------------|--------|
|-------------|--------------|------------|--------|
|-0-0-0-0-----|-0-0-0-0-0----|-0-0-0-0-0--|--------|


   4/4
||--------5----------|---5-----7-4------|
||o-5-------6---5----|-----6-------5----|
||----6-------7---6--|-------7-------7--|
||------7------------|-7----------------|
||o------------------|------------------|
||-------------------|------------------|
|
||-------------------|------------------|
||o------------------|------------------|
||-------------------|------------------|
||-------------------|------------------|
||o-7---7-5---5---7--|-7---0---0---2---2|
||--7---7-5---5---7--|-7---0---0---2---2|


|-------5---------|----------------------||
|-5-------6---6---|---5-----------------o||
|---6-------7---7-|-----6---7-6--7-9-----||
|-----7-----------|-8-----7--------------||
|-----------------|---------5-4--5-7----o||
|-----------------|----------------------||
|
|-----------------|----------------------||
|-----------------|---------------------o||
|-----------------|----------------------||
|-----------------|----------------------||
|-7---7-5---5---8-|-8-7---7-------------o||
|-7---7-5---5---8-|-8-7---7-3-2--3-5-----||


|-------5---------|---5-----7-4--------|
|-5-------6---5---|-----6-------5------|
|---6-------7---6-|-------7-------7----|
|-----7-----------|-7------------------|
|-----------------|--------------------|
|-----------------|--------------------|
|
|   PM|   PM|   PM--|   PM|   PM  PM
|-----------------|--------------------|
|-----------------|--------------------|
|-----------------|--------------------|
|-----------------|--------------------|
|-7-----5-----7---|---0-----2---2------|
|-7-7-7-5-5-5-7-7-|-7-0-0-0-2-2-2-2----|


|-------5---------|--------------------|
|-5-------6---6---|---5----------------|
|---6-------7---7-|-----6---7-6-7-9----|
|-----7-----------|-8-----7------------|
|-----------------|---------5-4-5-7----|
|-----------------|--------------------|
|
|   PM|   PM|   PM--|   PM--------|
|-----------------|--------------------|
|-----------------|--------------------|
|-----------------|--------------------|
|-----------------|--------------------|
|-7-----5-----8---|---7----------------|
|-7-7-7-5-5-5-8-8-|-8-7-7-7-3-2-3-5----|


|-------5---------|---5-----7-4------|
|-5-------6---5---|-----6-------5----|
|---6-------7---6-|-------7-------7--|
|-----7-----------|-7----------------|
|-----------------|------------------|
|-----------------|------------------|
|
|   PM|   PM|   PM--|   PM|   PM  PM
|-----------------|------------------|
|-----------------|------------------|
|-----------------|------------------|
|-----------------|------------------|
|-7-----5-----7---|---0-----2---2----|
|-7-7-7-5-5-5-7-7-|-7-0-0-0-2-2-2-2--|


|-------5---------|----------------------|
|-5-------6---6---|---5------------------|
|---6-------7---7-|-----6----7-6--7--9---|
|-----7-----------|-8-----7--------------|
|-----------------|----------5-4--5--7---|
|-----------------|----------------------|
|
|   PM|   PM|   PM--|   PM|
|-----------------|----------------------|
|-----------------|----------------------|
|-----------------|---------10-9-10-12---|
|-----------------|----------------------|
|-7-----5-----8---|---7------8-7--8-10---|
|-7-7-7-5-5-5-8-8-|-8-7-7-7--------------|


                                                               4/4
|--------------|-------------------------|-----------------|----------------|
|--------------|-------------------------|-----------------|----------------|
|-9-10---10--9-|-12----12-10-12-14-12-14-|-15---15-14---14-|-12-10----------|
|--------------|-------------------------|-----------------|----------------|
|-7--8----8--7-|-10----------------------|-----------------|---------0------|
|--------------|-------------------------|-----------------|---------0------|
|
|--------------|-------------------------|-----------------|----------------|
|--------------|-------------------------|-----------------|----------------|
|-12-14--14-12-|-15-----9--7--9-10--9-10-|-12---12-10---10-|--9--7----------|
|--------------|-------------------------|-----------------|----------------|
|-10-12--12-10-|-13----------------------|-----------------|---------0------|
|--------------|-------------------------|-----------------|---------0------|


 4/4
                             PM------------------|
|--------------------------|-----------------------|
|--------------------------|-----------------------|
|------------[9]----([9])--|-----------------------|
|---------5----------------|-----------------------|
|-5--7--9------------------|-0-0-0-0-0-0-0-0-0-0-0-|
|--------------------------|-0-0-0-0-0-0-0-0-0-0-0-|
|
|                            PM------------------|
|--------------------------|-----------------------|
|--------------------------|-----------------------|
|-----------[12]---([12])--|-----------------------|
|---------8----------------|-----------------------|
|-8-10-12------------------|-0-0-0-0-0-0-0-0-0-0-0-|
|--------------------------|-0-0-0-0-0-0-0-0-0-0-0-|


|-------------|--------------|
|-------------|--------------|
|-------------|-----------5--|
|---8-------5-|-7-5-4---4----|
|-----5-------|-------5------|
|-5-----5-3---|--------------|
|
|-------------|--------------|
|-------------|--------------|
|-------------|--------------|
|-------------|--------------|
|-------------|--------------|
|-------------|--------------|


  PM--------------|                   PM--------|
|-------------------|---------------|-----------------|------------------|
|-------------------|---------------|-----------------|------------------|
|-------------------|---------------|-----------------|-----8-7-----6----|
|-------------------|---8-7-5-7-----|---------------8-|-7-5-----5-8---7--|
|-------------------|-5----------6--|-------------5---|------------------|
|-0-0-0-0---0-0-0-0-|---------------|-0-0-0-0---0-----|------------------|
|
| PM--------------|                   PM--------|
|-------------------|---------------|-----------------|------------------|
|-------------------|---------------|-----------------|------------------|
|-------------------|---------------|-----------------|------------------|
|-------------------|---------------|-----------------|------------------|
|-------------------|---------------|-----------------|------------------|
|-0-0-0-0---0-0-0-0-|---------------|-0-0-0-0---0-----|------------------|


  PM--------------|
|----------------|---------------|-----------------|-----------10-----------|
|----------------|---------------|-----------------|--------------11--------|
|----------------|---------------|---------8-7-----|-----10-12-------12-11--|
|----------------|---8-7-5-7-----|---8-7-5-----5-8-|--7---------------------|
-----------------|-5----------6--|-5---------------|------------------------|
|-0-0-0-0-0-0-0-0-|--------------|-----------------|------------------------|
|
| PM--------------|
|----------------|---------------|-----------------|------------------------|
|----------------|---------------|-----------------|------------------------|
|----------------|---------------|-----------------|------------------------|
|----------------|---------------|-----------------|------------------------|
|----------------|---------------|---6-----5-----3-|-(3)-----1-----------0--|
|-0-0-0-0-0-0-0-0-|--------------|-0-----0-----0---|------0--------0--0-----|


  PM--------------|                   PM--------|
|-------------------|---------------|-----------------|------------------|
|-------------------|---------------|-----------------|------------------|
|-------------------|---------------|-----------------|-----8-7-----6----|
|-------------------|---8-7-5-7-----|---------------8-|-7-5-----5-8---7--|
|-------------------|-5----------6--|-------------5---|------------------|
|-0-0-0-0---0-0-0-0-|---------------|-0-0-0-0---0-----|------------------|
|
| PM--------------|                   PM----|
|-------------------|---------------|-----------------|------------------|
|-------------------|---------------|-----------------|------------------|
|-------------------|---------------|-----------------|------------------|
|-------------------|---------------|-----------------|------------------|
|-------------------|---------------|-----------------|------------------|
|-0-0-0-0---0-0-0-0-|---------------|-0-0-0-0---------|------------------|


 2/4           4/4
  PM------------------------|
|-------------|---------------|-----------------|
|-------------|---------------|-----------------|
|-------------|---------------|-----------------|
|-------------|---------------|---8-7-5-7-------|
|-------------|---------------|-5----------6----|
|-0-0-0-0-0-0-|-0-0-0---0-0-0-|-----------------|
|
| PM------------------------|
|-------------|---------------|-----------------|
|-------------|---------------|-----------------|
|-------------|---------------|-----------------|
|-------------|---------------|-----------------|
|-------------|---------------|-----------------|
|-0-0-0-0-0-0-|-0-0-0---0-0-0-|-----------------|


                                                          Q.=80
                                          4/4              6/8
                                           PM----------|
|-----------------|---------10-----------|----------------|------|
|-----------------|------------11--------|----------------|------|
|---------8-7-----|---10-12-------12-11--|----------------|------|
|---8-7-5-----5-8-|-7--------------------|----------------|------|
|-5---------------|----------------------|----------------|------|
|-----------------|----------------------|-0-0-0-0---0----|-5----|
|
| PM|                                      PM--------|
|-----------------|----------------------|----------------|------|
|-----------------|----------------------|----------------|------|
|-----------------|----------------------|----------------|------|
|-----------------|----------------------|----------------|------|
|-----------------|----------------------|----------------|------|
|-0-0-------------|----------------------|-0-0-0-0---0----|-5----|


|--------|-----------------|-------------|--------|
|--------|-----------------|-------------|--------|
|--------|-----------------|-------------|--------|
|--------|-----------------|-------------|--------|
|--------|-----------------|-------------|--------|
|-7------|-8---(8)-7h8p7-5-|--7---8---7--|-8------|
|
|--------|-----------------|-------------|--------|
|--------|-----------------|-------------|--------|
|--------|-----------------|-------------|--------|
|--------|-----------------|-------------|--------|
|--------|-----------------|-------------|--------|
|-3------|-1---------------|-(1)----0----|-5------|


|-----------|----------------------|---------------|
|-----------|----------------------|---------------|
|-----------|----------------------|---------------|
|-----------|----------------------|---------------|
|-----------|----------------------|---------------|
|-10----13--|-12---(12)-10h12p10-8-|-10--12--10----|
|
|-----------|----------------------|---------------|
|-----------|----------------------|---------------|
|-----------|----------------------|---------------|
|-----------|----------------------|---------------|
|-----------|----------------------|---------------|
|--7--------|--8----(8)--7h=8p=7-5-|--7---8---7----|


|------------------------|-----------------------|
|------------------------|-----------------------|
|------------------------|-----------------------|
|-----7---8---10---8---7-|-----5---7---8---7---5-|
|-5-5---5---5----5---5---|-3-3---3---3---3---3---|
|------------------------|-----------------------|
|
|------------------------|-----------------------|
|------------------------|-----------------------|
|------------------------|-----------------------|
|------------------------|-----------------------|
|-5----------------------|---3-------------------|
|-5----------------------|---3-------------------|


|-------------------|-----------------------|
|-------------------|-----------------------|
|-------------------|-----------------------|
|-----3-5-5-7-7-8-8-|-10-10--8-8-7-7h8p7----|
|-1-1---------------|--------------------8--|
|-------------------|-----------------------|
|
|-------------------|-----------------------|
|-------------------|-----------------------|
|-------------------|-----------------------|
|-------------------|-----------------------|
|---1---------------|----(1)----------------|
|---1---------------|----(1)----------------|


|------------------------|-----------------------|
|------------------------|-----------------------|
|------------------------|-----------------------|
|-----7---8---10---8---7-|-----5---7---8---7---5-|
|-5-5---5---5----5---5---|-3-3---3---3---3---3---|
|------------------------|-----------------------|
|
|------------------------|-----------------------|
|------------------------|-----------------------|
|------------------------|-----------------------|
|------------------------|-----------------------|
|-5----------------------|---7-------------------|
|-5----------------------|---7-------------------|


|-------------------|-----------------------|
|-------------------|-----------------------|
|-------------------|-----------------------|
|-----3-5-5-7-7-8-8-|-10--10-8-8-7-7h8p7----|
|-1-1---------------|--------------------8--|
|-------------------|-----------------------|
|
|-------------------|-----------------------|
|-------------------|-----------------------|
|-------------------|-----------------------|
|-------------------|-----------------------|
|-8-----------------|-(8)-------------------|
|-8-----------------|-(8)-------------------|


|----------------------------------|--------------------------|
|----------------------------------|--------------------------|
|----------------------------------|--------------------------|
|--------7-----8----10-----8-----7-|-----5----7----8----7---5-|
|--5--5-----5-----5-----5-----5----|-3-3---3----3----3----3---|
|----------------------------------|--------------------------|
|
|----------------------------------|--------------------------|
|----------------------------------|--------------------------|
|----------------------------------|--------------------------|
|-------10----12----13----12----10-|-----8---10---12---10---8-|
|-10-10----10----10----10----10----|-8-8---8----8----8----8---|
|----------------------------------|--------------------------|


|-----------------------|-----------------------------|
|-----------------------|-----------------------------|
|-----------------------|-----------------------------|
|-----3-5-5--7--7--8--8-|-10-10--8--8--7--7h=8p=7-----|
|-1-1-------------------|--------------------------8--|
|-----------------------|-----------------------------|
|
|-----------------------|-----------------------------|
|-----------------------|-----------------------------|
|-----------------------|-----------------------------|
|-----7-8-8-10-10-12-12-|-13-13-12-12-10-10h12p10-----|
|-6-6-------------------|-------------------------12--|
|-----------------------|-----------------------------|


|----------------------------------|--------------------------|
|----------------------------------|--------------------------|
|----------------------------------|--------------------------|
|--------7-----8----10-----8-----7-|-----5----7----8----7---5-|
|--5--5-----5-----5-----5-----5----|-3-3---3----3----3----3---|
|----------------------------------|--------------------------|
|
|----------------------------------|--------------------------|
|----------------------------------|--------------------------|
|----------------------------------|--------------------------|
|-------10----12----13----12----10-|-----8---10---12---10---8-|
|-10-10----10----10----10----10----|-8-8---8----8----8----8---|
|----------------------------------|--------------------------|


|-----------------------|-----------------------------|
|-----------------------|-----------------------------|
|-----------------------|-----------------------------|
|-----3-5-5--7--7--8--8-|-10-10--8--8--7--7h=8p=7-----|
|-1-1-------------------|--------------------------8--|
|-----------------------|-----------------------------|
|
|-----------------------|-----------------------------|
|-----------------------|-----------------------------|
|-----------------------|-----------------------------|
|-----7-8-8-10-10-12-12-|-13-13-12-12-10-10h12p10-----|
|-6-6-------------------|-------------------------12--|
|-----------------------|-----------------------------|


|------------------------------------|------------------------------|
|------------------------------------|------------------------------|
|------------------------------------|------------------------------|
|------------------------------------|------------------------------|
|--5-----5--5--5--5--5-----5--5--5-5-|-3----3-3--3-3--3----3-3--3-3-|
|--5-----5--5--5--5--5-----5--5--5-5-|-3----3-3--3-3--3----3-3--3-3-|
|
|------------------------------------|------------------------------|
|------------------------------------|------------------------------|
|-------12----14----15----14----12---|-----10---12---14---12---10---|
|------------------------------------|------------------------------|
|-10-10-10-10-12-10-13-10-12-10-10---|-8-8--8-8-10-8-12-8-10-8--8---|
|------------------------------------|------------------------------|


|-----------------------------|----------------------------------|
|-----------------------------|----------------------------------|
|-----------------------------|----------------------------------|
|-----------------------------|----------------------------------|
|-1---1--1-1--1--1--1--1-1--1-|--1--1--1-1--1--1--1----1-----1-1-|
|-1---1--1-1--1--1--1--1-1--1-|--1--1--1-1--1--1--1----1-----1-1-|
|
|-----------------------------|----------------------------------|
|-----------------------------|----------------------------------|
|-----8-10---10-12-12-14---14-|-15-15-14---14-12-----------------|
|-----------------------------|----------------------------------|
|-6-6-6--8----8-10-10-12---12-|-13-13-12---12-10-10h12p==10------|
|-----------------------------|-----------------------------13---|


|------------------------------------|------------------------------------|
|------------------------------------|------------------------------------|
|------------------------------------|------------------------------------|
|------------------------------------|------------------------------------|
|--5-----5--5--5--5--5-----5--5--5-5-|--7-----7--7--7--7--7-----7--7--7-7-|
|--5-----5--5--5--5--5-----5--5--5-5-|--7-----7--7--7--7--7-----7--7--7-7-|
|
|------------------------------------|------------------------------------|
|------------------------------------|------------------------------------|
|-------12----14----15----14----12---|-------14----15----17----15----14---|
|------------------------------------|------------------------------------|
|-10-10-10-10-12-10-13-10-12-10-10---|-12-12-12-12-13-12-15-12-13-12-12---|
|------------------------------------|------------------------------------|


|---------------------------|---------------------------|
|---------------------------|---------------------------|
|---------------------------|---------------------------|
|---------------------------|---------------------------|
|--8--8-8--8-8--8--8-8--8-8-|--8--8-8--8-8--8--8-8--8-8-|
|--8--8-8--8-8--8--8-8--8-8-|--8--8-8--8-8--8--8-8--8-8-|
|
|---------------------------|---------------------------|
|---------------------------|---------------------------|
|-17-17---17---19-19---19---|-17-17---17---19-19---19---|
|---------------------------|---------------------------|
|-15-15---15---17-17---17---|-15-15---15---17-17---17---|
|---------------------------|---------------------------|


|--------------------------|--------------------------|
|--------------------------|--------------------------|
|--------------------------|--------------------------|
|--------------------------|--------------------------|
|-5--5-5--5-5--5--5-5--5-5-|-3--3-3--3-3--3--3-3--3-3-|
|-5--5-5--5-5--5--5-5--5-5-|-3--3-3--3-3--3--3-3--3-3-|
|
|--------------------------|--------------------------|
|--------------------------|--------------------------|
|---12---14---15-14---12---|---10---12---14-12---10---|
|--------------------------|--------------------------|
|---10---12---13-12---10---|----8---10---12-10----8---|
|--------------------------|--------------------------|


  PM---------|                  PM---|
|----------------------------|-------------------------|
|----------------------------|-------------------------|
|----------------------------|-------------------------|
|----------------------------|-------------------------|
|----------------1--1--1-----|--------------1--1--1----|
|-1-1-1--1-1--1--1--1--1-----|--1--1--1-----1--1--1----|
|
|----------------------------|-------------------------|
|----------------------------|-------------------------|
|-----8-10---10-12-12-14--14-|-15-15-17-17-15-15-14----|
|----------------------------|-------------------------|
|-6-6-6--8----8-10-10-12--12-|-13-13-15-15-13-13-12----|
|----------------------------|-------------------------|


|--------------------------|--------------------------|
|--------------------------|--------------------------|
|--------------------------|--------------------------|
|--------------------------|--------------------------|
|-5--5-5--5-5--5--5-5--5-5-|-3--3-3--3-3--3--3-3--3-3-|
|-5--5-5--5-5--5--5-5--5-5-|-3--3-3--3-3--3--3-3--3-3-|
|
|--------------------------|--------------------------|
|--------------------------|--------------------------|
|---12---14---15-14---12---|---10---12---14-12---10---|
|--------------------------|--------------------------|
|---10---12---13-12---10---|----8---10---12-10----8---|
|--------------------------|--------------------------|


|-------------------------------|--------------------------------|
|-------------------------------|--------------------------------|
|-------------------------------|--------------------------------|
|-------------------------------|--------------------------------|
|--6--6--6--6--6--6--6--6--6--6-|--6--6--6--6--6--6--6--6--6--6--|
|--6--6--6--6--6--6--6--6--6--6-|--6--6--6--6--6--6--6--6--6--6--|
|
|-------------------------------|--------------------------------|
|-------------------------------|--------------------------------|
|-17-17-17-17-17-17-17-17-17-17-|-17-17-17-17-17-17-17-17-17-17--|
|-------------------------------|--------------------------------|
|-15-15-15-15-15-15-15-15-15-15-|-15-15-15-15-15-15-15-15-15-15--|
|-------------------------------|--------------------------------|


                                                                Q
|-------------------------------|-------------------------------|
|-------------------------------|-------------------------------|
|-------------------------------|-------------------------------|
|-------------------------------|-------------------------------|
|--6--6--6--6--6--6--6--6--6--6-|--6--6--6--6--6--6--6--6--6--6-|
|--6--6--6--6--6--6--6--6--6--6-|--6--6--6--6--6--6--6--6--6--6-|
|
|-------------------------------|-------------------------------|
|-------------------------------|-------------------------------|
|-16-16-16-16-16-16-16-16-16-16-|-16-16-16-16-16-16-16-16-16-16-|
|-------------------------------|-------------------------------|
|-14-14-14-14-14-14-14-14-14-14-|-14-14-14-14-14-14-14-14-14-14-|
|-------------------------------|-------------------------------|


 =216
 4/4
              PM------------------|
|-----------|------------------------|
|-----------|------------------------|
|-----------|------------------------|
|-----------|------------------------|
|--5--------|------------------------|
|--5--------|-0-0-0-0-0-0-0-0-0-0-0--|
|
|             PM------------------|
|-----------|------------------------|
|-----------|------------------------|
|-15--------|------------------------|
|-----------|------------------------|
|-13--------|------------------------|
|-----------|-0-0-0-0-0-0-0-0-0-0-0--|


Tablature Legend
----------------
 h   - hammer-on
 p   - pull-off
 b   - bend
 pb  - pre-bend
 r   - bend release (if no number after the r, then release immediately)
 /\  - slide into or out of (from/to "nowhere")
 s   - legato slide
 S   - shift slide
  - natural harmonic
[n]  - artificial harmonic
n(n) - tapped harmonic
 ~   - vibrato
 tr  - trill
 T   - tap
 TP  - trem. picking
 PM  - palm muting
\n/  - tremolo bar dip; n = amount to dip
 \n  - tremolo bar down
 n/  - tremolo bar up
/n\  - tremolo bar inverted dip
 =   - hold bend; also acts as connecting device for hammers/pulls
 <>  - volume swell (louder/softer)
 x   - on rhythm slash represents muted slash
 o   - on rhythm slash represents single note slash

Misc Legend
-----------
 |  - bar
||  - double bar
||o - repeat start
o|| - repeat end
*|  - double bar (ending)
 :  - bar (freetime)
 $  - Segno
 &  - Coda
Tempo markers -  = BPM(8/16=s8/s16), where s8 = swing 8ths, s16 = swing 16ths


***************************************************************************************
* Generated using Power Tab Editor by Brad Larsen - http://powertab.guitarnetwork.org *
***************************************************************************************
20 comments total. Showing first comments.
+1 reply
re_man182 wrote on February 6 2006, 03:33 pm

thank u for tabbing this song its perfect.

+1 reply
sixxslayer wrote on February 6 2006, 05:14 pm

thanks again timba, see you in tampa bro

0 reply
re_man182 wrote on February 7 2006, 10:37 pm

hey i just posted a heretics and killers intro/ can anyone help me with the rest, its kinda hard to hear.

I want to post or [tab]
guest
You may want to rate the tab now too:
select rating
Please do not post tabs as comments. Select "correction" instead!