Oops, an error
Loading. Please wait.

Goddess Bound Bass Tab

ver1
ver1

Whole song

Interactive

More versions @911Tabs.com
1,287 views 1 this week
no commentswrite comment
1 2 3 4 5
excellent!
x 2
Autoscroll
+/-
esc
set tempo
stop
Hey! There's an official Ultimate Guitar app which is ideal
for learning songs when you're away from computer. Get the app
WARNING: You are trying to view
                                    content from Ultimate-Guitar.com
                                    in an unauthorized application,
                                    which is prohibited.

                                    Please use an official Ultimate
                                    Guitar Tabs application for iPhone,
                                    iPad or Android to access legitimate
                                    chords, guitar, bass, and drum tabs
                                    from Ultimate-Guitar.com database.

                                    Type "ultimate guitar tabs" in Apple
                                    App Store's or Android Market's
                                    search to find the application.
Arif Mirabdolbaghi

For everyone without Guitar Pro. Tabbed by Tom DeLonge II.

      |-3-| |-3-|    |-3-| |-3-| |-3-| |-3-|     
      S S S S S S E  S S S S S S S S S S S S E   
F#||--------------------------------------------|
C#||--------------------------------------------|
G#||--------------------------------------------|
D#||--0-0-0-0-0-0-0--0-0-0-0-0-0-0-0-0-0-0-0-0--|
A#||--------------------------------------------|


  |-3-| |-3-|    |-3-| |-3-| |-3-| |-3-|     
  S S S S S S E  S S S S S S S S S S S S E   
--------------------------------------------|
--------------------------------------------|
--------------------------------------------|
--0-0-0-0-0-0-0--0-0-0-0-0-0-0-0-0-0-0-0-0--|
--------------------------------------------|


  |-3-| |-3-|    |-3-| |-3-| |-3-| |-3-|     
  S S S S S S E  S S S S S S S S S S S S E   
--------------------------------------------|
--------------------------------------------|
--------------------------------------------|
--0-0-0-0-0-0-0--0-0-0-0-0-0-0-0-0-0-0-0-0--|
--------------------------------------------|


  |-3-| |-3-|    |-3-| |-3-| |-3-| |-3-|      
  S S S S S S E  S S S S S S S S S S S S S S  
---------------------------------------------|
---------------------------------------------|
---------------------------------------------|
--0-0-0-0-0-0-0--0-0-0-0-0-0-0-0-0-0-0-0-0---|
---------------------------------------------|


  S S  S S S  S S S  S S S S S S S S    S S  S S S  S S S S S S S S S S S  
-------------------------------------|------------------------------------|
------------------5h-7-----5-7-8-----|------------------------------------|
----5h-7---5h-7------------------4---|----5h-7---5h-7---------------------|
--0------0------0------6-0---------5-|--0------0------0-0---0---0---0---0-|
-------------------------------------|------------------------------------|


  S S  S S S  S S S  S S S S S S S S  
-------------------------------------|
------------------5h-7-----5-7-8-----|
----5h-7---5h-7------------------4---|
--0------0------0------6-0---------5-|
-------------------------------------|


                         T       T       T     
  S S  S S S  S S S S S  S   S   S   S   S  S  
----------------------------------------------|
----------------------------------------------|
----5h-7---5h-7-------------------------------|
--0------0------0-0-0-0-14p-10h-17p-14h-15----|
-------------------------------------------13-|


  S S  S S S  S S S  S S S S S S S S    S S  S S S  S S S S S S S S S S S  
-------------------------------------|------------------------------------|
------------------5h-7-----5-7-8-----|------------------------------------|
----5h-7---5h-7------------------4---|----5h-7---5h-7---------------------|
--0------0------0------6-0---------5-|--0------0------0-0---0---0---0---0-|
-------------------------------------|------------------------------------|


  S S  S S S  S S S  S S S S S S S S    S S  S S S  S E   
-------------------------------------|-------------------|
------------------5h-7-----5-7-8-----|-------------------|
----5h-7---5h-7------------------4---|----5h-7---5h-7----|
--0------0------0------6-0---------5-|--0------0---------|
-------------------------------------|-------------------|


      T  T      T      T  T     T     T    T     T  
  S   S  S  S   S   S  S  S S   S S   S S  S  S  S  
-----------11h-14p-11------------------------------|
--------12------------12---------------------------|
--9h-12------------------12-------------8----------|
----------------------------------6h-10---10p-6----|
----------------------------8h-10---------------10-|


      T  T      T      T  T     T     T    T     T  
  S   S  S  S   S   S  S  S S   S S   S S  S  S  S  
-----------11h-14p-11------------------------------|
--------12------------12---------------------------|
--9h-12------------------12-------------8----------|
----------------------------------6h-10---10p-6----|
----------------------------8h-10---------------10-|


      T  T      T      T  T     T     T    T     T  
  S   S  S  S   S   S  S  S S   S S   S S  S  S  S  
-----------11h-14p-11------------------------------|
--------12------------12---------------------------|
--9h-12------------------12-------------8----------|
----------------------------------6h-10---10p-6----|
----------------------------8h-10---------------10-|


      T  T      T      T  T                                    
                             |--3-| |--3--|  |--3--|  |--3--|  
  S   S  S  S   S   S  S  S  S  S S S  S  S  S  S  S  S  S  S  
-----------11h-14p-11-------10p-7-----------12p-9-------------|
--------12------------12----------7---------------10----------|
--9h-12------------------12---------8----------------12-------|
--------------------------------------10----------------12----|
-----------------------------------------11----------------13-|


                                          T        T  
                                   |---3--| |---3--|  
  W                   H.           S  S   S S  S   S  
-------------------|------------------------7h-9h-10-|
-------------------|---------------7h-9h-10----------|
--0----------------|--L------------------------------|
-------------------|---------------------------------|
-------------------|---------------------------------|


  S  S  S  S  S  S S  S S  S  S  S  S  S S  S  
----------------------------------------------|
----10-10-10-10-10---10---11-11-11-11-11---11-|
----12-12-12-12-12---12---10-10-10-10-10---10-|
----------------------------------------------|
----------------------------------------------|


  S  S  S  S  S  S S  S S S S S S S E     S S S Q    E  S S S S S S S  
---------------------------------------|------------------------------|
----10-10-10-10-10---10----------------|------------------------------|
-----8--8--8--8--8----8----------------|------------------------------|
--------------------------0-0---0---0--|--0---0---------0---0---0---0-|
---------------------------------------|------------------------------|


  S S S Q    E  S S S S S S S    S S S Q    E  S S S S S S S    S S S Q    S  
------------------------------|------------------------------|---------------|
------------------------------|------------------------------|---------------|
------------------------------|------------------------------|---------------|
--0---0---------0---0---0---0-|--0---0---------0---0---0---0-|--0---0--------|
------------------------------|------------------------------|---------------|


  |-3-| |-3-|    |-3-| |-3-| |-3-| |-3-|     
  S S S S S S E  S S S S S S S S S S S S E   
--------------------------------------------|
--------------------------------------------|
--------------------------------------------|
--0-0-0-0-0-0-0--0-0-0-0-0-0-0-0-0-0-0-0-0--|
--------------------------------------------|


  |-3-| |-3-|    |-3-| |-3-| |-3-| |-3-|                                    
  S S S S S S E  S S S S S S S S S S S S E        E  E   S Q    S E  E  E   
--------------------------------------------|------------------------------|
--------------------------------------------|------------------------------|
--------------------------------------------|------------------------------|
--0-0-0-0-0-0-0--0-0-0-0-0-0-0-0-0-0-0-0-0--|--5g12--L\--0--------3--5--3--|
--------------------------------------------|------------------------------|


   E   E  E  H        E     S S S Q    E  S S S Q     
-------------------------|---------------------------|
-------------------------|---------------------------|
-------------------------|---------------------------|
--12\--0--0--------------|--0-0-0---------0-0-0------|
-------------------------|---------------------------|


  S S S Q    E  S S S Q       S S S S S  S S S  S S S S S S S S  
---------------------------|------------------------------------|
---------------------------|------------------------------------|
---------------------------|----------------------------1-1-1-1-|
--0-0-0---------0-0-0------|--0---0--------0------0-0-0---------|
---------------------------|----------1s-3---1s-3---------------|


  S S S S S  S S S  S S S S S S    S S S S S  S S S  S S S S S S S S  
--------------------------------|------------------------------------|
--------------------------------|------------------------------------|
----------------------------1-1-|----------------------------1-1-1-1-|
--0---0--------0------0-0-0-----|--0---0--------0------0-0-0---------|
----------1s-3---1s-3-----------|----------1s-3---1s-3---------------|


  S S S S S  S S S  S S S S S S S S    S S  S S S  S S S  S S S S S S S S  
------------------------------------|-------------------------------------|
------------------------------------|------------------5h-7-----5-7-8-----|
----------------------------1-1-1---|----5h-7---5h-7------------------4---|
--0---0--------0------0-0-0---------|---------0------0------6-0---------5-|
----------1s-3---1s-3---------------|-------------------------------------|


                    |---3--| |---3--|  |--3--|  |--3--|  
  S S  S S S  S S S S  S   S S  S   S  S  S  S  S  S  S  
--------------------------------------------------------|
-----------------------------7h-9h-10-10p-9p-7----------|
----5h-7---5h-7-----7h-9h-10-------------------10p-9p-7-|
--0------0------0-0-------------------------------------|
--------------------------------------------------------|


  S S  S S S  S S S  S S S S S S S S    S S S Q    E  S S S S S S S  
-------------------------------------|------------------------------|
------------------5h-7-----5-7-8-----|------------------------------|
----5h-7---5h-7------------------4---|------------------------------|
--0------0------0------6-0---------5-|--0---0---------0---0---0---0-|
-------------------------------------|------------------------------|


  S S  S S S  S S S  S S S S S S S S  
-------------------------------------|
------------------5h-7-----5-7-8-----|
----5h-7---5h-7------------------4---|
--0------0------0------6-0---------5-|
-------------------------------------|


                     |--3--|  |--3--|  |--3--|  |--3--|  
  S S  S S S  S S S  S  S  S  S  S  S  S  S  S  S  S  S  
--------------------------------------------------------|
--------------------10p-9p-7----------------------------|
----5h-7---5h-7--------------10p-9p-7-------------------|
--0------0------0-0-------------------10p-8p-7----------|
-----------------------------------------------10p-8p-7-|


  S S  S S S  S S S  S S S S S S S S    S S S Q    E  S S S S S S S  
-------------------------------------|------------------------------|
------------------5h-7-----5-7-8-----|------------------------------|
----5h-7---5h-7------------------4---|------------------------------|
--0------0------0------6-0---------5-|--0---0---------0-0-0---0-0-0-|
-------------------------------------|------------------------------|


  S S S Q    E  S S S S S S S    S S S Q    E  S S S S S S S  
------------------------------|------------------------------|
------------------------------|------------------------------|
------------------------------|------------------------------|
--0---0---------0-0-0---0-0-0-|--0---0---------0-0-0---0-0-0-|
------------------------------|------------------------------|


  S S S Q    E  S S S S S S S    S S S Q    E  S S S S S S S  
------------------------------|------------------------------|
------------------------------|------------------------------|
------------------------------|------------------------------|
--3---3---------3-3-3---3-3-3-|--3---3---------3-3-3---3-3-3-|
------------------------------|------------------------------|


  S S S S S S S S S S S S S S S S    S S S S S S S S S S S S S S S S  
----------------------------------|----------------------------------|
----------------------------------|----------------------------------|
--5-5-5-5-5-5-5-5-5-5-5-5-5-5-5-5-|----------------------------------|
----------------------------------|--5-5-5-5-5-5-5-5-3-3-3-3-3-3-3-3-|
----------------------------------|----------------------------------|


  S S S S S S S S S S S S S S S S    S S S S S S S S S S S S S S S S  
----------------------------------|----------------------------------|
----------------------------------|----------------------------------|
--5-5-5-5-5-5-5-5-5-5-5-5-5-5-5-5-|--2-2-2-2-5-5-5-5-4-4-4-4-4-4-4-4-|
----------------------------------|----------------------------------|
----------------------------------|----------------------------------|


  S S S S S S S S S S S S S S S S    S S S S S S S S S S S S S S S S  
----------------------------------|----------------------------------|
----------------------------------|----------------------------------|
--5-5-5-5-5-5-5-5-5-5-5-5-5-5-5-5-|----------------------------------|
----------------------------------|--5-5-5-5-5-5-5-5-3-3-3-3-3-3-3-3-|
----------------------------------|----------------------------------|


  S S S S S S S S S S S S S S S S    S S S S S S S S S S S S S S S S  
----------------------------------|----------------------------------|
----------------------------------|----------------------------------|
--5-5-5-5-5-5-5-5-5-5-5-5-5-5-5-5-|--2-2-2-2-5-5-5-5-4-4-4-4-4-4-4-4-|
----------------------------------|----------------------------------|
----------------------------------|----------------------------------|


  E  E  E  E  E  Q    E     E  S S   E  E    E  Q    S S  
-------------------------|-----------------7g9-----------|
-------------------------|---------7g9----------8--------|
--2-----1-------------7--|--5--x-x------7----------------|
-----3-----1--0----------|---------------------------5-6-|
-------------------------|-------------------------------|


  S S S S Q.     Q    S S    S S S S S S S S Q     
--------------------------|-----------------------|
----------4---------------|----5------------------|
----5-6-7--------7----5-6-|--7---7-6-5------------|
--7-----------------------|------------7-6-5-3----|
--------------------------|-----------------------|


  E  E  E  S S   E  E    E  E     E  S S S S S S Q.     E   
-----------------------7g9-----|---------------------------|
---------------7g9----------8--|--L--------------4---------|
-----7--5--x-x------7----------|-----------5-6-7--------7--|
--0----------------------------|-----5-6-7-----------------|
-------------------------------|---------------------------|


  E  S S S S S S S S S S    Q.     Q    S S S S S S S S S S Q     
-------------------------|---------------------------------------|
-----------5-------------|--------------------5------------------|
--L--5-6-7---7-6-5-------|--------------5-6-7---7-6-5------------|
-------------------7-6-5-|--3------0------------------7-6-5-3----|
-------------------------|---------------------------------------|


  E  E  E  E  E  E  E  E     E  E  E  E  E  E  E  E   
--------------------9-----|--------------------------|
--------------9--------8--|--7--6--5-----------------|
-----7--6--5-----7--------|-----------7--6--5--------|
--0-----------------------|--------------------7--6--|
--------------------------|--------------------------|


  E  E  E  E  E  E  E  E      E  E  E   E  E  E   E    E   
--------------------9--8--|--11--------12--------14h--16--|
--------------9-----------|------0--0------0--0-----------|
-----7--6--5-----7--------|-------------------------------|
--0-----------------------|-------------------------------|
--------------------------|-------------------------------|


  E  E  E  E  E  E  E  E     E  E  E  E  E  E  E  E   
--------------------9-----|--------------------------|
--------------9--------8--|--7--6--5-----------------|
-----7--6--5-----7--------|-----------7--6--5--------|
--0-----------------------|--------------------7--6--|
--------------------------|--------------------------|


  E  E  E  E  E  E  E  E     E  E  Q    Q    Q       W                 
--------------------------|-----------------------|-------------------|
--------------------------|-----------------------|-------------------|
-----7--6--5--------------|-----------------------|-------------------|
--0-----------7--6--5-----|------------------3----|-------------------|
-----------------------7--|--6--5--3----5---------|-------------------|


  W                   W                   E.  T  T  E  E  E   
-------------------|-------------------|---------------------|
-------------------|-------------------|---------------------|
-------------------|-------------------|---------------------|
-------------------|-------------------|--2---Ls-3s-2--0-----|
-------------------|-------------------|---------------------|


  S S P  P  S S P  P  S                                  
  S S E  E  S S E  E  E  E     E  E  E  E  E  E  S S E   
----------------------------|---------------------------|
----------------------------|---------------------------|
------5--5------5--5--------|---------------------------|
--x-x-------x-x-------0-----|--0--5--3--0--7--5--8-7-5--|
----------------------------|---------------------------|


  S S E  S S E  E  E  E  E     E  E  E  E  E  E  S S E     E.  T  T  E  E  E   
----------------------------|---------------------------|---------------------|
----------------------------|---------------------------|---------------------|
----------------------------|---------------------------|---------------------|
--8-7-5--7-5-3--8--7--5-----|--0--5--3--0--7--5--8-7-5--|--2---Ls-3s-2--0-----|
-------------------------8--|---------------------------|---------------------|


  S S P  P  S S P  P  S S P     S                 
  S S E  E  S S E  E  S S E     E  H        Q     
-----------------------------|-------------------|
-----------------------------|-------------------|
------5--5------5--5------5--|-------------------|
--x-x-------x-x-------x-x----|--0----------------|
-----------------------------|-------------------|


  **PRESS F5 FOR SCORE INFO                                
  S                         S S S S S S S S S S S S S S S  
----------------------------------------------------------|
----------------------------------------------------------|
----------------------------------------------------------|
--2-------------------------2-2-2-2-2-2-2-0-0-0-0-0-0-0-0-|
----------------------------------------------------------|


  S S S S S S S S S S S S S S S S    S S S S S S S S S S S S S S S S  
----------------------------------|----------------------------------|
------------------------------8-8-|----------------------------------|
----------------------7-7-7-7-----|----------------------------------|
--2-2-2-2-2-2-2-2-6-6-------------|--2-2-2-2-2-2-2-2-0-0-0-0-0-0-0-0-|
----------------------------------|----------------------------------|


  S S S S S S S S S S S S S S S S    S S S S S S S S S S  S S S S S S  
----------------------------------|-----------------------------------|
----------------------------------|-----------------------------------|
--0-0-0-0-0-0-0-0-0-0-0-0-0-0-0-0-|------------------7-9-10-9-7-------|
----------------------------------|-----------------------------9-7-6-|
----------------------------------|--7-7-7-7-7-7-7-7------------------|


                  |--3--| |---3--| |---3--| |---3--|  
  S S S S S S S S S  S  S S  S   S S  S   S S  S   S  
-----------------------------------------------------|
--------------------------------------------8h-9h-11-|
--------------------------7h-9h-10-7h-9h-10----------|
------------------6h-8h-9----------------------------|
--7-7-7-7-7-7-7-7------------------------------------|


  S S S S S S S S S S  S S S S S S    S S S S S S S S S S S S S S S S  
-----------------------------------|----------------------------------|
-----------------------------------|----------------------------------|
------------------7-9-10-9-7-------|--0-0-0-0-0-0-0-0-0-0-0-0-0-0-0-0-|
-----------------------------9-7-6-|----------------------------------|
--7-7-7-7-7-7-7-7------------------|----------------------------------|


  S S S S S S S S S S S S S S S S    H        H           W                 
----------------------------------|--------------------|-------------------|
----------------------------------|--5--------7--------|--9----------------|
--2-2-2-2-2-2-2-2-2-2-2-2-2-2-2-2-|--3--------5--------|--7----------------|
----------------------------------|--------------------|-------------------|
----------------------------------|--------------------|-------------------|


  H         Q.     E     S S S S S S S S S S S S S S S  
-----------13---------|--------------------------------|
-----------14---------|--------------------------------|
----------------------|--------------------------------|
--0-------------------|------------------------4---3---|
----------------------|--3---2---3-2---3---2-----------|


  S S S S S S S S S S S S S S S    S S S S S S S S S S S S S S S  
--------------------------------|--------------------------------|
--------------------------------|------------------------6---5---|
--------------------------------|--5---4---5-4---5---4-----------|
------------------------4---3---|--------------------------------|
--3---2---3-2---3---2-----------|--------------------------------|


  S S S S S S S S S S S S S S S    H.              Q.     S    H.            
--------------------------------|---------------|-----------|---------------|
------------------------6---5---|---------------|-----------|---------------|
--5---4---5-4---5---4-----------|---------------|-----------|---------------|
--------------------------------|---------------|-----------|---------------|
--------------------------------|--3------------|--L------L-|--3------------|


  Q.     S    S S S S S S S S S S S S    S S S S S S S  
-----------|--------------------------|----------------|
-----------|--------------------------|----------------|
-----------|--------------------------|----------------|
-----------|--------------------------|----------------|
--L------L-|--3-3-3-3-3-3-3-3-3-3-3-3-|--3-3-3-3-3-3-3-|


  S S S S S S S S S S S S    S S S S S S S    S S S S S S S S S S S S  
--------------------------|----------------|--------------------------|
--------------------------|----------------|--------------------------|
--------------------------|----------------|--------------------------|
--------------------------|----------------|--------------------------|
--3-3-3-3-3-3-3-3-3-3-3-3-|--3-3-3-3-3-3-3-|--3-3-3-3-3-3-3-3-3-3-3-3-|


  S S S S S S S    S S S S S S S S S S S S    S S S S S S S  
----------------|--------------------------|----------------|
----------------|--------------------------|----------------|
----------------|--------------------------|----------------|
----------------|--------------------------|----------------|
--3-3-3-3-3-3-3-|--3-3-3-3-3-3-3-3-3-3-3-3-|--3-3-3-3-3-3-3-|


  S S S S H          
-------------------||
-------------------||
-------------------||
-------------------||
--3-3-3-3----------||




Duration Legend
---------------
W - whole
H - half
Q - quarter
E - 8th
S - 16th
T - 32nd
X - 64th
. - note dotted
|-n-|  - n-tuplets


Tablature Legend
----------------
L - tied note
x - dead note
g - grace note
(n) - ghost note
> - accentuded note
NH - natural harmonic
AH - artificial harmonic
TH - tapped harmonic
SH - semi harmonic
PH - pitch harmonic
h - hammer on
p - pull off
b - bend
br - bendRelease
pb - preBend
pbr - preBendRelease
brb - bendReleaseBend
\n/ - tremolo bar dip
\n - tremolo bar dive
-/n - tremolo bar Release up
/n\ - tremolo bar inverted dip
/n - tremolo bar return
-\n - tremolo bar Release down
S - shift slide
s - legato slide
/ -  slide into from below or out of upwards
\ -  slide into from above or out of downwards
~ - vibrato
W - wide vibrato
tr - trill
TP - tremolo picking
T - tapping
S - slap
P - pop
< - fade in
^ - brush up
v - brush down
comments
We did not receive enough feedback on this tab! Please rate:
print report bad tab
1 2 3 4 5
I want to post or [tab]
guest
You may want to rate the tab now too:
select rating
Please do not post tabs as comments. Select "correction" instead!