Oops, an error
Loading. Please wait.

Goddess Bound Tab

ver1
ver1

Whole song

Interactive

More versions @911Tabs.com
6,754 views 1 this week
no commentswrite comment
1 2 3 4 5
excellent!
x 3
Autoscroll
+/-
esc
set tempo
stop
Contributor
Difficulty
advanced
Hey! There's an official Ultimate Guitar app which is ideal
for learning songs when you're away from computer. Get the app
WARNING: You are trying to view
                                    content from Ultimate-Guitar.com
                                    in an unauthorized application,
                                    which is prohibited.

                                    Please use an official Ultimate
                                    Guitar Tabs application for iPhone,
                                    iPad or Android to access legitimate
                                    chords, guitar, bass, and drum tabs
                                    from Ultimate-Guitar.com database.

                                    Type "ultimate guitar tabs" in Apple
                                    App Store's or Android Market's
                                    search to find the application.
Goddess Bound - Protest the Hero

Sorry that it's so long, I exported it from Guitar Pro. Luke's part is shown first, then 
In general Luke does the lead, and Tim the rhythm and harmonies, but that's not always 
case. Enjoy.

Luke Hoskin


       T        T          T        T        T        T
       |--3-|   |--3-|     |--3-|   |--3-|   |--3-|   |--3-|
       S  S S   S  S S E   S  S S   S  S S   S  S S   S  S S E
D#||--12p-7---------------12p-7---------------------------------|
A#||--------8h-12p-7------------8h-12p-7------------------------|
F#||-----------------7-------------------7h-12p-7---------------|
C#||----------------------------------------------8h-12p-7------|
G#||-------------------------------------------------------8----|
D#||-------------------0-------------------------------------0--|


   T        T          T        T        T        T
   |--3-|   |--3-|     |--3-|   |--3-|   |--3-|   |--3-|
   S  S S   S  S S E   S  S S   S  S S   S  S S   S  S S E
--12p-7---------------12p-7---------------------------------|
--------8h-12p-7------------8h-12p-7------------------------|
-----------------7-------------------7h-12p-7---------------|
----------------------------------------------8h-12p-7------|
-------------------------------------------------------8----|
-------------------0-------------------------------------0--|


   T        T          T        T        T        T
   |--3-|   |--3-|     |--3-|   |--3-|   |--3-|   |--3-|
   S  S S   S  S S E   S  S S   S  S S   S  S S   S  S S E
--12p-7---------------12p-7---------------------------------|
--------8h-12p-7------------8h-12p-7------------------------|
-----------------7-------------------7h-12p-7---------------|
----------------------------------------------8h-12p-7------|
-------------------------------------------------------8----|
-------------------0-------------------------------------0--|


   T        T          T        T        T        T
   |--3-|   |--3-|     |--3-|   |--3-|   |--3-|   |--3-|
   S  S S   S  S S E   S  S S   S  S S   S  S S   S  S S S S
--12p-7---------------12p-7----------------------------------|
--------8h-12p-7------------8h-12p-7-------------------------|
-----------------7-------------------7h-12p-7----------------|
----------------------------------------------8h-12p-7-------|
-------------------------------------------------------8-----|
-------------------0-------------------------------------0---|


  PM      PM      PM        PM
  S  S  S S  S  S S  S  S S S  S S S S S
-----------------------------------------|
-----------------------------------------|
-----------------------------------------|
---------------------5h-7------5-7-8-----|
-----5h-7----5h-7--------------------4---|
--0-------0-------0-------6-0----------5-|


  PM      PM      PM
  S  S  S S  S  S S  S  S S S S S S S S
----------------------------------------|
----------------------------------------|
------------------------------9---7-----|
--------------------------7-8---8---8-7-|
-----5h-7----5h-7----7-10---------------|
--0-------0-------0---------------------|


  PM      PM      PM        PM
  S  S  S S  S  S S  S  S S S  S S S S S
-----------------------------------------|
-----------------------------------------|
-----------------------------------------|
---------------------5h-7------5-7-8-----|
-----5h-7----5h-7--------------------4---|
--0-------0-------0-------6-0----------5-|


  PM      PM      PM  PM    PM
  S  S  S S  S  S S   S  S  S  S  S  S  S  S  S
------------------------------------------------|
------------------------------------10-------13-|
------------------------------11-------11-12----|
------------------------12-------12-------------|
-----5h-7----5h-7----10----12-------------------|
--0-------0-------0-----------------------------|


  PM      PM      PM        PM
  S  S  S S  S  S S  S  S S S  S S S S S
-----------------------------------------|
-----------------------------------------|
-----------------------------------------|
---------------------5h-7------5-7-8-----|
-----5h-7----5h-7--------------------4---|
--0-------0-------0-------6-0----------5-|


  PM      PM      PM
  S  S  S S  S  S S  S  S S S S S S S S
----------------------------------------|
----------------------------------------|
------------------------------9---7-----|
--------------------------7-8---8---8-7-|
-----5h-7----5h-7----7-10---------------|
--0-------0-------0---------------------|


  PM      PM      PM        PM              PM      PM
  S  S  S S  S  S S  S  S S S  S S S S S    S  S  S S  S  S S S
-----------------------------------------|----------------------|
-----------------------------------------|----------------------|
-----------------------------------------|----------------------|
---------------------5h-7------5-7-8-----|----------------------|
-----5h-7----5h-7--------------------4---|-----5h-7----5h-7-9-9-|
--0-------0-------0-------6-0----------5-|--0-------0-----------|


   S  S  S  S  S  S  S  S  S  S  S  E   T   T   S  S
-----------------------------------------------------|
-----------------10----------------11--10h-11p-10----|
--11-------11-------11----------------------------12-|
-----12-------12-------12-------12-------------------|
--------12----------------10-13----------------------|
-----------------------------------------------------|


                                                |--3--|
   S  S  S  S  S  S  S  S  S  S  S  E   T   T   S  S  S
--------------------------------------------------------|
-----------------10----------------15--13h-15p-13-------|
--11-------11-------11----------------------------15-12-|
-----12-------12-------12-------12----------------------|
--------12----------------10-13-------------------------|
--------------------------------------------------------|


   S  S  S  S  S  S  S  S  S  S  S  E   T   T   S  S
-----------------------------------------------------|
-----------------10----------------11--10h-11p-10----|
--11-------11-------11----------------------------12-|
-----12-------12-------12-------12-------------------|
--------12----------------10-13----------------------|
-----------------------------------------------------|


                           |--3--|  |--3--|  |--3--|  |--3--|
   S  S  S  S  S  S  S  S  S  S  S  S  S  S  S  S  S  S  S  S
--------------------------13-10-------------15-12-------------|
-----------------10-------------10----------------13----------|
--11-------11-------11-------------10----------------12-------|
-----12-------12-------12-------------12----------------14----|
--------12-------------------------------13----------------15-|
--------------------------------------------------------------|


  PM     PM     PM   PM     PM     PM
  S  S S S  S S S  S S  S S S  S S S  S
----------------------------------------|
----------------------------------------|
-----5------5------5----6------6------6-|
-------7------7-----------5------5------|
--0------0------0----0------0------0----|
----------------------------------------|


  PM     PM     PM   PM      PM
                                |---3--| |---3--|
  S  S S S  S S S  S S   S S S  S  S   S S  S   S
--------------------------------------------------|
--------------------------------------------------|
-----7------7------7----10---------------7h-9h-10-|
-------3------3------------7----7h-9h-10----------|
--0------0------0----0-------0--------------------|
--------------------------------------------------|


        PM     PM         PM     PM
  S S S S  S S S  S S S S S  S S S  S
--------------------------------------|
--------------------------------------|
----5------5------5---6------6------6-|
------7------7----------5------5------|
--------0------0----------0------0----|
--------------------------------------|


        PM          PM      PM
                               |---3---| |---3---|
  S S S S  S S  S S S   S S S  S   S   S S   S   S
---------------------------------------------------|
---------------------------------------------------|
----7------7---10-9----10----------------9h-10h-12-|
------3------3------------7----9h-10h-12-----------|
--------0-----------0-------0----------------------|
---------------------------------------------------|


        T        T         T        T
  S  S  S S   S  S S S  S  S S   S  S S S S
--------------------------------------------|
--------------------------------------------|
--7s-9-16-9s-12-14-7-7s-9-16-9s-12-14-7-7---|
------------------------------------------9-|
--------------------------------------------|
--------------------------------------------|


        T        T    T  T        T        T        T
                         |--3-|   |--3-|   |--3-|   |--3-|
  S  S  S S   S  S S  S  S  S S   S  S S   S  S S   S  S S
------------------------12p-7------------------------------|
------------------------------8h-12p-7---------------------|
--7s-9-16-9s-12-14-7-12----------------7h-12p-7------------|
------------------------------------------------8h-12p-7---|
---------------------------------------------------------8-|
-----------------------------------------------------------|


        T        T         T        T                T        T    T
  S  S  S S   S  S S S  S  S S   S  S S S S    S  S  S S   S  S S  S
--------------------------------------------|------------------------|
--------------------------------------------|-------12---------------|
--7s-9-16-9s-12-14-7-7s-9-16-9s-12-14-7-7---|--7s-9----9s-12-14-7-12-|
------------------------------------------9-|------------------------|
--------------------------------------------|------------------------|
--------------------------------------------|------------------------|


   T        T          T        T        T        T
   |--3-|   |--3-|     |--3-|   |--3-|   |--3-|   |--3-|
   S  S S   S  S S E   S  S S   S  S S   S  S S   S  S S E
--12p-7---------------12p-7---------------------------------|
--------8h-12p-7------------8h-12p-7------------------------|
-----------------7-------------------7h-12p-7---------------|
----------------------------------------------8h-12p-7------|
-------------------------------------------------------8----|
-------------------0-------------------------------------0--|


   T        T          T        T        T        T
   |--3-|   |--3-|     |--3-|   |--3-|   |--3-|   |--3-|
   S  S S   S  S S E   S  S S   S  S S   S  S S   S  S S E
--12p-7---------------12p-7---------------------------------|
--------8h-12p-7------------8h-12p-7------------------------|
-----------------7-------------------7h-12p-7---------------|
----------------------------------------------8h-12p-7------|
-------------------------------------------------------8----|
-------------------0-------------------------------------0--|


   T        T          T        T        T        T
   |--3-|   |--3-|     |--3-|   |--3-|   |--3-|   |--3-|
   S  S S   S  S S E   S  S S   S  S S   S  S S   S  S S E
--12p-7---------------12p-7---------------------------------|
--------8h-12p-7------------8h-12p-7------------------------|
-----------------7-------------------7h-12p-7---------------|
----------------------------------------------8h-12p-7------|
-------------------------------------------------------8----|
-------------------0-------------------------------------0--|


   T        T             T         T        T
   |--3-|   |--3-|        |--3--|   |--3--|  |--3--|   |---3--|
   S  S S   S  S S E  E   S  S  S   S  S  S  S  S  S   S   S  S
--12p-7------------------12p-5h-9h-14p-9p-5---------------------|
--------8h-12p-7----------------------------15p-8p-5h-12h-15p-0-|
-----------------7----------------------------------------------|
----------------------------------------------------------------|
----------------------------------------------------------------|
-------------------0--------------------------------------------|


  PM PM PM         PM PM PM         PM PM PM         PM PM PM
  S  S  S  Q    E  S  S  S  Q       S  S  S  Q    E  S  S  S  Q
---------------------------------|---------------------------------|
---------------------------------|---------------------------------|
---------------------------------|---------------------------------|
--2--2--2----------2--2--2-------|--2--2--2----------2--2--2-------|
--2--2--2----------2--2--2-------|--2--2--2----------2--2--2-------|
--0--0--0----------0--0--0-------|--0--0--0----------0--0--0-------|


               PM      PM PM PM PM PM PM PM PM PM PM PM
  S S S S S  S S  S  S S  S  S  T  T  T  T  T  T  T  T
--------------------------------------------------------|
--------------------------------------------------------|
--------------------------------------------------------|
--2---2---4s-5----4s-5-2--2--2--------------------------|
--2---2---3s-5----3s-5-2--2--2--------------------------|
--0---0--------0-------0--0--0--5--6--7--0--5--6--7--0--|


               PM      PM PM PM PM PM PM PM
  S S S S S  S S  S  S S  S  S  T  T  T  T
--------------------------------------------|
--------------------------------------------|
--------------------------------------------|
--2---2---4s-5----4s-5-2--2--2--------------|
--2---2---3s-5----3s-5-2--2--2--------------|
--0---0--------0-------0--0--0--5--6--7--0--|


               PM      PM PM PM PM PM PM PM PM PM PM PM
  S S S S S  S S  S  S S  S  S  T  T  T  T  T  T  T  T
--------------------------------------------------------|
--------------------------------------------------------|
--------------------------------------------------------|
--2---2---4s-5----4s-5-2--2--2--------------------------|
--2---2---3s-5----3s-5-2--2--2--------------------------|
--0---0--------0-------0--0--0--5--6--7--0--5--6--7--0--|


               PM      PM PM PM PM PM PM PM PM PM PM
  S S S S S  S S  S  S S  S  S  T  T  T  T  T  T  T  T
-------------------------------------------------------|
-------------------------------------------------------|
-------------------------------------------------------|
--2---2---4s-5----4s-5-2--2--2-------------------------|
--2---2---3s-5----3s-5-2--2--2-------------------------|
--0---0--------0-------0--0--0--5--6--7--0--5--6--0----|


         PM      PM        PM
  S S  S S  S  S S  S  S S S  S S S S S
----------------------------------------|
----------------------------------------|
----------------------------------------|
--------------------5h-7------5-7-8-----|
----5h-7----5h-7--------------------4---|
---------0-------0-------6-0----------5-|


  PM      PM      PM PM
                        |--3--| |--3--| |--3--| |--3--|
  S  S  S S  S  S S  S  S  S  S S  S  S S  S  S S  S  S
--------------------------------5h-7h-8-8p-7p-5---------|
------------------------5h-7h-8-----------------8p-7p-5-|
--------------------------------------------------------|
--------------------------------------------------------|
-----5h-7----5h-7---------------------------------------|
--0-------0-------0--0----------------------------------|


  PM      PM      PM        PM
  S  S  S S  S  S S  S  S S S  S S S S S
-----------------------------------------|
-----------------------------------------|
-----------------------------------------|
---------------------5h-7------5-7-8-----|
-----5h-7----5h-7--------------------4---|
--0-------0-------0-------6-0----------5-|


        T        T         T        T     T
  S  S  S S   S  S S S  S  S S   S  S S S S
--------------------------------------------|
--------------------------------------------|
--7s-9-16-9s-12-14-7-7s-9-16-9s-12-14-7-7---|
------------------------------------------9-|
--------------------------------------------|
--------------------------------------------|


  PM      PM      PM        PM
  S  S  S S  S  S S  S  S S S  S S S S S
-----------------------------------------|
-----------------------------------------|
-----------------------------------------|
---------------------5h-7------5-7-8-----|
-----5h-7----5h-7--------------------4---|
--0-------0-------0-------6-0----------5-|


  PM      PM      PM PM
                        |--3--| |--3--| |--3--| |--3--|
  S  S  S S  S  S S  S  S  S  S S  S  S S  S  S S  S  S
------------------------8p-7p-5-------------------------|
--------------------------------8p-7p-5-----------------|
----------------------------------------7p-5p-4---------|
------------------------------------------------7p-5p-4-|
-----5h-7----5h-7---------------------------------------|
--0-------0-------0--0----------------------------------|


  PM      PM      PM        PM
  S  S  S S  S  S S  S  S S S  S S S S S
-----------------------------------------|
-----------------------------------------|
-----------------------------------------|
---------------------5h-7------5-7-8-----|
-----5h-7----5h-7--------------------4---|
--0-------0-------0-------6-0----------5-|


        T        T         T        T
  S  S  S S   S  S S S  S  S S   S  S S S S
--------------------------------------------|
--------------------------------------------|
--7s-9-16-9s-12-14-7-7s-9-16-9s-12-14-7-7---|
------------------------------------------9-|
--------------------------------------------|
--------------------------------------------|


        T        T         T        T
  S  S  S S   S  S S S  S  S S   S  S S S S
--------------------------------------------|
--------------------------------------------|
--7s-9-16-9s-12-14-7-7s-9-16-9s-12-14-7-7---|
------------------------------------------9-|
--------------------------------------------|
--------------------------------------------|


        T        T    T  T        T        T        T
                         |--3-|   |--3-|   |--3-|   |--3-|
  S  S  S S   S  S S  S  S  S S   S  S S   S  S S   S  S S
------------------------12p-7------------------------------|
------------------------------8h-12p-7---------------------|
--7s-9-16-9s-12-14-7-12----------------7h-12p-7------------|
------------------------------------------------8h-12p-7---|
---------------------------------------------------------8-|
-----------------------------------------------------------|


          T         T            T         T
   S   S  S  S   S  S  S  S   S  S  S   S  S  S  S  S
------------------------------------------------------|
------------------------------------------------------|
--10s-12-19-12s-15-17-10-10s-12-19-12s-15-17-10-10----|
---------------------------------------------------12-|
------------------------------------------------------|
------------------------------------------------------|


          T         T     T  T          T          T          T
                             |---3--|   |---3--|   |---3--|   |---3--|
   S   S  S  S   S  S  S  S  S   S  S   S   S  S   S   S  S   S   S  S
----------------------------15p-10-------------------------------------|
-----------------------------------11h-15p-10--------------------------|
--10s-12-19-12s-15-17-10-15-------------------10h-15p-10---------------|
---------------------------------------------------------11h-15p-10----|
--------------------------------------------------------------------11-|
-----------------------------------------------------------------------|


                PM PM PM PM               PM PM PM PM
   S  E   E   S T  T  T  T   S  E   E   S T  T  T  T
------------------------------------------------------|
--10-10--10--10-------------10-10--10--10-------------|
---x--x---x---x-x--x--x--x---x--x---x---x-x--x--x--x--|
---7--7---7---7-7--7--7--7---7--7---7---7-7--7--7--7--|
---9--9---9---9-9--9--9--9---9--9---9---9-9--9--9--9--|
------------------------------------------------------|


                 PM PM PM PM               PM PM PM PM
   S  E   E   S  T  T  T  T  S  E   E   S  T  T  T  T
------------------------------------------------------|
--13-13--13--13-------------12-12--13--12-------------|
---x--x---x---x--x--x--x--x--x--x---x---x--x--x--x--x-|
--10-10--10--10-10-10-10-10--9--9--10---9--9--9--9--9-|
--12-12--12--12-12-12-12-12-10-10--12--10-10-10-10-10-|
------------------------------------------------------|


                PM PM PM PM            PM PM PM PM
   S  E   E   S T  T  T  T   S E  E  S T  T  T  T
---------------------------------------------------|
--10-10--10--10-------------10-7--7--7-------------|
---x--x---x---x-x--x--x--x---x-x--x--x-x--x--x--x--|
---7--7---7---7-7--7--7--7---7-4--4--4-4--4--4--4--|
---9--9---9---9-9--9--9--9---9-5--5--5-5--5--5--5--|
---------------------------------------------------|


    PM PM PM PM     PM PM PM PM     PM PM PM PM     PM PM PM PM PM PM
  S T  T  T  T  S S T  T  T  T  S S T  T  T  T  S S T  T  T  T  T  T
----------------------------------------------------------------------|
--8-------------8-7-------------7-5-------------5-5-------------------|
--x-x--x--x--x--x-x-x--x--x--x--x-x-x--x--x--x--x-x-x--x--x--x--x--x--|
--5-5--5--5--5--5-4-4--4--4--4--4-2-2--2--2--2--2-2-2--2--2--2--2--2--|
--7-7--7--7--7--7-5-5--5--5--5--5-4-4--4--4--4--4-4-4--4--4--4--4--4--|
----------------------------------------------------------------------|


                PM PM PM PM               PM PM PM PM
   S  E   E   S T  T  T  T   S  E   E   S T  T  T  T
------------------------------------------------------|
--10-10--10--10-------------10-10--10--10-------------|
---x--x---x---x-x--x--x--x---x--x---x---x-x--x--x--x--|
---7--7---7---7-7--7--7--7---7--7---7---7-7--7--7--7--|
---9--9---9---9-9--9--9--9---9--9---9---9-9--9--9--9--|
------------------------------------------------------|


                 PM PM PM PM    PM PM PM PM    PM PM PM PM    PM PM
   S  E   E   S  T  T  T  T  S  T  T  T  T  S  T  T  T  T  S  T  T
-------------------------------------------------------------------|
--13-13--13--13-------------12-------------13-------------12-------|
---x--x---x---x--x--x--x--x--x--x--x--x--x--x--x--x--x--x--x--x--x-|
--10-10--10--10-10-10-10-10--9--9--9--9--9-10-10-10-10-10--9--9--9-|
--12-12--12--12-12-12-12-12-10-10-10-10-10-12-12-12-12-12-10-10-10-|
-------------------------------------------------------------------|


                PM PM PM PM            PM PM PM PM
   S  E   E   S T  T  T  T   S E  E  S T  T  T  T
---------------------------------------------------|
--10-10--10--10-------------10-7--7--7-------------|
---x--x---x---x-x--x--x--x---x-x--x--x-x--x--x--x--|
---7--7---7---7-7--7--7--7---7-4--4--4-4--4--4--4--|
---9--9---9---9-9--9--9--9---9-5--5--5-5--5--5--5--|
---------------------------------------------------|


  S S S S S S S S S S S S S S S S    E  E  E  E  E  Q    E
----------------------------------|-------------------------|
--8-8-8-8-7-7-7-7-5-5-5-5-5-5-5-5-|-------------------------|
--x-x-x-x-x-x-x-x-x-x-x-x-x-x-x-x-|--4-----3----------------|
--5-5-5-5-4-4-4-4-2-2-2-2-2-2-2-2-|--4--5--3--3--2----------|
--7-7-7-7-5-5-5-5-4-4-4-4-4-4-4-4-|--2--5--1--3--2-------7--|
----------------------------------|-----3-----1--0----------|


  E  S S   E  E    E  Q     S S    S S S S Q.      Q    S S
--------------------------------|---------------------------|
--------------------------------|----------7~---------------|
-----------------7g9------------|----7-8-9---------9----7-8-|
---------7g9----------8~----7-8-|--9------------------------|
--5--x-x------7-----------------|---------------------------|
--------------------------------|---------------------------|


  S S S S S S S S Q        E  E  E  S S   E  E    E  E
------------------------|--------------------------------|
----8-------------------|--------------------------------|
--9---9-8-7-------------|-----------------------7g9------|
------------9-8-7-5~----|--2------------7g9----------8~--|
------------------------|--2--7--5--x-x------7-----------|
------------------------|--0-----------------------------|


  E  S S S S S S Q.      E     E  S S S S S S S S S S
----------------------------|-------------------------|
-----------------7~---------|-----------8-------------|
-----------7-8-9---------9--|--L--7-8-9---9-8-7-------|
--L--7-8-9------------------|-------------------9-8-7-|
----------------------------|-------------------------|
----------------------------|-------------------------|


  Q.      Q    S S S S S S S S S S   Q        H        H
-------------------------------------------|--------------------|
-------------------------------------------|--------------------|
-------------------------------------------|--------------------|
--5~-----------------5---------------------|--2-----------------|
----------7----5-6-7---7-6-5---------------|--2-----------------|
-----------------------------7-6-5-<>3~----|--0-----------------|


                                             PM PM PM PM PM PM PM
  W                   W                   E  E  E  E  E  E  E  E
-------------------|-------------------|--------------------------|
-------------------|-------------------|--------------------------|
-------------------|-------------------|--------------------------|
-------------------|-------------------|-----2--2--2--2--2--2--2--|
-------------------|-------------------|-----2--2--2--2--2--2--2--|
-------------------|-------------------|-----0--0--0--0--0--0--0--|


                                                 PM
  E  E  E  Q.       Q        W                   S  H        Q    E  S
--------------------------|-------------------|------------------------|
--------------------------|-------------------|------------------------|
--------------------------|-------------------|------------------------|
--2-----------------------|-------------------|--2---------------------|
--2-----7--5------<>7b----|--L----------------|--2---------------------|
--0-----------------------|-------------------|--0---------------------|


  E   S  S  S  S  S  S  S  S  S  S  Q
--------------15--------------------------|
-----15-16-17----17-16-15-----------------|
--------------------------16-15-14-12~----|
------------------------------------------|
------------------------------------------|
------------------------------------------|


   S  S  S  S  S  S  S  S  S  S  S  S  S  S  S  S
--18-17-15----------------------------------15-16-|
-----------17-16-15----------------15-16-17-------|
--------------------16-15-14-15-16----------------|
--------------------------------------------------|
--------------------------------------------------|
--------------------------------------------------|


   S  S  S  S  S  S  S  S  S  S  S  S  S  S  S  S
--17-16-15----------------------------------15-17-|
-----------17-16-15----------------15-16-17-------|
--------------------16-15-14-15-16----------------|
--------------------------------------------------|
--------------------------------------------------|
--------------------------------------------------|


   S  S  S  S  S  S  S  S  S  S  S  S  S  S  S  S     E.   T   T   E   Q
--18-17-15----------------------------------15-16-|-------------------------|
-----------17-16-15----------------15-16-17-------|-------------------------|
--------------------16-15-14-15-16----------------|--14----Ls-15s-14--12----|
--------------------------------------------------|---x----------------x----|
--------------------------------------------------|--12----Ls-13s-12--10----|
--------------------------------------------------|-------------------------|


  PM PM         PM PM         PM
  S  S   E   E  S  S   E   E  E  E
------------------------------------|
------------------------------------|
--------14--14--------14--14--------|
--------13--13--------13--13--2-----|
--------12--12--------12--12--2-----|
--0--0----------0--0----------0-----|


   S  S  S  S  S  S  S  S  S  S  S  S  S  S  S  S
--18-17-15----------------------------------15-16-|
-----------17-16-15----------------15-16-17-------|
--------------------16-15-14-15-16----------------|
--------------------------------------------------|
--------------------------------------------------|
--------------------------------------------------|


   S  S  S  S  S  S  S  S  S  S  S  S  S  S  S  S
--17-16-15----------------------------------15-17-|
-----------17-16-15----------------15-16-17-------|
--------------------16-15-14-15-16----------------|
--------------------------------------------------|
--------------------------------------------------|
--------------------------------------------------|


   S  S  S  S  S  S  S  S  S  S  S  S  S  S  S  S     E.   T   T   E   Q
--18-17-15----------------------------------15-16-|-------------------------|
-----------17-16-15----------------15-16-17-------|-------------------------|
--------------------16-15-14-15-16----------------|--14----Ls-15s-14--12----|
--------------------------------------------------|---x----------------x----|
--------------------------------------------------|--12----Ls-13s-12--10----|
--------------------------------------------------|-------------------------|


  PM PM         PM PM         PM PM        PM      PM   PM PM   PM
  S  S   E   E  S  S   E   E  S  S   E     E  Q    S  S S  S  S S  E
----------------------------------------|-----------------------------|
----------------------------------------|-----------------------------|
--------14--14--------14--14--------14--|-----------------------------|
--------13--13--------13--13--------13--|--2----------4-------4-------|
--------12--12--------12--12--------12--|--2--------------------------|
--0--0----------0--0----------0--0------|--0-------2----2--2----2-----|


  PM   PM PM   PM PM
  S  S S  S  S S  S  S S S S S S S S S
---------------------------------------|
---------------------------------------|
---------------------------------------|
-----4-------4-------4-2-4-5-4-2-------|
---------------------------------4-2-1-|
--2----2--2----2--2--------------------|


  PM   PM PM   PM PM
                       |--3--| |--3--| |--3--| |--3--|
  S  S S  S  S S  S  S S  S  S S  S  S S  S  S S  S  S
-------------------------------------------------------|
-------------------------------------------------------|
-----------------------------------------------3h-4h-6-|
-----4-------4-------4---------2h-4h-5-2h-4h-5---------|
-----------------------1h-3h-4-------------------------|
--2----2--2----2--2------------------------------------|


  PM   PM PM   PM PM
  S  S S  S  S S  S  S S S S S S S S S
---------------------------------------|
---------------------------------------|
---------------------------------------|
-----4-------4-------4-2-4-5-4-2-------|
---------------------------------4-2-1-|
--2----2--2----2--2--------------------|


   T         T         T            T         T      T         T         T
   |--3--|   |--3--|   |--3--|  |---3--|  |---3--|   |--3--|   |--3--|   |--3--|
   S  S  S   S  S  S   S  S  S  S   S  S  S   S  S   S  S  S   S  S  S   S  S  S
--12p-5h-7h-12p-5h-7h-12p-0h-5h-7h-12p-5h-7h-11p-0h-11p-5h-7h-11p-5h-7h-11p-5h-7-|
---------------------------------------------------------------------------------|
---------------------------------------------------------------------------------|
---------------------------------------------------------------------------------|
---------------------------------------------------------------------------------|
---------------------------------------------------------------------------------|


  PM   PM PM   PM PM
  S  S S  S  S S  S  S S S S S S S S S
---------------------------------------|
---------------------------------------|
---------------------------------------|
-----4-------4-------4-2-4-5-4-2-------|
---------------------------------4-2-1-|
--2----2--2----2--2--------------------|


  PM   PM PM   PM PM
                       |--3--| |--3--| |--3--| |--3--|
  S  S S  S  S S  S  S S  S  S S  S  S S  S  S S  S  S
-------------------------------------------------------|
-------------------------------------------------------|
-----------------------------------------------3h-4h-6-|
-----4-------4-------4---------2h-4h-5-2h-4h-5---------|
-----------------------1h-3h-4-------------------------|
--2----2--2----2--2------------------------------------|


  PM   PM PM   PM PM
  S  S S  S  S S  S  S S S S S S S S S
---------------------------------------|
---------------------------------------|
---------------------------------------|
-----4-------4-------4-2-4-5-4-2-------|
---------------------------------4-2-1-|
--2----2--2----2--2--------------------|


   T         T         T            T         T      T         T         T
   |--3--|   |--3--|   |--3--|  |---3--|  |---3--|   |--3--|   |--3--|   |--3--|
   S  S  S   S  S  S   S  S  S  S   S  S  S   S  S   S  S  S   S  S  S   S  S  S
--12p-5h-7h-12p-5h-7h-12p-0h-5h-7h-12p-5h-7h-11p-0h-11p-5h-7h-11p-5h-7h-11p-5h-7-|
---------------------------------------------------------------------------------|
---------------------------------------------------------------------------------|
---------------------------------------------------------------------------------|
---------------------------------------------------------------------------------|
---------------------------------------------------------------------------------|


   T         T         T      T         T         T            T         T
   |--3--|   |--3--|   |---3--|  |---3--|  |---3--|  |--3--|   |--3--|   |--3--|
   S  S  S   S  S  S   S  S   S  S  S   S  S  S   S  S  S  S   S  S  S   S  S  S
--14p-7h-9h-14p-7h-9h-14p-0h-14p-7h-9h-14p-7h-9h-11p-0h-7h-9h-12p-7h-9h-12p-7h-9-|
---------------------------------------------------------------------------------|
---------------------------------------------------------------------------------|
---------------------------------------------------------------------------------|
---------------------------------------------------------------------------------|
---------------------------------------------------------------------------------|


   T          T          T      T          T      T       T           T
   |---3--|   |---3--|   |---3--|  |---3---|  |---3---|   |---3---|   |---3---|
   S  S   S   S  S   S   S  S   S  S   S   S  S   S   S   S   S   S   S   S   S
--15p-8h-10h-15p-8h-10h-15p-0h-15p-8h-10h-15p-0h-17p-10h-17p-10h-12h-17p-10h-12--|h
---------------------------------------------------------------------------------|
---------------------------------------------------------------------------------|
---------------------------------------------------------------------------------|
---------------------------------------------------------------------------------|
---------------------------------------------------------------------------------|


   T           T           T      T           T      T       T           T
   |---3---|   |---3---|   |---3--|   |---3---|  |---3---|   |---3---|   |---3--
   S   S   S   S   S   S   S  S   S   S   S   S  S   S   S   S   S   S   S   S
--19p-12h-14h-19p-12h-14h-19p-0h-19p-12h-14h-19p-0h-19p-12h-19p-12h-14h-19p-12h-|
--------------------------------------------------------------------------------|
--------------------------------------------------------------------------------|
--------------------------------------------------------------------------------|
--------------------------------------------------------------------------------|
--------------------------------------------------------------------------------|


   T          T          T          T
   |---3---|  |---3---|  |---3---|  |---3---|
   S   S   S  S   S   S  S   S   S  S   S   S Q.      E
--19p-14p-12---------------------------------------------|
-------------19p-14p-12----------------------------------|
------------------------19p-14p-12-----------------------|
-----------------------------------19p-14p-12-6\---------|
----------------------------------------------7\---------|
---------------------------------------------------------|


   T         T         T      T         T         T        T          T
   T  T  S   T  T  S   T  T   T  T  S   T  T  S   T  T  S  T   T  S   T   T  S
-------------------------------------------------------------------------------|
-------------------------------------------------------------------------------|
----------------------------------------------------------13p-10p-7h-12p-10p-7-|
--12p-9p-6h-11p-9p-6h-12p-9h-11p-9p-6h-12p-9p-6h-11p-9p-6----------------------|
-------------------------------------------------------------------------------|
-------------------------------------------------------------------------------|


   T         T         T      T         T         T        T          T
   T  T  S   T  T  S   T  T   T  T  S   T  T  S   T  T  S  T   T  S   T   T  S
-------------------------------------------------------------------------------|
-------------------------------------------------------------------------------|
----------------------------------------------------------13p-10p-7h-12p-10p-7-|
--12p-9p-6h-11p-9p-6h-12p-9h-11p-9p-6h-12p-9p-6h-11p-9p-6----------------------|
-------------------------------------------------------------------------------|
-------------------------------------------------------------------------------|


   T          T          T       T          T          T         T           T
   T   T  S   T   T  S   T   T   T   T  S   T   T  S   T   T  S  T   T   S   T
----------------------------------------------------------------16p-13p-10h-15p-|
--15p-12p-9h-14p-12p-9h-15p-12h-14p-12p-9h-15p-12p-9h-14p-12p-9-----------------|
--------------------------------------------------------------------------------|
--------------------------------------------------------------------------------|
--------------------------------------------------------------------------------|
--------------------------------------------------------------------------------|


   T          T          T       T          T          T         T           T
   T   T  S   T   T  S   T   T   T   T  S   T   T  S   T   T  S  T   T   S   T
----------------------------------------------------------------16p-13p-10h-15p-|
--15p-12p-9h-14p-12p-9h-15p-12h-14p-12p-9h-15p-12p-9h-14p-12p-9-----------------|
--------------------------------------------------------------------------------|
--------------------------------------------------------------------------------|
--------------------------------------------------------------------------------|
--------------------------------------------------------------------------------|


                                                   T           T
   S  S  S  S  S  S  S  S  S  S  S  S     S  S  S  T   T   S   T   T   S
--------------------------------------|----------------------------------|
--15----------12-15----------12-15----|--------12-18p-15p-10h-18p-15p-10-|
--------13-14----------13-14----------|--13-14---------------------------|
-----12-------------12-------------12-|----------------------------------|
--------------------------------------|----------------------------------|
--------------------------------------|----------------------------------|


                                                   T           T
   S  S  S  S  S  S  S  S  S  S  S  S     S  S  S  T   T   S   T   T   S
--------------------------------------|----------------------------------|
--15----------12-15----------12-15----|--------12-18p-15p-10h-18p-15p-10-|
--------13-14----------13-14----------|--13-14---------------------------|
-----12-------------12-------------12-|----------------------------------|
--------------------------------------|----------------------------------|
--------------------------------------|----------------------------------|


                                                   T           T
   S  S  S  S  S  S  S  S  S  S  S  S     S  S  S  T   T   S   T   T   S
--------------------------------------|----------------------------------|
--15----------12-15----------12-15----|--------12-18p-15p-10h-18p-15p-10-|
--------13-14----------13-14----------|--13-14---------------------------|
-----12-------------12-------------12-|----------------------------------|
--------------------------------------|----------------------------------|
--------------------------------------|----------------------------------|


                                                   T           T
   S  S  S  S  S  S  S  S  S  S  S  S     S  S  S  T   T   S   T   T   S
--------------------------------------|----------------------------------|
--15----------12-15----------12-15----|--------12-18p-15p-10h-18p-15p-10-|
--------13-14----------13-14----------|--13-14---------------------------|
-----12-------------12-------------12-|----------------------------------|
--------------------------------------|----------------------------------|
--------------------------------------|----------------------------------|


                                                   T           T
   S  S  S  S  S  S  S  S  S  S  S  S     S  S  S  T   T   S   T   T   S
--------------------------------------|----------------------------------|
--18----------15-18----------15-18----|--------15-21p-18p-13h-21p-18p-13-|
--------16-17----------16-17----------|--16-17---------------------------|
-----15-------------15-------------15-|----------------------------------|
--------------------------------------|----------------------------------|
--------------------------------------|----------------------------------|


                                                   T           T
   S  S  S  S  S  S  S  S  S  S  S  S     S  S  S  T   T   S   T   T   S
--------------------------------------|----------------------------------|
--18----------15-18----------15-18----|--------15-21p-18p-13h-21p-18p-13-|
--------16-17----------16-17----------|--16-17---------------------------|
-----15-------------15-------------15-|----------------------------------|
--------------------------------------|----------------------------------|
--------------------------------------|----------------------------------|


   T                  T
   T   T   S  T   T   S H
--19p-16p-13---------------------||
-------------12h-15h-18----------||
---------------------------------||
---------------------------------||
---------------------------------||
---------------------------------||

Tim Millar

      PM PM PM PM PM PM    PM PM PM PM PM PM PM PM PM PM PM PM
      |--3--|  |--3--|     |--3--|  |--3--|  |--3--|  |--3--|
      S  S  S  S  S  S  E  S  S  S  S  S  S  S  S  S  S  S  S  E
D#||--------------------------------------------------------------|
A#||--------------------------------------------------------------|
F#||--------------------------------------------------------------|
C#||--2--2--2--2--2--2--2--2--2--2--2--2--2--2--2--2--2--2--2--2--|
G#||--2--2--2--2--2--2--2--2--2--2--2--2--2--2--2--2--2--2--2--2--|
D#||--0--0--0--0--0--0--0--0--0--0--0--0--0--0--0--0--0--0--0--0--|


  PM PM PM PM PM PM    PM PM PM PM PM PM PM PM PM PM PM PM
  |--3--|  |--3--|     |--3--|  |--3--|  |--3--|  |--3--|
  S  S  S  S  S  S  E  S  S  S  S  S  S  S  S  S  S  S  S  E
--------------------------------------------------------------|
--------------------------------------------------------------|
--------------------------------------------------------------|
--2--2--2--2--2--2--2--2--2--2--2--2--2--2--2--2--2--2--2--2--|
--2--2--2--2--2--2--2--2--2--2--2--2--2--2--2--2--2--2--2--2--|
--0--0--0--0--0--0--0--0--0--0--0--0--0--0--0--0--0--0--0--0--|


  PM PM PM PM PM PM    PM PM PM PM PM PM PM PM PM PM PM PM
  |--3--|  |--3--|     |--3--|  |--3--|  |--3--|  |--3--|
  S  S  S  S  S  S  E  S  S  S  S  S  S  S  S  S  S  S  S  E
--------------------------------------------------------------|
--------------------------------------------------------------|
--------------------------------------------------------------|
--2--2--2--2--2--2--2--2--2--2--2--2--2--2--2--2--2--2--2--2--|
--2--2--2--2--2--2--2--2--2--2--2--2--2--2--2--2--2--2--2--2--|
--0--0--0--0--0--0--0--0--0--0--0--0--0--0--0--0--0--0--0--0--|


  PM PM PM PM PM PM    PM PM PM PM PM PM PM PM PM PM PM PM
  |--3--|  |--3--|     |--3--|  |--3--|  |--3--|  |--3--|
  S  S  S  S  S  S  E  S  S  S  S  S  S  S  S  S  S  S  S  S S
---------------------------------------------------------------|
---------------------------------------------------------------|
---------------------------------------------------------------|
--2--2--2--2--2--2--2--2--2--2--2--2--2--2--2--2--2--2--2--2---|
--2--2--2--2--2--2--2--2--2--2--2--2--2--2--2--2--2--2--2--2---|
--0--0--0--0--0--0--0--0--0--0--0--0--0--0--0--0--0--0--0--0---|


  PM      PM      PM        PM
  S  S  S S  S  S S  S  S S S  S S S S S
-----------------------------------------|
-----------------------------------------|
-----------------------------------------|
---------------------5h-7------5-7-8-----|
-----5h-7----5h-7--------------------4---|
--0-------0-------0-------6-0----------5-|


  PM      PM      PM
  S  S  S S  S  S S  S  S S S S S S S S
----------------------------------------|
----------------------------------------|
------------------------------9---7-----|
--------------------------7-8---8---8-7-|
-----5h-7----5h-7----7-10---------------|
--0-------0-------0---------------------|


  PM      PM      PM        PM
  S  S  S S  S  S S  S  S S S  S S S S S
-----------------------------------------|
-----------------------------------------|
-----------------------------------------|
---------------------5h-7------5-7-8-----|
-----5h-7----5h-7--------------------4---|
--0-------0-------0-------6-0----------5-|


  PM      PM      PM  PM    PM
  S  S  S S  S  S S   S  S  S  S  S S  S  S  S
------------------------------------9-------12-|
------------------------------10------10-12----|
---------------------------------11------------|
------------------------16---------------------|
-----5h-7----5h-7----14----16------------------|
--0-------0-------0----------------------------|


  PM      PM      PM        PM
  S  S  S S  S  S S  S  S S S  S S S S S
-----------------------------------------|
-----------------------------------------|
-----------------------------------------|
---------------------5h-7------5-7-8-----|
-----5h-7----5h-7--------------------4---|
--0-------0-------0-------6-0----------5-|


  PM      PM      PM
  S  S  S S  S  S S  S  S S S S S S S S
----------------------------------------|
----------------------------------------|
------------------------------9---7-----|
--------------------------7-8---8---8-7-|
-----5h-7----5h-7----7-10---------------|
--0-------0-------0---------------------|


  PM      PM      PM        PM              PM      PM
  S  S  S S  S  S S  S  S S S  S S S S S    S  S  S S  S  S S S
-----------------------------------------|----------------------|
-----------------------------------------|----------------------|
-----------------------------------------|----------------------|
---------------------5h-7------5-7-8-----|----------------------|
-----5h-7----5h-7--------------------4---|-----5h-7----5h-7-9-9-|
--0-------0-------0-------6-0----------5-|--0-------0-----------|


    PM PM PM PM PM PM PM   PM PM PM PM PM PM PM
  S S  S  S  S  S  S  S  S S  S  S  S  S  S  S
------------------------------------------------|
------------------------------------------------|
------------------------------------------------|
--4-4--4--4--4--4--4--4--5-5--5--5--5--5--5--5--|
--5-5--5--5--5--5--5--5--5-5--5--5--5--5--5--5--|
--2-2--2--2--2--2--2--2--3-3--3--3--3--3--3--3--|


    PM PM PM PM PM PM PM   PM PM PM PM PM PM PM
  S S  S  S  S  S  S  S  S S  S  S  S  S  S  S
------------------------------------------------|
------------------------------------------------|
------------------------------------------------|
--4-4--4--4--4--4--4--4--5-5--5--5--5--5--5--5--|
--5-5--5--5--5--5--5--5--5-5--5--5--5--5--5--5--|
--2-2--2--2--2--2--2--2--3-3--3--3--3--3--3--3--|


    PM PM
  S S  S  S S S S S S S S S S S S S    S S S S S S S S S E  S S E  S
------------------------------------|--------------------------------|
------------------------------------|--------------------------------|
------------------------------------|------------------3------5------|
--4-4--4--4-4-4-4-4-5-5-5-5-5-5-5-5-|--4-4-4-4-4-4-4-4-3------5------|
--5-5--5--5-5-5-5-5-5-5-5-5-5-5-5-5-|--5-5-5-5-5-5-5-5-1------3------|
--2-2--2--2-2-2-2-2-3-3-3-3-3-3-3-3-|--2-2-2-2-2-2-2-2---------------|


                                    |---3---|  |---3---|
  W                   H.            S   S   S  S   S   S
-------------------|-------------------------------------|
-------------------|-------------------------------------|
-------------------|--------------------------10h-12h-14-|
--7----------------|--L------------10h-12h-14------------|
--7----------------|--L----------------------------------|
--5----------------|--L----------------------------------|


         PM      PM          PM      PM
  S S  S S  S  S S  S S  S S S   S S S   S
-------------------------------------------|
-------------------------------------------|
----9-------9-------9---10------10------10-|
------10------10---------------------------|
---------0-------0---------7-0-----7-0-----|
-------------------------------------------|


         PM            PM       PM
                                    |---3---|  |---3---|
  S  S S S   S S  S  S S   S  S S   S   S   S  S   S   S
---------------------------------------------------------|
---------------------------------------------------------|
----10------10---14-12----14------------------12h-14h-16-|
-------7-------7-------------10----12h-14h-15------------|
---------0-------------0--------0------------------------|
---------------------------------------------------------|


  S S S Q    E  S S S S S S S    S S S Q    E  S S S S S S S
------------------------------|------------------------------|
------------------------------|------------------------------|
------------------------------|------------------------------|
--2---2---------2---2---2---2-|--2---2---------2---2---2---2-|
--2---2---------2---2---2---2-|--2---2---------2---2---2---2-|
--0---0---------0---0---0---0-|--0---0---------0---0---0---0-|


  S S S Q    E  S S S S S S S    S S S Q    S
------------------------------|---------------|
------------------------------|---------------|
------------------------------|---------------|
--2---2---------2---2---2---2-|--2---2--------|
--2---2---------2---2---2---2-|--2---2--------|
--0---0---------0---0---0---0-|--0---0--------|


  PM PM PM PM PM PM    PM PM PM PM PM PM PM PM PM PM PM PM
  |--3--|  |--3--|     |--3--|  |--3--|  |--3--|  |--3--|
  S  S  S  S  S  S  E  S  S  S  S  S  S  S  S  S  S  S  S  E
--------------------------------------------------------------|
--------------------------------------------------------------|
--------------------------------------------------------------|
--2--2--2--2--2--2--2--2--2--2--2--2--2--2--2--2--2--2--2--2--|
--2--2--2--2--2--2--2--2--2--2--2--2--2--2--2--2--2--2--2--2--|
--0--0--0--0--0--0--0--0--0--0--0--0--0--0--0--0--0--0--0--0--|


  PM PM PM PM PM PM    PM PM PM PM PM PM PM PM PM PM PM PM
  |--3--|  |--3--|     |--3--|  |--3--|  |--3--|  |--3--|
  S  S  S  S  S  S  E  S  S  S  S  S  S  S  S  S  S  S  S  E
--------------------------------------------------------------|
--------------------------------------------------------------|
--------------------------------------------------------------|
--2--2--2--2--2--2--2--2--2--2--2--2--2--2--2--2--2--2--2--2--|
--2--2--2--2--2--2--2--2--2--2--2--2--2--2--2--2--2--2--2--2--|
--0--0--0--0--0--0--0--0--0--0--0--0--0--0--0--0--0--0--0--0--|


  Q     S Q    S E  E  E     E   E  E  H        E
--------------------------|------------------------|
--------------------------|------------------------|
--9\----------------------|--9\--------------------|
--9\----2--------5--7--5--|--9\--2--2--------------|
--7\----2--------5--7--5--|--7\--2--2--------------|
--------0--------3--5--3--|------0--0--------------|


  PM PM PM         PM PM PM         PM PM PM         PM PM PM
  S  S  S  Q    E  S  S  S  Q       S  S  S  Q    E  S  S  S  Q
---------------------------------|---------------------------------|
---------------------------------|---------------------------------|
---------------------------------|---------------------------------|
--2--2--2----------2--2--2-------|--2--2--2----------2--2--2-------|
--2--2--2----------2--2--2-------|--2--2--2----------2--2--2-------|
--0--0--0----------0--0--0-------|--0--0--0----------0--0--0-------|


               PM      PM PM PM PM PM PM PM PM PM PM PM
  S S S S S  S S  S  S S  S  S  T  T  T  T  T  T  T  T
--------------------------------------------------------|
--------------------------------------------------------|
--------------------------------------------------------|
--2---2---4s-5----4s-5-2--2--2--------------------------|
--2---2---3s-5----3s-5-2--2--2--------------------------|
--0---0--------0-------0--0--0--5--6--7--0--5--6--7--0--|


               PM      PM PM PM PM PM PM PM
  S S S S S  S S  S  S S  S  S  T  T  T  T
--------------------------------------------|
--------------------------------------------|
--------------------------------------------|
--2---2---4s-5----4s-5-2--2--2--------------|
--2---2---3s-5----3s-5-2--2--2--------------|
--0---0--------0-------0--0--0--5--6--7--0--|


               PM      PM PM PM PM PM PM PM PM PM PM PM
  S S S S S  S S  S  S S  S  S  T  T  T  T  T  T  T  T
--------------------------------------------------------|
--------------------------------------------------------|
--------------------------------------------------------|
--2---2---4s-5----4s-5-2--2--2--------------------------|
--2---2---3s-5----3s-5-2--2--2--------------------------|
--0---0--------0-------0--0--0--5--6--7--0--5--6--7--0--|


               PM      PM PM PM PM PM PM PM PM PM PM
  S S S S S  S S  S  S S  S  S  T  T  T  T  T  T  T  T
-------------------------------------------------------|
-------------------------------------------------------|
-------------------------------------------------------|
--2---2---4s-5----4s-5-2--2--2-------------------------|
--2---2---3s-5----3s-5-2--2--2-------------------------|
--0---0--------0-------0--0--0--5--6--7--0--5--6--0----|


         PM      PM        PM
  S S  S S  S  S S  S  S S S  S S S S S
----------------------------------------|
----------------------------------------|
----------------------------------------|
--------------------5h-7------5-7-8-----|
----5h-7----5h-7--------------------4---|
---------0-------0-------6-0----------5-|


  PM      PM      PM PM
                        |---3---| |---3---|  |---3--|  |---3--|
  S  S  S S  S  S S  S  S   S   S S   S   S  S   S  S  S   S  S
----------------------------------8h-10h-12-12p-10p-8-----------|
------------------------8h-10h-12---------------------12p-10p-8-|
----------------------------------------------------------------|
----------------------------------------------------------------|
-----5h-7----5h-7-----------------------------------------------|
--0-------0-------0--0------------------------------------------|


  PM      PM      PM        PM              PM   PM         PM   PM   PM   PM
  S  S  S S  S  S S  S  S S S  S S S S S    S  S S  Q    E  S  S S  S S  S S
-----------------------------------------|------------------------------------|
-----------------------------------------|------------------------------------|
-----------------------------------------|------------------------------------|
---------------------5h-7------5-7-8-----|--2----2----------2----2----2----2--|
-----5h-7----5h-7--------------------4---|--2----2----------2----2----2----2--|
--0-------0-------0-------6-0----------5-|--0----0----------0----0----0----0--|


  PM       PM       PM          PM
  S  S   S S  S   S S  S   S  S S  S  S  S S S
-----------------------------------------------|
-----------------------------------------------|
-----------------------------------------------|
-----------------------9h-10-------9-10-12-----|
-----9h-10----9h-10------------------------7---|
--0--------0--------0--------10-0------------8-|


  PM       PM       PM PM
                           |---3--|  |---3--|  |--3--|  |--3--|
  S  S   S S  S   S S  S   S   S  S  S   S  S  S  S  S  S  S  S
--------------------------12p-10p-8-----------------------------|
------------------------------------12p-10p-8-------------------|
----------------------------------------------11p-9p-7----------|
-------------------------------------------------------10p-9p-7-|
-----9h-10----9h-10---------------------------------------------|
--0--------0--------0--0----------------------------------------|


  PM       PM       PM          PM
  S  S   S S  S   S S  S   S  S S  S  S  S S S
-----------------------------------------------|
-----------------------------------------------|
-----------------------------------------------|
-----------------------9h-10-------9-10-12-----|
-----9h-10----9h-10------------------------7---|
--0--------0--------0--------10-0------------8-|


  PM   PM         PM PM PM   PM PM PM    PM   PM         PM PM PM   PM PM PM
  S  S S  Q    E  S  S  S  S S  S  S     S  S S  Q    E  S  S  S  S S  S  S
--------------------------------------|--------------------------------------|
--------------------------------------|--------------------------------------|
--------------------------------------|--------------------------------------|
--2----2----------2--2--2----2--2--2--|--2----2----------2--2--2----2--2--2--|
--2----2----------2--2--2----2--2--2--|--2----2----------2--2--2----2--2--2--|
--0----0----------0--0--0----0--0--0--|--0----0----------0--0--0----0--0--0--|


  PM   PM         PM PM PM   PM PM PM    PM   PM         PM PM PM   PM PM PM
  S  S S  Q    E  S  S  S  S S  S  S     S  S S  Q    E  S  S  S  S S  S  S
--------------------------------------|--------------------------------------|
--------------------------------------|--------------------------------------|
--------------------------------------|--------------------------------------|
--2----2----------2--2--2----2--2--2--|--5----5----------5--5--5----5--5--5--|
--2----2----------2--2--2----2--2--2--|--5----5----------5--5--5----5--5--5--|
--0----0----------0--0--0----0--0--0--|--3----3----------3--3--3----3--3--3--|


  PM   PM         PM PM PM   PM PM PM
  S  S S  Q    E  S  S  S  S S  S  S
--------------------------------------|
--------------------------------------|
--------------------------------------|
--5----5----------5--5--5----5--5--5--|
--5----5----------5--5--5----5--5--5--|
--3----3----------3--3--3----3--3--3--|


            PM PM PM PM           PM PM PM PM
  S E  E  S T  T  T  T  S E  E  S T  T  T  T
----------------------------------------------|
----------------------------------------------|
--7-7--7--7-7--7--7--7--7-7--7--7-7--7--7--7--|
--7-7--7--7-7--7--7--7--7-7--7--7-7--7--7--7--|
--5-5--5--5-5--5--5--5--5-5--5--5-5--5--5--5--|
----------------------------------------------|


            PM PM PM PM           PM PM PM PM
  S E  E  S T  T  T  T  S E  E  S T  T  T  T
----------------------------------------------|
----------------------------------------------|
----------------------------------------------|
--7-7--7--7-7--7--7--7--5-5--5--5-5--5--5--5--|
--7-7--7--7-7--7--7--7--5-5--5--5-5--5--5--5--|
--5-5--5--5-5--5--5--5--3-3--3--3-3--3--3--3--|


            PM PM PM PM           PM PM PM PM
  S E  E  S T  T  T  T  S E  E  S T  T  T  T
----------------------------------------------|
------------------------7-7--7--7-------------|
--7-7--7--7-7--7--7--7--7-7--7--7-7--7--7--7--|
--7-7--7--7-7--7--7--7--7-7--7--7-7--7--7--7--|
--5-5--5--5-5--5--5--5--5-5--5--5-5--5--5--5--|
----------------------------------------------|


    PM PM PM PM     PM PM PM PM     PM PM PM PM     PM PM PM PM PM PM
  S T  T  T  T  S S T  T  T  T  S S T  T  T  T  S S T  T  T  T  T  T
----------------------------------------------------------------------|
----------------------------------------------------------------------|
--4-4--4--4--4--4-7-7--7--7--7--7-6-6--6--6--6--6-6-6--6--6--6--6--6--|
--5-5--5--5--5--5-7-7--7--7--7--7-7-7--7--7--7--7-7-7--7--7--7--7--7--|
--2-2--2--2--2--2-5-5--5--5--5--5-4-4--4--4--4--4-4-4--4--4--4--4--4--|
----------------------------------------------------------------------|


            PM PM PM PM           PM PM PM PM
  S E  E  S T  T  T  T  S E  E  S T  T  T  T
----------------------------------------------|
----------------------------------------------|
--7-7--7--7-7--7--7--7--7-7--7--7-7--7--7--7--|
--7-7--7--7-7--7--7--7--7-7--7--7-7--7--7--7--|
--5-5--5--5-5--5--5--5--5-5--5--5-5--5--5--5--|
----------------------------------------------|


            PM PM PM PM   PM PM PM PM   PM PM PM PM   PM PM
  S E  E  S T  T  T  T  S T  T  T  T  S T  T  T  T  S T  T
------------------------------------------------------------|
------------------------------------------------------------|
------------------------------------------------------------|
--7-7--7--7-7--7--7--7--5-5--5--5--5--5-5--5--5--5--5-5--5--|
--7-7--7--7-7--7--7--7--5-5--5--5--5--5-5--5--5--5--5-5--5--|
--5-5--5--5-5--5--5--5--3-3--3--3--3--3-3--3--3--3--3-3--3--|


            PM PM PM PM           PM PM PM PM
  S E  E  S T  T  T  T  S E  E  S T  T  T  T
----------------------------------------------|
------------------------7-7--7--7-------------|
--7-7--7--7-7--7--7--7--7-7--7--7-7--7--7--7--|
--7-7--7--7-7--7--7--7--7-7--7--7-7--7--7--7--|
--5-5--5--5-5--5--5--5--5-5--5--5-5--5--5--5--|
----------------------------------------------|


  S S S S S S S S S S S S S S S S    E  E  E  E  E  Q    E
----------------------------------|-------------------------|
----------------------------------|-------------------------|
--4-4-4-4-7-7-7-7-6-6-6-6-6-6-6-6-|--4-----3----------------|
--5-5-5-5-7-7-7-7-7-7-7-7-7-7-7-7-|--4--5--3--3--2----------|
--2-2-2-2-5-5-5-5-4-4-4-4-4-4-4-4-|--2--5--1--3--2-------7--|
----------------------------------|-----3-----1--0----------|


  E  S S   E  E    E  Q     S S    S S S S Q.      Q    S S
--------------------------------|---------------------------|
--------------------------------|---------------------------|
-----------------7g9------------|---------------------------|
---------7g9----------8~--------|----------4~---------------|
--5--x-x------7-----------------|----5-6-7---------7----5-6-|
----------------------------5-6-|--7------------------------|


  S S S S S S S S Q        E   E  E  S S     E   E      E   E
------------------------|---------------------------------------|
------------------------|---------------------------------------|
------------------------|---------------------------10g12-------|
----5-------------------|--2-------------10g12-------------11~--|
--7---7-6-5-------------|--2--10--9--x-x--------10--------------|
------------7-6-5-3~----|--0------------------------------------|


  E   S  S  S  S  S  S  Q.       E     E   S  S  S  S  S  S  S  S  S  S
------------------------------------|--------------15-------------------|
------------------------------------|-----15-16-17----17-16-15----------|
--------------12-13-14-14~------12--|--L-----------------------16-15-14-|
--L--12-13-14-----------------------|-----------------------------------|
------------------------------------|-----------------------------------|
------------------------------------|-----------------------------------|


   Q.       Q     S  S  S  S  S  S  S  S  S  S  Q        H        H
------------------------------------------------------|--------------------|
------------------------------------------------------|--------------------|
--12~---------------------12--------------------------|--------------------|
-----------14----12-13-14----14-13-12-----------------|--2-----------------|
--------------------------------------14-13-12-10~----|--2-----------------|
------------------------------------------------------|--0-----------------|


                                             PM PM PM PM PM PM PM
  W                   W                   E  E  E  E  E  E  E  E
-------------------|-------------------|--------------------------|
-------------------|-------------------|--------------------------|
-------------------|-------------------|--------------------------|
-------------------|-------------------|-----2--2--2--2--2--2--2--|
-------------------|-------------------|-----2--2--2--2--2--2--2--|
-------------------|-------------------|-----0--0--0--0--0--0--0--|


                                                 PM
  E  E  E  Q.       Q        W                   S  H        Q    E  S
--------------------------|-------------------|------------------------|
--------------------------|-------------------|------------------------|
--------------------------|-------------------|------------------------|
--2-----5--4------<>5b----|--L----------------|--2---------------------|
--2-----------------------|-------------------|--2---------------------|
--0-----------------------|-------------------|--0---------------------|


  E  S S S S S S S S S S Q       W                   W
------------------------------|-------------------|-------------------|
------------------------------|-------------------|-------------------|
------------------------------|-------------------|-------------------|
-----------5------------------|-------------------|-------------------|
-----5-6-7---7-6-5------------|-------------------|-------------------|
-------------------7-6-5-3----|-------------------|-------------------|


                                           PM PM       PM PM       PM
  W                   E.  T  T  E  Q       S  S  E  E  S  S  E  E  E  E
-------------------|--------------------|--------------------------------|
-------------------|--------------------|--------------------------------|
-------------------|--------------------|--------7--7--------7--7--------|
-------------------|--4---Ls-5s-4-------|--------x--x--------x--x--2-----|
-------------------|--x------------7----|--------5--5--------5--5--2-----|
-------------------|--2---Ls-3s-2--0----|--0--0--------0--0--------0-----|


  PM PM PM PM PM PM PM PM PM    PM PM PM PM PM PM
  E  E  E  E  E  E  S  S  E     S  S  E  S  S  E  E  E  E  E
-----------------------------|--------------------------------|
-----------------------------|--------------------------------|
-----------------------------|--------------------------------|
-----------------------------|--------------------------------|
-----------------------------|--------------------------------|
--0--5--3--0--7--5--8--7--5--|--8--7--5--7--5--3--8--7--5--3--|


  PM PM PM PM PM PM PM PM PM
  E  E  E  E  E  E  S  S  E     E.  T  T  E  Q
-----------------------------|--------------------|
-----------------------------|--------------------|
-----------------------------|--------------------|
-----------------------------|--4---Ls-5s-4-------|
-----------------------------|--x------------7----|
--0--5--3--0--7--5--8--7--5--|--2---Ls-3s-2--0----|


  PM PM         PM PM         PM PM        PM
  S  S   E   E  S  S   E   E  S  S   E     E  H        Q
----------------------------------------|-------------------|
----------------------------------------|-------------------|
---------7---7---------7---7---------7--|-------------------|
---------x---x---------x---x---------x--|--2----------------|
---------5---5---------5---5---------5--|--2----------------|
--0--0----------0--0----------0--0------|--0----------------|


  PM    PM PM    PM PM
  S   S S  S   S S  S   S S  S  S  S S  S S S
----------------------------------------------|
----------------------------------------------|
-----11-------11-------11-9-11-12-11-9--------|
---------------------------------------11-9-8-|
--9-----9--9-----9--9-------------------------|
----------------------------------------------|


  PM    PM PM    PM PM
                          |---3---| |---3---| |---3---|  |---3---|
  S   S S  S   S S  S   S S   S   S S   S   S S   S   S  S   S   S
-------------------------------------------------------------------|
--------------------------------------------------------11h-12h-14-|
-----11-------11-------11-----------9h-11h-12-9h-11h-12------------|
--------------------------8h-10h-11--------------------------------|
--9-----9--9-----9--9----------------------------------------------|
-------------------------------------------------------------------|


  PM    PM PM    PM PM
  S   S S  S   S S  S   S S  S  S  S S  S S S
----------------------------------------------|
----------------------------------------------|
-----11-------11-------11-9-11-12-11-9--------|
---------------------------------------11-9-8-|
--9-----9--9-----9--9-------------------------|
----------------------------------------------|


  PM   PM   PM PM   PM   PM PM   PM   PM
  S  S S  S S  S  S S  S S  S  S S  S S  S
-------------------------------------------|
-------------------------------------------|
-------------------------------------------|
--7----7----7--7----7----7--7----7----7----|
--7----7----7--7----7----7--7----7----7----|
--5----5----5--5----5----5--5----5----5----|


  PM    PM PM    PM PM
  S   S S  S   S S  S   S S  S  S  S S  S S S
----------------------------------------------|
----------------------------------------------|
-----11-------11-------11-9-11-12-11-9--------|
---------------------------------------11-9-8-|
--9-----9--9-----9--9-------------------------|
----------------------------------------------|


  PM    PM PM    PM PM
                          |---3---| |---3---| |---3---|  |---3---|
  S   S S  S   S S  S   S S   S   S S   S   S S   S   S  S   S   S
-------------------------------------------------------------------|
--------------------------------------------------------11h-12h-14-|
-----11-------11-------11-----------9h-11h-12-9h-11h-12------------|
--------------------------8h-10h-11--------------------------------|
--9-----9--9-----9--9----------------------------------------------|
-------------------------------------------------------------------|


  PM    PM PM    PM PM
  S   S S  S   S S  S   S S  S  S  S S  S S S
----------------------------------------------|
----------------------------------------------|
-----11-------11-------11-9-11-12-11-9--------|
---------------------------------------11-9-8-|
--9-----9--9-----9--9-------------------------|
----------------------------------------------|


  PM   PM   PM PM   PM   PM PM   PM   PM
  S  S S  S S  S  S S  S S  S  S S  S S  S
-------------------------------------------|
-------------------------------------------|
-------------------------------------------|
--7----7----7--7----7----7--7----7----7----|
--7----7----7--7----7----7--7----7----7----|
--5----5----5--5----5----5--5----5----5----|


  PM   PM   PM PM   PM   PM PM   PM   PM
  S  S S  S S  S  S S  S S  S  S S  S S  S    H        H
-------------------------------------------|--------------------|
-------------------------------------------|--------------------|
-------------------------------------------|--------------------|
--9----9----9--9----9----9--9----9----9----|--5--------7--------|
--9----9----9--9----9----9--9----9----9----|--3--------5--------|
--7----7----7--7----7----7--7----7----7----|--3--------5--------|


  W                   H        Q.      E
-------------------|----------------------|
-------------------|----------------------|
-------------------|-----------9\---------|
--9----------------|--L--------6\---------|
--7----------------|--L-------------------|
--7----------------|--L-------------------|


   T         T         T      T         T         T        T          T
   T  T  S   T  T  S   T  T   T  T  S   T  T  S   T  T  S  T   T  S   T   T  S
-------------------------------------------------------------------------------|
-------------------------------------------------------------------------------|
----------------------------------------------------------13p-10p-7h-12p-10p-7-|
--12p-9p-6h-11p-9p-6h-12p-9h-11p-9p-6h-12p-9p-6h-11p-9p-6----------------------|
-------------------------------------------------------------------------------|
-------------------------------------------------------------------------------|


   T         T         T      T         T         T        T          T
   T  T  S   T  T  S   T  T   T  T  S   T  T  S   T  T  S  T   T  S   T   T  S
-------------------------------------------------------------------------------|
-------------------------------------------------------------------------------|
----------------------------------------------------------13p-10p-7h-12p-10p-7-|
--12p-9p-6h-11p-9p-6h-12p-9h-11p-9p-6h-12p-9p-6h-11p-9p-6----------------------|
-------------------------------------------------------------------------------|
-------------------------------------------------------------------------------|


   T          T          T       T          T          T         T           T
   T   T  S   T   T  S   T   T   T   T  S   T   T  S   T   T  S  T   T   S   T
----------------------------------------------------------------16p-13p-10h-15p-|
--15p-12p-9h-14p-12p-9h-15p-12h-14p-12p-9h-15p-12p-9h-14p-12p-9-----------------|
--------------------------------------------------------------------------------|
--------------------------------------------------------------------------------|
--------------------------------------------------------------------------------|
--------------------------------------------------------------------------------|


   T          T          T       T          T          T         T           T
   T   T  S   T   T  S   T   T   T   T  S   T   T  S   T   T  S  T   T   S   T
----------------------------------------------------------------16p-13p-10h-15p-|
--15p-12p-9h-14p-12p-9h-15p-12h-14p-12p-9h-15p-12p-9h-14p-12p-9-----------------|
--------------------------------------------------------------------------------|
--------------------------------------------------------------------------------|
--------------------------------------------------------------------------------|
--------------------------------------------------------------------------------|


   *Weird Effect
                                 \1/
   H.               Q.     S     H.               Q.     S
-----------------|-----------|-----------------|-----------|
-----------------|-----------|-----------------|-----------|
--(7)------------|--L------L-|--(7)------------|--L--------|
--(7)------------|--L------L-|--(7)------------|--L--------|
--(5)------------|--L------L-|--(5)------------|--L--------|
-----------------|-----------|-----------------|-----------|


                                                   T           T
   S  S  S  S  S  S  S  S  S  S  S  S     S  S  S  T   T   S   T   T   S
--------------------------------------|----------------------------------|
--------------------------------------|----------------------------------|
--16----------13-16----------13-16----|--------13-19p-16p-10h-19p-16p-10-|
--------15-16----------15-16----------|--15-16---------------------------|
-----14-------------14-------------14-|----------------------------------|
--------------------------------------|----------------------------------|


                                                   T           T
   S  S  S  S  S  S  S  S  S  S  S  S     S  S  S  T   T   S   T   T   S
--------------------------------------|----------------------------------|
--------------------------------------|----------------------------------|
--16----------13-16----------13-16----|--------13-19p-16p-10h-19p-16p-10-|
--------15-16----------15-16----------|--15-16---------------------------|
-----14-------------14-------------14-|----------------------------------|
--------------------------------------|----------------------------------|


                                                   T           T
   S  S  S  S  S  S  S  S  S  S  S  S     S  S  S  T   T   S   T   T   S
--------------------------------------|----------------------------------|
--15----------12-15----------12-15----|--------12-18p-15p-10h-18p-15p-10-|
--------13-14----------13-14----------|--13-14---------------------------|
-----12-------------12-------------12-|----------------------------------|
--------------------------------------|----------------------------------|
--------------------------------------|----------------------------------|


                                                   T           T
   S  S  S  S  S  S  S  S  S  S  S  S     S  S  S  T   T   S   T   T   S
--------------------------------------|----------------------------------|
--15----------12-15----------12-15----|--------12-18p-15p-10h-18p-15p-10-|
--------13-14----------13-14----------|--13-14---------------------------|
-----12-------------12-------------12-|----------------------------------|
--------------------------------------|----------------------------------|
--------------------------------------|----------------------------------|


   T                 T
   T   T   S T   T   S H
--16p-13p-10--------------------||
-------------9h-12h-15----------||
--------------------------------||
--------------------------------||
--------------------------------||
--------------------------------||

Duration Legend
---------------
W - whole
H - half
Q - quarter
E - 8th
S - 16th
T - 32nd
X - 64th
. - note dotted
|-n-|  - n-tuplets


Tablature Legend
----------------
L - tied note
x - dead note
g - grace note
(n) - ghost note
> - accentuded note
NH - natural harmonic
AH - artificial harmonic
TH - tapped harmonic
SH - semi harmonic
PH - pitch harmonic
h - hammer on
p - pull off
b - bend
br - bendRelease
pb - preBend
pbr - preBendRelease
brb - bendReleaseBend
\n/ - tremolo bar dip
\n - tremolo bar dive
-/n - tremolo bar Release up
/n\ - tremolo bar inverted dip
/n - tremolo bar return
-\n - tremolo bar Release down
S - shift slide
s - legato slide
/ -  slide into from below or out of upwards
\ -  slide into from above or out of downwards
~ - vibrato
W - wide vibrato
tr - trill
TP - tremolo picking
T - tapping
S - slap
P - pop
< - fade in
^ - brush up
v - brush down
comments
We did not receive enough feedback on this tab! Please rate:
print report bad tab
1 2 3 4 5
I want to post or [tab]
guest
You may want to rate the tab now too:
select rating
Please do not post tabs as comments. Select "correction" instead!