Oops, an error
Loading. Please wait.

Goddess Gagged Bass Tab

1,181 views 1 this week
no commentswrite comment
1 2 3 4 5
excellent!
x 1
Autoscroll
+/-
esc
set tempo
stop
WARNING: You are trying to view
                                    content from Ultimate-Guitar.com
                                    in an unauthorized application,
                                    which is prohibited.

                                    Please use an official Ultimate
                                    Guitar Tabs application for iPhone,
                                    iPad or Android to access legitimate
                                    chords, guitar, bass, and drum tabs
                                    from Ultimate-Guitar.com database.

                                    Type "ultimate guitar tabs" in Apple
                                    App Store's or Android Market's
                                    search to find the application.
Arif Mirabdolbaghi

For everyone without Guitar Pro. Tabbed by Tom DeLonge II.

      Q.     S S H           Q.     S S H           Q.     S S H
F#||----------------------|----------------------|----------------------|
C#||----------------------|----------------------|----------------------|
G#||----------------------|----------------------|----------------------|
D#||--0------L-4-L--------|--5------L-2-L--------|--0------L-4-L--------|
A#||----------------------|----------------------|----------------------|


  Q.     S E  S S S S S S S    Q    S S S S Q    S S S S
----------------------------|----------------------------|
----------------------------|----------------------------|
----------------------------|----------------------------|
--5------L-2--2-2-2-2-2-2-2-|--0----0-5-7-8-L----8-7-5-0-|
----------------------------|----------------------------|


  Q    S S  S E  E  E   S S S    Q    S S S S Q    S S S S    Q    S S E
------------------------------|----------------------------|--------------|
-----------------9------------|----------------------------|--------------|
--------------7-----7---------|----------------------------|-----------3--|
--L----7-8-10----------10-8-7-|--0----0-5-7-8-L----8-7-5-0-|--L----0-0----|
------------------------------|----------------------------|--------------|


  W                   W                   S S S S S S S S S S S S S S S S
-------------------|-------------------|----------------------------------|
-------------------|-------------------|----------------------------------|
-------------------|-------------------|----------------------------------|
--2----------------|--2----------------|--6-6-6-6-6-6-6-6-------------5-5-|
-------------------|-------------------|------------------4-4-4-4-4-4-----|


  S S S S S S S S S S S S S S S S    S S S S S S S S S S S S S S S S
----------------------------------|----------------------------------|
----------------------------------|----------------------------------|
----------------------------------|----------------------------------|
--6-6-6-6-6-6-6-6-----------------|--6-6-6-6-6-6-6-6-------------5-5-|
------------------4-4-4-4-4-4-4-4-|------------------4-4-4-4-4-4-----|


  S S S S S S S S S Q    E  S    S E  S S S E  H           S E  S S S E.  E.
------------------------------|-------------------------|---------------------|
------------------------------|-------------------------|---------------------|
------------------------------|-------------------------|---------------------|
--6-6-6-6-6-6-6-6-3-----------|--0----0-0-0-6-----------|--0----0-0-0-5---3---|
------------------------------|-------------------------|---------------------|


  S E  S S S E  H           S E  S S S E.  E.
-------------------------|---------------------|
-------------------------|---------------------|
-------------------------|---------------------|
--0----0-0-0-6-----------|--0----0-0-0-5---3---|
-------------------------|---------------------|


                                                         |--3-| |--3--|
  S S S S S E  E  S S S S  S E     S S S S S E  E  S S S S S  S S  S  S
--------------------------------|---------------------------------------|
--------------------------------|---------------------------------------|
--------------------------10-7--|-------------------------------8-10-12-|
--0-0-0-0-0----0--0-0-0-0-------|--0-0-0-0-0----0--0-0-0-7-9-11---------|
--------------------------------|---------------------------------------|


                                                         |--3-| |--3--|
  S S S S S E  E  S S S S  S E     S S S S S E  E  S S S S S  S S  S  S
--------------------------------|---------------------------------------|
--------------------------------|---------------------------------------|
--------------------------10-7--|-------------------------------8-10-12-|
--0-0-0-0-0----0--0-0-0-0-------|--0-0-0-0-0----0--0-0-0-7-9-11---------|
--------------------------------|---------------------------------------|


  S E  S S E  S S E  S S S E     S E  S S E  S S E  S S E  S
------------------------------|------------------------------|
------------------------------|------------------------------|
--0----0-0----0-0----0-0------|--0----0-0----0-0----0-0------|
---------------------------3--|------------------------------|
------------------------------|------------------------------|


  S. S. S S. S. S S. S. S E  E     S. S. S S. S. S S. S. S E  E
--------------------------------|--------------------------------|
--------------------------------|--------------------------------|
--------------------------------|--------------------------------|
--5--3--5-5--3--5-5--3--5-5--3--|--5--3--5-5--3--5-5--3--5-5--3--|
--------------------------------|--------------------------------|


  Q.     S S H           Q.     S E    E.  S S E
----------------------|----------------------------|
----------------------|----------------------------|
----------------------|--------------2g9---9-9-7\--|
--0------L-4-L--------|--5------L-2----------------|
----------------------|----------------------------|


  S. S. S S. S. S S. S. S E  E     S. S. S S. S. S S. S. S E  E
--------------------------------|--------------------------------|
--------------------------------|--------------------------------|
--------------------------------|--------------------------------|
--5--3--5-5--3--5-5--3--5-5--3--|--5--3--5-5--3--5-5--3--5-5--3--|
--------------------------------|--------------------------------|


  Q    S S S S Q    S S E     Q    S S S S Q    Q
---------------------------|-------------------------|
---------------------------|-------------------------|
---------------------------|-------------------------|
--0----0-5-7-8-L----8-7-5--|--4----7-5-4-2-L----0----|
---------------------------|-------------------------|


  Q    S S S S Q     S  S E     Q     S S S S Q    Q       W
-----------------------------|--------------------------|-------------------|
-----------------------------|--------------------------|-------------------|
-----------------------------|--------------------------|-------------------|
--0----0-5-7-8-L----12-10-8--|--7----10-8-7-6-L----1----|--0----------------|
-----------------------------|--------------------------|-------------------|


  W                   S S S S H        Q       S S S S H        S S S S
-------------------|------------------------|---------------------------|
-------------------|------------------------|---------------------------|
-------------------|------------------------|--4-4-4-4----------3-3-3---|
--L----------------|--0-0-0-0---------------|---------------------------|
-------------------|------------------------|---------------------------|


   T      T      T       T      T      T       T      T      T       T      T
   T  T   T  T   T  T S  T  T   T  T   T  T S  T  T   T  T   T  T S  T  T   T  T
---------------------------------------------------------------------------------|
--17p-2h-16p-2h-14p-2---17p-2h-16p-2h-14p-2---19p-2h-17p-2h-12p-2---19p-2h-17p-2-|
---------------------------------------------------------------------------------|
---------------------------------------------------------------------------------|
---------------------------------------------------------------------------------|


   T      T      T       T      T      T       T      T      T       T      T
   T  T   T  T   T  T S  T  T   T  T   T  T S  T  T   T  T   T  T S  T  T   T  T
---------------------------------------------------------------------------------|
--21p-2h-19p-2h-11p-2---21p-2h-19p-2h-11p-2---19p-2h-17p-2h-10p-2---19p-2h-17p-2-|
---------------------------------------------------------------------------------|
---------------------------------------------------------------------------------|
---------------------------------------------------------------------------------|


   T      T      T       T      T      T       T      T      T       T      T
   T  T   T  T   T  T S  T  T   T  T   T  T S  T  T   T  T   T  T S  T  T   T  T
---------------------------------------------------------------------------------|
--17p-2h-16p-2h-14p-2---17p-2h-16p-2h-14p-2---19p-2h-17p-2h-12p-2---19p-2h-17p-2-|
---------------------------------------------------------------------------------|
---------------------------------------------------------------------------------|
---------------------------------------------------------------------------------|


   T      T      T       T      T      T       T      T      T       T      T
   T  T   T  T   T  T S  T  T   T  T   T  T S  T  T   T  T   T  T S  T  T   T  T
---------------------------------------------------------------------------------|
--21p-2h-19p-2h-11p-2---21p-2h-19p-2h-11p-2---19p-2h-17p-2h-10p-2---19p-2h-17p-2-|
---------------------------------------------------------------------------------|
---------------------------------------------------------------------------------|
---------------------------------------------------------------------------------|


                                                               |-3-| |-3-|
  E.  T  T  S S S  E  S E  S S S S    E.  T  T  S S S  E  S E  S S S S S S
-----------------------------------|---------------------------------------|
-----------------------------------|---------------------------------------|
------7h-9-10-7-9-----7------------|------7h-9-10-7-9-----7----------------|
--0---------------10----9--0-0-0-0-|--0---------------10----9--0-0-0-0-0-0-|
-----------------------------------|---------------------------------------|


  E.  T  T  S S S  E  S E  S S S S    E.  T  T  S S S  E  S E  S S S S
-----------------------------------|-----------------------------------|
-----------------------------------|-----------------------------------|
------7h-9-10-7-9-----7------------|------7h-9-10-7-9-----7------------|
--0---------------10----9--0-0-0-0-|--0---------------10----9--0-0-0-0-|
-----------------------------------|-----------------------------------|


  S S S S S E  E  S S S S S E     S S S S S E  S H
-------------------------------|--------------------------|
-------------------------------|--------------------------|
-------------------------------|--------------------------|
--2-1-2-1-2-5--2--1-2-1-2-5-0--|--2-1-2-1-2-5--2----------|
-------------------------------|--------------------------|


  S S S S S E  E  S S S S S E     S S S S S E  E  S S S S S E
-------------------------------|-------------------------------|
-------------------------------|-------------------------------|
-------------------------------|-------------------------------|
------------5------------------|------------5------------------|
--2-1-2-1-2----2--1-2-1-2-5-0--|--2-1-2-1-2----2--1-2-1-2-5-0--|


  S T  T  S S S  S S S S S S S S S S S
---------------------------------------|
-------------------------8-7-----6-5---|
----7h-9-10-7-9------------------------|
--0-------------10-9-8-7-----5-4-----3-|
---------------------------------------|


  S T  T  S S S  S S S S S S S S  S  S S
-----------------------------------------|
-------------------------8-9-----10-11---|
----7h-9-10-7-9--------------------------|
--0-------------10-9-8-6-----7-8-------9-|
-----------------------------------------|


  S T  T  S S S  S S S S S S S S S S S
---------------------------------------|
-------------------------8-7-----6-5---|
----7h-9-10-7-9------------------------|
--0-------------10-9-8-7-----5-4-----3-|
---------------------------------------|


  S T  T  S S S  S S S S S S S S  S  S S    H        Q    S
-----------------------------------------|------------------|
-------------------------8-9-----10-11---|------------------|
----7h-9-10-7-9--------------------------|------------------|
--0-------------10-9-8-6-----7-8-------9-|------------------|
-----------------------------------------|------------------|


       T      T      T      T           T       T      T       T
  S S  S S S  S S S  S S S  S S    S S  S S S   S S S  S S S   S S
--------------------------------|----------------------------------|
--------------------------------|----------------------------------|
------10---5h-9-----10---5h-9---|------12---7h-11-----12---7h-11---|
----7----7--------7----7------7-|----9----9---------9----9-------9-|
--5-------------5---------------|--7--------------7----------------|


        T        T       T        T
  S  S  S  S S   S S  S  S  S S   S  S
---------------------------------------|
---------------------------------------|
-------14----9h-12------14----9h-12----|
----10----10---------10----10-------10-|
--8----------------8-------------------|


         T         T        T         T
   S  S  S  S  S   S  S  S  S  S  S   S  S
-------------------------------------------|
-------------------------------------------|
--------16----11h-14-------16----11h-14----|
-----12----12-----------12----12--------12-|
--10-----------------10--------------------|


        T        T       T        T
  S  S  S  S S   S S  S  S  S S   S  S
---------------------------------------|
-------14----9h-12------14----9h-12----|
----10----10---------10----10-------10-|
--8----------------8-------------------|
---------------------------------------|


         T         T        T         T            T      T      T      T
   S  S  S  S  S   S  S  S  S  S  S   S  S    S S  S S S  S S S  S S S  S S
-------------------------------------------|--------------------------------|
--------16----10h-14-------16----10h-14----|--------------------------------|
-----12----12-----------12----12--------12-|------10---5h-9-----10---5h-9---|
--10-----------------10--------------------|----7----7--------7----7------7-|
-------------------------------------------|--5-------------5---------------|


        T       T       T       T           T      T
   S S  S S S   S  S S  S S S   S S    S S  S S S  S Q    E  S
------------------------------------|--------------------------|
------------------------------------|--------------------------|
-------12---7h-10------12---7h-10---|------10---5h-9-----------|
-----8----8----------8----8-------8-|----7----7----------------|
--10--------------10----------------|--5-----------------------|


  S S Q.     S S Q.        S S Q.     S S E  S Q    E  S
------------------------|--------------------------------|
------------------------|--------------------------------|
------------------------|--------------------------------|
--0-0-0------0-0-0------|--0-0-0------0-0-0--0-----------|
------------------------|--------------------------------|


  S S E  S S S E  E  S S S S S    S S E  S S S S S S S S S S S S
-------------------------------|---------------------------------|
-------------------------------|---------------------------------|
---------7-5-------------------|---------7-5-------------------5-|
--0-0-0------7-6--5--0-3-0-5-6-|--0-0-0------7-6-5-0-5-0-5-6-7---|
-------------------------------|---------------------------------|


  S S E  S S S E  E  S S S S S    S S E  S S S S S S S S S S S S
-------------------------------|---------------------------------|
-------------------------------|---------------------------------|
---------7-5-------------------|---------7-5-------------------5-|
--0-0-0------7-6--5--0-3-0-5-6-|--0-0-0------7-6-5-0-5-0-5-6-7---|
-------------------------------|---------------------------------|


  S S S H        Q    S
------------------------||
------------------------||
------------------------||
--0-0-0-----------------||
------------------------||


Duration Legend
---------------
W - whole
H - half
Q - quarter
E - 8th
S - 16th
T - 32nd
X - 64th
. - note dotted
|-n-|  - n-tuplets


Tablature Legend
----------------
L - tied note
x - dead note
g - grace note
(n) - ghost note
> - accentuded note
NH - natural harmonic
AH - artificial harmonic
TH - tapped harmonic
SH - semi harmonic
PH - pitch harmonic
h - hammer on
p - pull off
b - bend
br - bendRelease
pb - preBend
pbr - preBendRelease
brb - bendReleaseBend
\n/ - tremolo bar dip
\n - tremolo bar dive
-/n - tremolo bar Release up
/n\ - tremolo bar inverted dip
/n - tremolo bar return
-\n - tremolo bar Release down
S - shift slide
s - legato slide
/ -  slide into from below or out of upwards
\ -  slide into from above or out of downwards
~ - vibrato
W - wide vibrato
tr - trill
TP - tremolo picking
T - tapping
S - slap
P - pop
< - fade in
^ - brush up
v - brush down
comments
We did not receive enough feedback on this tab! Please rate:
print report bad tab
1 2 3 4 5
I want to post or [tab]
guest
You may want to rate the tab now too:
select rating
Please do not post tabs as comments. Select "correction" instead!