Oops, an error
Loading. Please wait.

Goddess Gagged Tab

ver1
ver1

Intro

Whole song

Interactive

More versions @911Tabs.com
2,405 views 4 this week
1 commentread comment
1 2 3 4 5
excellent!
x 3
Autoscroll
+/-
esc
set tempo
stop
Contributor
Difficulty
Tuning
advanced
D# G# C# F# A# D#
WARNING: You are trying to view
                                    content from Ultimate-Guitar.com
                                    in an unauthorized application,
                                    which is prohibited.

                                    Please use an official Ultimate
                                    Guitar Tabs application for iPhone,
                                    iPad or Android to access legitimate
                                    chords, guitar, bass, and drum tabs
                                    from Ultimate-Guitar.com database.

                                    Type "ultimate guitar tabs" in Apple
                                    App Store's or Android Market's
                                    search to find the application.
"Goddess Gagged" by Protest The Hero
Track 10 from the CD "Fortress"

Tabbed by: Brenton Seifert
bseifertguitar@gmail.com
myspace.com/breathtakerx

Tuned a Half Step Down (Eb Ab Db Gb Bb Eb)

This is the tab for only one of the guitars in this song...
except for a few parts...


eb|----------------------------------|
Bb|-9~---9------------9h12p9---------|
Gb|--------9---------x-------9h11----|
Db|----------9------x-------------11-|
Ab|------------11~-------------------|
Eb|----------------------------------|


|----------------------------------------------|
|------------/17-/14---------17-13----17-14----|
|-/14--13-14---------14------------14-------14-|
|-----------------------16---------------------|
|----------------------------------------------|
|----------------------------------------------|


|--------------------------------------|
|-9~---9----------------------9h12p9---|
|--------9---------------9h11--------9-|
|----------9-----------9---------------|
|------------11~----11-----------------|
|--------------------------------------|


|------------------------------------|
|------------------17-13-------------|
|-8---9--/11-------------14----16-14-|
|------------11~------------14-------|
|------------------------------------|
|------------------------------------|


|------------------------------------|
|-------------12-13~----12b-r--------|
|-13~---13-14-----------------14-13~-|
|------------------------------------|
|------------------------------------|
|------------------------------------|


|--------------------------------------------|
|-------17-------17--------17-15-13----------|
|-13-14----13-14----13-14-----------16-14-13-|
|--------------------------------------------|
|--------------------------------------------|
|--------------------------------------------|


|----------------------------------|
|----------------17~---------------|
|-/16---16-17-19------19b-r-17-16~-|
|----------------------------------|
|----------------------------------|
|----------------------------------|

I'll explain this next part, you are going to trill 15/16 until the end of the measure.
the little high pitched noises you hear are pick taps on the G string. Keep the
trill going the whole time and lightly tap your pick near the 23rd or so fret on the 
G string to the pattern you hear on the song. You will slowly move the taps higher as
the pitch gets higher...

                 trill.... 
|---------------------------|
|---------------------------|
|-/19-17-16-----15h16p15h16-|
|---------------------------|
|---------------------------|
|---------------------------|


|----------------------------------------------------------|
|----------------------------------------------------------|
|----------------------------------------------------------|
|-----------------------------------4-5-4-------4-5-7-8----|
|-8--8-8-8-8--8--8--8-8--8--8---6-7-------7-6-7------------|
|-6--6-6-6-6--6--6--6-6--6--6---------------------------5~-|
     .......        ...  

|-----------------------------------------------------------|
|-----------------------------------------------------------|
|-------------------------------------------------------+7~-|
|-----------------------------------4-5-4-------4-5-7-8-----|
|-8--8-8-8-8--8--8--8-8--8--8---6-7-------7-6-7-------------|
|-6--6-6-6-6--6--6--6-6--6--6-------------------------------|
     .......        ...  

|----------------------------------------------------------|
|----------------------------------------------------------|
|----------------------------------------------------------|
|-----------------------------------4-5-4-------4-5-7-8----|
|-8--8-8-8-8--8--8--8-8--8--8---6-7-------7-6-7------------|
|-6--6-6-6-6--6--6--6-6--6--6---------------------------5~-|
     .......        ...  

|------------------------------|
|------------------------------|
|------------------------------|
|------------------------------|
|-8--8-8-8-8--8--8--8-8--8---5-|
|-6--6-6-6-6--6--6--6-6--6---3-|
     .......        ...

|---------------------------|
|---------------------------|
|---------------------------|
|-----4-5-4-------4-5-7-8---|
|-6-7-------7-6-7---------8-|
|-------------------------6-|


|--------------------------------|
|--------------------------------|
|--------------------------------|
|-----4-5-4-------4-5-7-8--------|
|-6-7-------7-6-7---------7----5-|
|-------------------------5----3-|


|---------------------------|
|---------------------------|
|---------------------------|
|-----4-5-4-------4-5-7-8---|
|-6-7-------7-6-7---------8-|
|-------------------------6-|


|--------------------------------|
|--------------------------------|
|--------------------------------|
|-----4-5-4-------4-5-7-8--------|
|-6-7-------7-6-7---------7----5-|
|-------------------------5----3-|


|------------------------------------------------|
|------------------------------------------------|
|------------------------------------------------|
|------------------4h5p4-------------------4-+4~-|
|------------------------5-----------------------|
|-0--3-5-7--3-5-7----------0--3-5-7--3-5-7-------|


|----------------------------------------------------|
|----------------------------------------------------|
|----------------------------------------------------|
|------------------4h5p4-----------------------4-5-7-|
|------------------------5-----------------4-5-------|
|-0--3-5-7--3-5-7----------0--3-5-7--3-5-7-----------|


|------------------------------------------------|
|------------------------------------------------|
|------------------------------------------------|
|------------------4h5p4-------------------4-+4~-|
|------------------------5-----------------------|
|-0--3-5-7--3-5-7----------0--3-5-7--3-5-7-------|


|----------------------------------------------------|
|----------------------------------------------------|
|----------------------------------------------------|
|------------------4h5p4-----------------------4-5-7-|
|------------------------5-----------------4-5-------|
|-0--3-5-7--3-5-7----------0--3-5-7--3-5-7-----------|


|--------------------------------|
|--------------------------------|
|--------------------------------|
|-7--5--7-7--5--7-7--5--7-7---5~-|
|--------------------------------|
|--------------------------------|


|-----------------------------------|
|-----------------------------------|
|-----------------------------------|
|-7p0h6h7-7p0h7p0-7p0h6h7-/12p0h7p0-|
|-----------------------------------|
|-----------------------------------|


|----------------------------------------|
|----------------------------------------|
|----------------------------------------|
|-7p0h6h7-7p0h11h12-12p0h16h17-17p0h12p0-|
|----------------------------------------|
|----------------------------------------|


|-------------------------------------------------------------|
|-------------------------------------------------------------|
|-------------------------------------------------------------|
|-------------------------------------------------------------|
|-7--7-7-7-7--7--7--7-7-7-7--7--7--7-7-7-7--7--7--7-7--5--5-5-|
|-5--5-5-5-5--5--5--5-5-5-5--5--5--5-5-5-5--5--5--5-5--3--3-3-|
     .......        .......        .......        ...     ...

|----------------------------------|
|-9~---9------------9h12p9---------|
|--------9---------x-------9h11----|
|----------9------x-------------11-|
|------------11~-------------------|
|----------------------------------|


|-----------------------------------------|
|------------/17-/14---------17-13--------|
|-/14--13-14---------14------------14-----|
|-----------------------16------------14~-|
|-----------------------------------------|
|-----------------------------------------|


|--------------------------------|
|--------------------------------|
|--------------------------------|
|--------------------------------|
|-4--2--4-4--2--4-4--2--4--4---2-|
|-5--3--5-5--3--5-5--3--5--5---3-|


|------------------------------------------------------|
|------------------------------------------------------|
|-13----13-14-16-17---17-16-14---13---16-14-13--11---9-|
|------------------------------------------------------|
|-11----11-12-14-15---15-14-12---11---14-12-11---9---7-|
|------------------------------------------------------|


|---------------------------------------------------|
|---------------------------------------------------|
|-13----13-14-16-17---21-19-17-16---19-17-16-15--10-|
|---------------------------------------------------|
|-11----11-12-14-15---19-17-15-14---17-15-14-13---8-|
|---------------------------------------------------|


|-15-0-14-0----------15-0-14-0----------|
|-----------17-17-17-----------17-17-17-|
|---------------------------------------|
|---------------------------------------|
|---------------------------------------|
|---------------------------------------|


|-17-0-15-0----------17-0-15-0----------|
|-----------15-15-15-----------15-15-15-|
|---------------------------------------|
|---------------------------------------|
|---------------------------------------|
|---------------------------------------|


|-19-0-17-0----------19-0-17-0----------|
|-----------14-14-14-----------14-14-14-|
|---------------------------------------|
|---------------------------------------|
|---------------------------------------|
|---------------------------------------|


|-17-0-15-0----------17-0-15-0----------|
|-----------13-13-13-----------13-13-13-|
|---------------------------------------|
|---------------------------------------|
|---------------------------------------|
|---------------------------------------|


|--------------------------------------------|
|--------------------------------------------|
|--------------------------------------------|
|------2-4-5-2-4---------------------4h7p4---|
|----------------5-----4-----4-5-6-7-------6-|
|-0-----------------0-----0------------------|


|----------------------------------------|
|----------------------------------------|
|------------------------------------4-5-|
|------2-4-5-2-4---------------2-4-5-----|
|----------------5-----4-----3-----------|
|-0-----------------0-----0--------------|


|--------------------------------------------|
|--------------------------------------------|
|--------------------------------------------|
|------2-4-5-2-4---------------------4h7p4---|
|----------------5-----4-----4-5-6-7-------6-|
|-0-----------------0-----0------------------|


|-----------------------------------------|
|-----------------------------------------|
|------------------------------------3----|
|------2-4-5-2-4---------------2-4-5----4-|
|----------------5-----4-----4------------|
|-0-----------------0-----0---------------|


|-------------------------------|
|-------------------------------|
|-------------------------------|
|-------------------------------|
|-4-3-4-3-4-7---4---3-4-3-4-7-2-|
|-2-1-2-1-2-5---2---1-2-1-2-5-0-|


|----------------------------------|
|----------------------------------|
|----------------------------------|
|----------------------------------|
|-4-3-4-3-4-7---4---2-2-2----2-2-2-|
|-2-1-2-1-2-5---2---0-0-0----0-0-0-|


|-------------------------------|
|-------------------------------|
|-------------------------------|
|-------------------------------|
|-4-3-4-3-4-7---4---3-4-3-4-7-2-|
|-2-1-2-1-2-5---2---1-2-1-2-5-0-|


|-------------------------------|
|-------------------------------|
|-------------------------------|
|-------------------------------|
|-4-3-4-3-4-7---4---3-4-3-4-7-2-|
|-2-1-2-1-2-5---2---1-2-1-2-5-0-|


|-------------------------------------|
|-------------------------------------|
|-------------------------------------|
|-----2-4-5-2-4---------8-7-----6-5---|
|---------------5-4-3-----------------|
|-0-------------------6-----5-4-----3-|


|---------------------------------------|
|---------------------------------------|
|---------------------------------------|
|-----2-4-5-2-4---------8-9-----10-11---|
|---------------5-4-3-------------------|
|-0-------------------6-----7-8-------9-|


|-------------------------------------|
|-------------------------------------|
|-------------------------------------|
|-----2-4-5-2-4---------8-7-----6-5---|
|---------------5-4-3-----------------|
|-0-------------------6-----5-4-----3-|


|---------------------------------------|
|---------------------------------------|
|---------------------------------------|
|-----2-4-5-2-4---------8-9-----10-11---|
|---------------5-4-3-------------------|
|-0-------------------6-----7-8-------9-|


|----------------------------|
|-----8-----7------8-----7---|
|---------7------------7-----|
|---9---9--------9---9-----9-|
|-7------------7-------------|
|----------------------------|


|----------------------------|
|-----8-----7------8-----7---|
|---------7------------7-----|
|---9---9--------9---9-----9-|
|-7------------7-------------|
|----------------------------|


|----------------------------------|
|------10------9------10------9----|
|------------9--------------9------|
|---11----11-------11----11-----11-|
|-9--------------9-----------------|
|----------------------------------|


|----------------------------------------|
|-------12-------10-------12-------10----|
|-------------11----------------11-------|
|----12----12----------12----12-------12-|
|-10----------------10-------------------|
|----------------------------------------|


|----------------------------------------|
|-------14-------12-------14-------12----|
|-------------13----------------13-------|
|----14----14----------14----14-------14-|
|-12----------------12-------------------|
|----------------------------------------|


|---------------------------|
|-----5-----3-----5-----3---|
|---------4-----------4-----|
|---5---5-------5---5-----5-|
|-3-----------3-------------|
|---------------------------|


|---------------------------|
|-----7-----5-----7-----5---|
|---------5-----------5-----|
|---7---7-------7---7-----7-|
|-5-----------5-------------|
|---------------------------|


|---------------------------|
|-----8-----7-----8-----7---|
|---------7-----------7-----|
|---9---9-------9---9-----9-|
|-7-----------7-------------|
|---------------------------|


|----------------------------------|
|------10------8------10------8----|
|------------9--------------9------|
|---10----10-------10----10-----10-|
|-9--------------9-----------------|
|----------------------------------|


|--------------------------------------|
|-----------------------12-------10----|
|-----------------------------11-------|
|---------------------9----12-------12-|
|-------------------7------------------|
|--------------------------------------|


|--------------------------------------------------------|
|--------------------------------------------------------|
|--------------------------------------------------------|
|--------------------------------------------------------|
|-2--2-2--2------2--2-2--2------2--2-2--2------2--2-2--2-|
|-0--0-0--0------0--0-0--0------0--0-0--0------0--0-0--0-|
     ...            ...            ...            ...

|------------------------------------|
|------------------------------------|
|---------------8-9-11-9-8-----------|
|--------7-9-10-----------10-9-7-----|
|-7-9-10------------------------10-9-|
|------------------------------------|


|-15h17p15----15h17p15----------------------------|
|----------17----------17-15h17p15----15h17p15----|
|----------------------------------16----------16-|
|-------------------------------------------------|
|-------------------------------------------------|
|-------------------------------------------------|


(1,3)
|-------------------------|
|-15h17p15----15----------|
|----------16----16-15-14-|
|-------------------------|
|-------------------------|
|-------------------------|

(2,4)
|-------------------------|
|-------------------------|
|-16h19p16\15-16h19p16\15-|
|-------------------------|
|-------------------------|
|-------------------------|


|------------|
|------------|
|------------|
|------------|
|-2-2-2-2--2-|
|-0-0-0-0--0-|





************************************

| /   slide up
| \   slide down
| h   hammer-on
| p   pull-off
| ~   vibrato
| +   harmonic
| x   Mute note
| b   Bend
| pb  Pre-bend
| br  Bend release
| pbr Pre-bend release
| brb Bend release bend

************************************
comments
We did not receive enough feedback on this tab! Please rate:
print report bad tab
1 2 3 4 5
1 comment total.
0 reply
AppleRedStrat wrote on July 11 2013, 05:15 pm

pretty ****en sick gotta love protest

I want to post or [tab]
guest
You may want to rate the tab now too:
select rating
Please do not post tabs as comments. Select "correction" instead!