Oops, an error
Loading. Please wait.

Heretics And Killers Bass Tab

ver1
ver1

Whole song

Interactive

More versions @911Tabs.com
7,563 views 12 this week
12 commentsread comments
1 2 3 4 5
accurate
x 7
Autoscroll
+/-
esc
set tempo
stop
Contributor
Difficulty
advanced
WARNING: You are trying to view
                                    content from Ultimate-Guitar.com
                                    in an unauthorized application,
                                    which is prohibited.

                                    Please use an official Ultimate
                                    Guitar Tabs application for iPhone,
                                    iPad or Android to access legitimate
                                    chords, guitar, bass, and drum tabs
                                    from Ultimate-Guitar.com database.

                                    Type "ultimate guitar tabs" in Apple
                                    App Store's or Android Market's
                                    search to find the application.
Tuning is E flat or, Eb  Ab  Db  Gb

0:00-0:15
Gb|------------------------------2---2----------------------------------------------|
Db|----------------------------0---0------------------------------------------------|
Ab|---------------------------------------------------------------------------------|
Eb|-0-0000-0-000--0-0000-0-000------------0-00000h7p00-0-00000-0-00000h7p00-0-00000-|
                               s p s p 

OMFG PAUSE FROM 0:15-0:18

0:18-0:24
Gb|-----------------------------------------------|
Db|-----------------------------------------------|
Ab|------5-3-6-------5-3-6-----5-3-6------5-3-6---|
Eb|12/-0-------0-000-------0-0-------0-000------0-|

Quick Guitar Part... 0:25-0:30
 "They call me the man with the blood of Christ, Honestly"

0:30-0:36
"but tonight.."
Gb|---------|
Db|---------|
Ab|---------|
Eb|-0000000-| Figure out timing on your own,im being lazy? 
I dare you to try to tab out that rhythm

0:36-0:41
Cool bass tapping shizz, arif told me how to do this himself, 
no lies!
Gb|-12t11----------12t11-----14t11-|
Db|------12t9-----------12t9-------|
Ab|----------12t10-----------------|
Eb|--------------------------------|x4 play it fast, believe me.

0:41-0:49
Gb|---------|
Db|---------|
Ab|---------|
Eb|-0000000-| Figure out timing on your own

0:49-1:04
Gb|------------------5h7-5---------------------5h7-5------------|
Db|--------------5h7------7-5--------------5h7------7-5---------|
Ab|----------5h8-----------------------5h8----------------------|
Eb|-0-wait-0------------------0-wait-0------------------0-wait--|cont'd..

Gb|----------5h7-5----------------------6h8-6-----|
Db|------5h7-------7-5--------------6h8-------8-6-|
Ab|--5h8------------------------6h9---------------|
Eb|0-------------------0-wait-0-------------------|

1:04-1:12
Gb|----------------------------------------|
Db|--------7-5-4-5--------7-5-4-5--7-6---3-|
Ab|------------------------------------7---|
Eb|-0-0000---------0-0000------------------|

1:12-1:19
Gb|-------------------------------5h7-h-------|
Db|---------------------------5h7-------7-5---|
Ab|-----------------------5h8-----------------|
Eb|-0-wait-0-0---0-wait-0-------------------0-|

Pause from 1:19-1:22

At 1:22
Gb|---|
Db|---|
Ab|---|
Eb|-0-|

I have no idea what arif is doing here, in the video hes tapping, 
i know for a fact he doesnt, 
so i just beat on the E , it sounds fine, until 

1:33-1:46
Gb|-----5------------------------------------------------------------------|
Db|-7-9---6----------------------------------------------------------------|
Ab|---------------------5--------------------------------------------------|
Eb|----------0-0000-5h6---0-0000-6p5-00000<For that part figure out timing-| x2

1:46-2:00
Gb|--------------------------------|
Db|--------------------------------|
Ab|--------------------------------|
Eb|-0--0-0-0--0-0---0--0-0-0-0---0-|

2:00-2:11
Gb|--------------------------------------------|
Db|--------------------------------8-7---------|
Ab|------------------------------------10-9----|
Eb|-00000-0-00000-0-0000000000000------------0-|

Quick guitar just by itself from 2:11-2:15

THEN

2:15-2:23
Gb|--------------------------------------------------|
Db|--------------------------------------------------|
Ab|--------------------------------------------------|
Eb|-000-66-000-55-000-33-000000-000-66-000-55-000-33-|

2:23-2:32
Gb|----------------------------------|
Db|----------------------------------|
Ab|----------------------------------|
Eb|-8-88888888-3-33333333-6-66666666-|x2

2:32-2:41
Gb|-------------------------------|
Db|-------------------------------|
Ab|-------------------------------|
Eb|-8--8-8-8-8-8--3-3-3-3-6-6-6-6-|x2

2:41-3:09/End
Gb|-----------------------------------------------|
Db|-----------------------------------------------|
Ab|------5-3-6-------5-3-6-----5-3-6------5-3-6---|
Eb|12/-0-------0-000-------0-0-------0-000------0-|x2 End on 6 second time.
comments
print report bad tab
12 comments total. Showing first comments.
-2 reply
anticsbasslover wrote on December 18 2006, 03:24 pm

the part where it says dare to tab this rythm
its wrong
and its incredibly easy to tab
you're just not good enough to tab it

0 reply
TheJManSays wrote on January 28 2007, 10:44 pm

What's the point of even tabbing rhythm? You sound like a goddamn idiot (1st comment guy).
Anyway, the tab seems pretty good, but I think it should be in Drop D? Not sure.

0 reply
anticsbasslover wrote on January 29 2007, 02:10 pm

if you're not gonna tab the whole thing whats the point of tabbing any of it?? if someone looks up the tab they obviously wanna know how to play the WHOLE SONG. so seriously. shut up. you're a fag

I want to post or [tab]
guest
You may want to rate the tab now too:
select rating
Please do not post tabs as comments. Select "correction" instead!