Oops, an error
Loading. Please wait.

Heretics And Killers Tab

ver1
ver1

Intro

Whole song

Interactive

More versions @911Tabs.com
30,391 views 18 this week
24 commentsread comments
1 2 3 4 5
excellent!
x 14
Autoscroll
+/-
esc
set tempo
stop
Difficulty
advanced
Hey! There's an official Ultimate Guitar app which is ideal
for learning songs when you're away from computer. Get the app
WARNING: You are trying to view
                                    content from Ultimate-Guitar.com
                                    in an unauthorized application,
                                    which is prohibited.

                                    Please use an official Ultimate
                                    Guitar Tabs application for iPhone,
                                    iPad or Android to access legitimate
                                    chords, guitar, bass, and drum tabs
                                    from Ultimate-Guitar.com database.

                                    Type "ultimate guitar tabs" in Apple
                                    App Store's or Android Market's
                                    search to find the application.
Heretics and Killers by Protest The Hero

Now, i know all of this is right..because my friend tabbed it, and i heard him play it,
it sounds perfect. I put in two parts, because guitar 1 and guitar two which parts a lot
the song. Protest The Hero is the best thing to come out of Canada. This song is one of 
favorites...enjoy!


              PM PM PM PM PM PM PM
      E  Q    E  S  S  S  S  S  S   E      E  Q    E   S  S  S  S  S  S  S  S
D#||-----------------------------------|--------------------13-17-13------------|
A#||-----------------------------------|-----------------15----------15---------|
F#||-----------------------------------|--------------14----------------14------|
C#||--0-------0--0--0--7--7--8--8--10--|--12------------------------------15----|
G#||--0-------0--0--0--7--7--8--8--10--|--12------------------------------------|
C#||--0-------0--0--0--0--0--0--0--10--|--12------------------------------------|


           PM PM PM PM PM PM PM
   E  Q    E  S  S  S  S  S  S   E
------------------------------------|
------------------------------------|
------------------------------------|
--12-------0--0--0--7--7--8--8--10--|
-----------0--0--0--7--7--8--8--10--|
-----------0--0--0--0--0--0--0--10--|


   E   S  S  S  S  S  S  S  S  S  S  S  S  E
------------15-18-15--------------------------|
---------16----------16-----------------------|
------15----------------15-14-----------------|
--12--------------------------15-12-----------|
--12--------------------------------13-12-----|
--12--------------------------------------15--|


          PM PM PM PM PM PM PM
  E  Q    E  S  S  S  S  S  S  E     Q      E  E
----------------------------------|---------------|
----------------------------------|---------------|
----------------------------------|---------------|
--0-------0--0--0--7--7--8--8--0--|---------0-----|
--0-------0--0--0--7--7--8--8--0--|---------0-----|
--0-------0--0--0--0--0--0--0--0--|--7br----0-----|


          PM PM PM PM PM PM PM
  E  Q    E  S  S  S  S  S  S   E      E  E     Q
-----------------------------------|---------------------|
-----------------------------------|---------------------|
-----------------------------------|---------------------|
--0-------0--0--0--7--7--8--8--10--|--12-----<>12brb~----|
--0-------0--0--0--7--7--8--8--10--|--12-----------------|
--0-------0--0--0--0--0--0--0--10--|--12-----------------|


          PM PM PM PM PM PM PM
  E  Q    E  S  S  S  S  S  S  E     Q      E  E
----------------------------------|---------------|
----------------------------------|---------------|
----------------------------------|---------------|
--0-------0--0--0--7--7--8--8--0--|---------0-----|
--0-------0--0--0--7--7--8--8--0--|---------0-----|
--0-------0--0--0--0--0--0--0--0--|--7br----0-----|


          PM PM PM PM PM PM PM
  E  Q    E  S  S  S  S  S  S   E   E  E     E   E   E  Q    E  Q
------------------------------------------|--------------------------|
------------------------------------------|--------------------------|
------------------------------------------|--7S--5S--8---------------|
--0-------0--0--0--7--7--8--8--10--12-----|--7S--5S--8-------0-------|
--0-------0--0--0--7--7--8--8--10--12-----|--5S--3S--6-------0-------|
--0-------0--0--0--0--0--0--0--10--12-----|------------------0-------|


                                        PM PM   PM PM
  E   E   E  Q    E     Q    E   E   E  S  S  S S  S  S
------------------------|----------------------------------|
------------------------|----------------------------------|
--7S--5S--8-------------|-------7S--5S--8------------------|
--7S--5S--8-------------|--0----x---x---x------------------|
--5S--3S--6-------------|--0----5S--3S--6------------------|
------------------------|--0---------------0--0----0--0----|


  PM               PM PM PM                         PM PM   PM PM
                   |--3--|
  E  S E.   E   E  S  S  S  Q       Q    E   E   E  S  S  S S  S  S
------------------------------------|------------------------------------|
------------------------------------|------------------------------------|
-------7S---5S--8-------------------|-------7S--5S--8--------------------|
-------x----x---x-----------7-------|--0----x---x---x--------------------|
-------5S---3S--6-----------5-------|--0----5S--3S--6--------------------|
--0---------------0--0---0--5------|--0---------------0--0----0--0-------|


                                    *Acoustic
  PM               PM PM PM         ^         ^ v ^ v ^  ^ v ^ v
                   |--3--|
  E  S E.   E   E  S  S  S  Q       E         S S S S E  S S S S
---------------------------------|-------------------------------|
---------------------------------|-------------------------------|
-------7S---5S--8--------- ------|--7---------7-7-7-7-7--7-7-7-7-|
-------x----x---x-----------7----|--7---------7-7-7-7-7--7-7-7-7-|
--- --5S---3S--6-----------5-----|--5---------5---5---5--5---5---|
--0----------------0--0--0--5----|-------------------------------|


  ^  ^ v ^ v ^  ^ v ^ v    ^  ^ v ^ v ^  ^ v ^ v    ^  ^ v ^ v ^  ^ v ^ v
  E  S S S S E  S S S S    E  S S S S E  S S S S    E  S S S S E  S S S S
------------------------|------------------------|------------------------|
------------------------|------------------------|------------------------|
--6--6-6-6-6-6--6-6-6-6-|--7--7-7-7-7-7--7-7-7-7-|--6--6-6-6-6-6--6-6-6-6-|
--7--7-7-7-7-7--7-7-7-7-|--7--7-7-7-7-7--7-7-7-7-|--7--7-7-7-7-7--7-7-7-7-|
--5--5---5 -5--5---5----|--5--5---5---5--5---5---|--5--5---5---5--5---5---|
------------------------|------------------------|------------------------|


  *Distortion
  E           S  S E  E  S  S E     E  S  S E  E  S  S E
---------------------------------|------------------------|
---------------------------------|------------------------|
---------------------------------|------------------------|
--4-----------2h-4-0--4--2h-4-0--|--5--4h-5-4--5--4p-2-1--|
---------------------------------|------------------------|
---------------------------------|------------------------|


  E  S  S E  E  S  S E     E  S  S E  E  S  S E
------------------------|------------------------|
------------------------|------------------------|
------------------------|------------------------|
--4--2h-4-0--4--2h-4-0--|--5--4h-5-4--5--4p-2-1--|
------------------------|------------------------|
------------------------|------------------------|


   *Acoustic
   S         S  S  S  S  S  S  S  S  S  S  S
--10--------10-10-12-12-12-14-14-14-15-15-15-|
---------------------------------------------|
---------------------------------------------|
---------------------------------------------|
---------------------------------------------|
---------------------------------------------|


   S  S  S  S  S  S  S  S  S S S S     S  S  S  S  S  S  S  S  S  S  S  S
--14-14-14-12-12-12-14-14-14-9-9-9-|--10-10-10-12-12-12-14-14-14-15-15-15-|
-----------------------------------|--------------------------------------|
-----------------------------------|--------------------------------------|
-----------------------------------|--------------------------------------|
-----------------------------------|--------------------------------------|
-----------------------------------|--------------------------------------|


                                         *Distortion
   S  S  S  S  S  S  S  S  S  S  S  S    E           S  S E  E  S  S E
--17-17-17-15-15-15-19-19-19-21-21-21-|---------------------------------|
--------------------------------------|---------------------------------|
--------------------------------------|---------------------------------|
--------------------------------------|--4-----------2h-4-0--4--2h-4-0--|
--------------------------------------|---------------------------------|
--------------------------------------|---------------------------------|


  E  S  S E  E  S  S E     E  S  S E  E  S  S E     E  S  S E  E  S  S E
------------------------|------------------------|------------------------|
------------------------|------------------------|------------------------|
------------------------|------------------------|------------------------|
--5--4h-5-4--5--4p-2-1--|--4--2h-4-0--4--2h-4-0--|--5--4h-5-4--5--4p-2-1--|
------------------------|------------------------|------------------------|
------------------------|------------------------|------------------------|


                    PM PM
  E  E  E  E     E  S  S  S S S S S S S S S S E
--------------|-----------------------------------|
--------------|-----------------------------------|
--------------|-----------------------------------|
--0-----0-----|--0----------------7---5---3-------|
--0-----0-----|--0--------8-5-7-8---8---7---5-4~--|
--0-----0-----|--0--0--0--------------------------|


     PM PM                               PM PM
  E  S  S  S S S S S S S S S S E      E  S  S  S S S S S S S S S S E
-----------------------------------|-----------------------------------|
-----------------------------------|-----------------------------------|
-----------------------7-8---------|-----------------------------------|
--0----------------7-8-------8-7~--|--0----------------7---5---3-------|
--0--------8-5-7-8---------9-------|--0--------8-5-7-8---8---7---5-4~--|
--0--0--0--------------------------|--0--0--0--------------------------|


     PM PM                               PM PM
  E  S  S  S S S S S S S S S S E      E  S  S  S S S S S S S S S S E
-----------------------------------|-----------------------------------|
-----------------------------------|-----------------------------------|
-----------------------7-8---------|-----------------------------------|
--0----------------7-8-------8-7~--|--0----------------7---5---3-------|
--0--------8-5-7-8---------9-------|--0--------8-5-7-8---8---7---5-4~--|
--0--0--0--------------------------|--0--0--0--------------------------|


     PM PM                               PM PM
  E  S  S  S S S S S S S S S S E      E  S  S  S S S S S S S S S S E
-----------------------------------|-----------------------------------|
-----------------------------------|-----------------------------------|
-----------------------7-8---------|-----------------------------------|
--0----------------7-8-------8-7~--|--0----------------7---5---3-------|
--0--------8-5-7-8---------9-------|--0--------8-5-7-8---8---7---5-4~--|
--0--0--0--------------------------|--0--0--0--------------------------|


     PM PM                                 PM PM   PM   PM PM   PM PM   PM
  E  S  S  S S S S S S S S S S E      Q    S  S  S S  S S  S  S S  S  S S
-----------------------------------|---------------------------------------|
-----------------------------------|---------------------------------------|
-----------------------7-8---------|---------------------------------------|
--0----------------7-8-------8-7~--|--1----1--1----1----1--1----1--1----1--|
--0--------8-5-7-8---------9-------|--1----1--1----1----1--1----1--1----1--|
--0--0--0--------------------------|--1----1--1----1----1--1----1--1----1--|


                              PM PM   PM   PM PM   PM PM   PM
   Q.     Q.     Q       Q    S  S  S S  S S  S  S S  S  S S
----------------------|---------------------------------------|
----------------------|---------------------------------------|
----------------------|---------------------------------------|
--10------3------L----|--1----1--1----1----1--1----1--1----1--|
---8------3------L----|--1----1--1----1----1--1----1--1----1--|
---8------3------L----|--1----1--1----1----1--1----1--1----1--|


           PM PM PM PM                  PM PM
   E   E   S  S  S  S E  E  E  E     E  S  S  S S S S S S S S S S E
----------------------------------|-----------------------------------|
----------------------------------|-----------------------------------|
----------------------------------|-----------------------------------|
--10--10--10-10-10-10-6--5--------|--0----------------7---5---3-------|
---8---8---8--8--8--8-------6--5--|--0--------8-5-7-8---8---7---5-4~--|
---8---8---8--8--8--8-------------|--0--0--0--------------------------|


     PM PM                               PM PM
  E  S  S  S S S S S S S S S S E      E  S  S  S S S S S S S S S S E
-----------------------------------|---------------------------------------|
-----------------------------------|---------------------------------------|
-----------------------7-8---------|---------------------------------------|
--0----------------7-8-------8-7~--|--0----------------7---5---3-----------|
--0--------8-5-7-8---------9-------|--0--------8-5-7-8---8---7---5-4~------|
--0--0--0------------------------  --|--0--0--0----------------------------|


     PM PM
  E  S  S  S S S S S S S S E  E
---------------------------------|
---------------------------------|
-----------------------7-8-------|
--0----------------7-8--------8--|
--0--------8-5-7-8---------9-----|
--0--0--0------------------------|


  *Acoustic
  ^         ^ v  v ^ v ^  ^  v   v ^ ^ ^  ^  v   v
  E         S E  S S S E  S  E   S S S E  S  E   S
---------------------------------------------------|
---------------------------------------------------|
--9---------7-7--9-9-9-9--9-10--10-9-7-9--7--------|
--9---------9-9--9-9-9-9--9--9---9-9-9-9--9-10--10-|
--7---------7------7---7--7--------7---7--7--7---7-|
---------------------------------------------------|


                             *Distortion
  ^  ^ v  v ^ v ^ v ^  ^  ^
  E  S E  S S S S S E  E  E  E           Q
----------------------------------------------|
----------------------------------------------|
--9--7-7--9-9-9-9-9-9--7--9-------------------|
--9--9-9--9-9-9-9-9-9--9--9--2----------------|
--7--7- ---7---7---7--7--7--2-----------------|
-----------------------------2----------------|


  S S S S S S  S S S  S  S S S S S S  S S E
----------------------------------------------|
----------------------------------------------|
----------------------------------------------|
--7-0-0-9-0-0-10-0-0-12-10-9-7-0-9-0-10-0-6~--|
----------------------------------------------|
----------------------------------------------|


  S S S S S S  S S S  S  S S S S S S  S S S S
----------------------------------------------|
----------------------------------------------|
----------------------------------------------|
--7-0-0-9-0-0-10-0-0-12-10-9-7-0-9-0-10-0-6---|
----------------------------------------------|
----------------------------------------------|


  S S S S S S  S S S  S  S S S S S S  S S E
----------------------------------------------|
----------------------------------------------|
----------------------------------------------|
--7-0-0-9-0-0-10-0-0-12-10-9-7-0-9-0-10-0-6~--|
----------------------------------------------|
----------------------------------------------|


  S S S S S S  S S S  S  S S E  E   E  E     E  E  S S S E  S S E  S S S
------------------------------------------|------------------------------|
------------------------------------------|------------------------------|
------------------------------------------|------------------------------|
--7-0-0-9-0-0-10-0-0-12-10-9-7--9--10--6--|--3--3--3-3-3-3--3-3-3--3-3-3-|
------------------------------------------|--3--3--3-3-3-3--3-3-3--3-3-3-|
------------------------------------------|--3--3--3-3-3-3--3-3-3--3-3-3-|


  E  E  S S S E  S S E  S S S
------------------------------|
------------------------------|
------------------------------|
--2--2--2-2-2-2--2-2-2--2-2-2-|
--2--2--2-2-2-2--2-2-2--2-2-2-|
--2--2--2-2-2-2--2-2-2--2-2-2-|


  PM PM PM PM PM PM  PMPM PM  PM PMPM PM PM PM PM  PMPM
  S  S  S  S  S  S   S S  S   S  S S  S  S  S  S   S S  S S
------------------------------------------------------------|
------------------------------------------------------------|
------------------------------------------------------------|
--7--0--0--9--0--0--10-0--0--12-10-9--7--0--9--0--10-0--6---|
--------------------------------------------------------6---|
--------------------------------------------------------6---|


  E  E  S S S E  S S E  S S S    E  E  S S S E  S S E  S S S
------------------------------|------------------------------|
------------------------------|------------------------------|
------------------------------|------------------------------|
--3--3--3-3-3-3--3-3-3--3-3-3-|--2--2--2-2-2-2--2-2-2--2-2-2-|
--3--3--3-3-3-3--3-3-3--3-3-3-|--2--2--2-2-2-2--2-2-2--2-2-2-|
--3--3--3-3-3-3--3-3-3--3-3-3-|--2--2--2-2-2-2--2-2-2--2-2-2-|


  PM PM PM PM PM PM  PMPM PM  PM PMPM PM PM PM PM  PMPM
  S  S  S  S  S  S   S S  S   S  S S  S  S  S  S   S S
--------------------------------------------------------|
--------------------------------------------------------|
--------------------------------------------------------|
--7--0--0--9--0--0--10-0--0--12-10-9--7--0--9--0--10-0--|
--------------------------------------------------------|
--------------------------------------------------------|


           PM PM PM
           |--3--|
  E  E  E  S  S  S  E  Q        E   E   E  E   E   E
----------------------------|-------------------------|
----------------------------|-------------------------|
----------------------------|--------------9----------|
--6--6-----6--6--6--6-------|------10--13-----13--11--|
--6--6-----6--6--6--6-------|--11---------------------|
--6--6-----6--6--6--6-------|-------------------------|


   E   E   E  E   E   E      S  S S  S  S S  S  S S
-------------------------|--------------------------|
-------------------------|--------------------------|
--------------9----------|--------------------------|
------10--13-----13--11--|-----10-9----10-9----10-9-|
--11---------------------|--11------11------11------|
-------------------------|--------------------------|


   E   E   E  E   E   E   E   E      S  S S  S  S S     E   E   E  E   E
---------------------------------|------------------|---------------------|
---------------------------------|------------------|---------------------|
--------------9------------------|------------------|--------------9------|
------10--13-----13--11------10--|-----10-9----10-9-|------10--13-----13--|
--11---------------------11------|--11------11------|--11-----------------|
---------------------------------|------------------|---------------------|


   S  S S  S S S S S S S S S     E   E   E  E   E   E
-----------------------------|-------------------------|
-----------------------------|-------------------------|
-----------------------------|--------------9----------|
-----10-9----9-8---8-7---7-6-|------10--13-----13--11--|
--11------10-----9-----8-----|--11---------------------|
-----------------------------|-------------------------|


   S  S S  S  S S  S  S S  S  S S     S  S S  S  S S  S  S S  S  S S  Q
----------------------------------|----------------------------------------|
----------------------------------|----------------------------------------|
----------------------------------|----------------------------------------|
-----10-9----10-9----10-9----10-9-|-----10-9----10-9----10-9----10-9-10----|
--11------11------11------11------|--11------11------11------11-------7----|
----------------------------------|-----------------------------------7----|


   S  S  S  S  S  S  S  S  S  S  S  S  S E  S
----------------------------------------------|
----------------------------------------------|
----------------------------------------------|
--10-10-10-10-10-10-10-10-10-10-10-10-10------|
---8--8--8--8--8--8--8--8--8--8--8--8--8------|
---8--8--8--8--8--8--8--8--8--8--8--8--8------|


   S  S  S  S  S  S  S  S  S  S  S  S S E  S
---------------------------------------------|
---------------------------------------------|
---------------------------------------------|
--10-10-10-10-10-10-10-10-10-10-10-10-7------|
---7--7--7--7--7--7--7--7--7--7--7--7-7------|
---7--7--7--7--7--7--7--7--7--7--7--7-7------|


  S S S S S S S S S S S S S S S S    S S S S S S S S S S S S S S S S
----------------------------------|----------------------------------|
----------------------------------|----------------------------------|
----------------------------------|----------------------------------|
--0-0-0-0-0-0-0-0-0-0-0-0-0-0-0-0-|--5-5-5-5-5-5-5-5-5-5-5-5-5-5-5-5-|
--0-0-0-0-0-0-0-0-0-0-0-0-0-0-0-0-|--5-5-5-5-5-5-5-5-5-5-5-5-5-5-5-5-|
--0-0-0-0-0-0-0-0-0-0-0-0-0-0-0-0-|--5-5-5-5-5-5-5-5-5-5-5-5-5-5-5-5-|


                                                      PM PM PM PM PM PM
                                                      |--3--|  |--3--|
  E.  E.  E  Q     Q        S  E   E  E  S  S  E   S  S  S  S  S  S  S
------------------------|----------------------------------------------|
------------------------|----------------------------------------------|
------------------------|----------------------------------------------|
------------------------|--10-10--10-------10-10--10-10-10-10-10-10-10-|
--8---7---5--5\---------|---8--8---8--------8--8---8--8--8--8--8--8--8-|
------------------------|---8--8---8--------8--8---8--8--8--8--8--8--8-|


  S E  E  E  S S  S S  S S  S S S    S E  S Q    S E  S S E.
---------------8------------------|---------------------------|
-----------------10-8---------8---|---------------------------|
----------------------10-9-10-----|---------------------------|
--3-3--3--------------------------|--8-8--8-8----8-8--8-8-8---|
--3-3--3--------------------------|--8-8--8-8----8-8--8-8-8---|
--3-3--3--------------------------|--8-8--8-8----8-8--8-8-8---|


  S E  S Q    S E  S S E  S    S E  S Q    S E  S S E.
----------------------------|---------------------------|
----------------------------|---------------------------|
----------------------------|---------------------------|
--3-3--3-3----0-0--0-7-7--7-|--8-8--8-8----8-8--8-8-8---|
--3-3--3-3----0-0--0-7-7--7-|--8-8--8-8----8-8--8-8-8---|
--3-3--3-3----0-0--0-7-7--7-|--8-8--8-8----8-8--8-8-8---|


  S E  S Q    S E  S S E  S    S S S S S S S S S S S S S S S S
----------------------------|----------------------------------|
----------------------------|----------------------------------|
----------------------------|----------------------------------|
--3-3--3-3----0-0--0-7-7--7-|--8-8-8-8-8-8-8-8-8-8-8-8-8-8-8-8-|
--3-3--3-3----0-0--0-7-7--7-|--8-8-8-8-8-8-8-8-8-8-8-8-8-8-8-8-|
--3-3--3-3----0-0--0-7-7--7-|--8-8-8-8-8-8-8-8-8-8-8-8-8-8-8-8-|


  S S S S S S S S S S S S S S S S    S S S S S S S S S S S S S S S S
----------------------------------|----------------------------------|
----------------------------------|----------------------------------|
----------------------------------|----------------------------------|
--3-3-3-3-3-3-3-3-0-0-0-0-7-7-7-7-|--8-8-8-8-8-8-8-8-8-8-8-8-8-8-8-8-|
--3-3-3-3-3-3-3-3-0-0-0-0-7-7-7-7-|--8-8-8-8-8-8-8-8-8-8-8-8-8-8-8-8-|
--3-3-3-3-3-3-3-3-0-0-0-0-7-7-7-7-|--8-8-8-8-8-8-8-8-8-8-8-8-8-8-8-8-|


  S S S S S S S S S S S S S S S S    Q     S S Q.      S E  S
----------------------------------|---------------------------|
----------------------------------|---------------------------|
----------------------------------|---------------------------|
--3-3-3-3-3-3-3-3-0-0-0-0-7-7-7-7-|--8\----x---8\------x------|
--3-3-3-3-3-3-3-3-0-0-0-0-7-7-7-7-|--8\----x---8\------x------|
--3-3-3-3-3-3-3-3-0-0-0-0-7-7-7-7-|--8\----x---8\------x------|


            PM    PM PM    PM
            |--3--|  |--3--|
  Q    Q    E  E  E  E  E  E     Q     S S Q.      S E  S
------------------------------|---------------------------|
------------------------------|---------------------------|
------------------------------|---------------------------|
--3----3----------------------|--8\----x---8\------x------|
--3----3-------8--------8-----|--8\----x---8\------x------|
--3----3----0-----0--0-----0--|--8\----x---8\------x------|


            |--3--|  |--3--|
  Q    Q    E  E  E  E  E  E     W
------------------------------|-------------------|
------------------------------|-------------------|
------------------------------|-------------------|
--3----3----2--2--2--1--1--1--|--0----------------|
--3----3----2--2--2--1--1--1--|--0----------------|
--3----3----2--2--2--1--1--1--|--0----------------|


                  PM PM   PM PM      PM               PM PM PM
                                                      |--3--|
  Q    E   E   E  S  S  S S  S  S    E  S E.   E   E  S  S  S  Q
----------------------------------|---------------------------------|
----------------------------------|---------------------------------|
-------7S--5S--8------------------|-------7S---5S--8----------------|
--0----x---x---x------------------|-------x----x---x-----------7----|
--0----5S--3S--6------------------|-------5S---3S--6-----------5----|
--0---------------0--0----0--0----|--0----------------0--0--0--5----|


                  PM PM   PM PM      PM               PM PM PM
                                                      |--3--|
  Q    E   E   E  S  S  S S  S  S    E  S E.   E   E  S  S  S  Q
----------------------------------|---------------------------------|
----------------------------------|---------------------------------|
-------7S--5S--8------------------|-------7S---5S--8----------------|
--0----x---x---x------------------|-------x----x---x-----------7----|
--0----5S--3S--6------------------|-------5S---3S--6-----------5----|
--0---------------0--0----0--0----|--0----------------0--0--0--5----|


                  PM PM   PM PM      PM               PM PM PM
                                                      |--3--|
  Q    E   E   E  S  S  S S  S  S    E  S E.   E   E  S  S  S  Q
----------------------------------|---------------------------------|
----------------------------------|---------------------------------|
-------7S--5S--8------------------|-------7S---5S--8----------------|
--0----x---x---x------------------|-------x----x---x-----------7----|
--0----5S--3S--6------------------|-------5S---3S--6-----------5----|
--0---------------0--0----0--0----|--0----------------0--0--0--5----|


                  PM PM   PM PM      PM
  Q    E   E   E  S  S  S S  S  S    E  E  E   E  H           W
------------------------------|------------------------|----------------|
------------------------------|------------------------|----------------|
-------7S--5S--8--------------|--------7S--5-----------|----------------|
--0----x---x---x--------------|--------x---x--5--------|--L-------------|
--0----5S--3S--6--------------|--------5S--3--5--------|--L-------------|
--0-------------0--0----0--0--|--0------------5--------|--L-------------|


  W                   W                   W
-------------------|-------------------|-------------------||
-------------------|-------------------|-------------------||
-------------------|-------------------|-------------------||
--L----------------|--L----------------|--L----------------||
--L----------------|--L----------------|--L----------------||
--L----------------|--L----------------|--L----------------||

___________________________________________________________________________
Part Two__________________________________________________________________
              PM PM PM PM PM PM PM
      E  Q    E  S  S  S  S  S  S   E      E  Q    E  E  E  E  E
D#||-----------------------------------|--------------------------|
A#||-----------------------------------|--------------------------|
F#||-----------------------------------|--------------------------|
C#||--0-------0--0--0--7--7--8--8--10--|--12----------0-----0-----|
G#||--0-------0--0--0--7--7--8--8--10--|--12----------0-----0-----|
C#||--0-------0--0--0--0--0--0--0--10--|--12----------0-----0-----|


          PM PM PM PM PM PM PM
  E  Q    E  S  S  S  S  S  S   E      E  Q    E  E  E  E  E
-----------------------------------|--------------------------|
-----------------------------------|--------------------------|
-----------------------------------|--------------------------|
--0-------0--0--0--7--7--8--8--10--|--12----------0-----0-----|
--0-------0--0--0--7--7--8--8--10--|--12----------0-----0-----|
--0-------0--0--0--0--0--0--0--10--|--12----------0-----0-----|


          PM PM PM PM PM PM PM
  E  Q    E  S  S  S  S  S  S  E     Q      E  E
----------------------------------|---------------|
----------------------------------|---------------|
----------------------------------|---------------|
--0-------0--0--0--7--7--8--8--0--|---------0-----|
--0-------0--0--0--7--7--8--8--0--|---------0-----|
--0-------0--0--0--0--0--0--0--0--|--7br----0-----|


          PM PM PM PM PM PM PM
  E  Q    E  S  S  S  S  S  S   E      E  E  Q
-----------------------------------|--------------|
-----------------------------------|--------------|
-----------------------------------|--------------|
--0-------0--0--0--7--7--8--8--10--|--12----------|
--0-------0--0--0--7--7--8--8--10--|--12----------|
--0-------0--0--0--0--0--0--0--10--|--12----------|


          PM PM PM PM PM PM PM
  E  Q    E  S  S  S  S  S  S  E     Q      E  E
----------------------------------|---------------|
----------------------------------|---------------|
----------------------------------|---------------|
--0-------0--0--0--7--7--8--8--0--|---------0-----|
--0-------0--0--0--7--7--8--8--0--|---------0-----|
--0-------0--0--0--0--0--0--0--0--|--7br----0-----|


          PM PM PM PM PM PM PM
  E  Q    E  S  S  S  S  S  S   E   E  E     W                   H        Q
---------------------------------------|-------------------|----------------|
---------------------------------------|-------------------|----------------|
---------------------------------------|-------------------|----------------|
--0----0--0--0--7--7--8--8--10--12-----|-------------------|----------------|
--0----0--0--0--7--7--8--8--10--12-----|-------------------|----------------|
--0----0--0--0--0--0--0--0--10--12-----|-------------------|----------------|


                     PM PM   PM PM      PM                  PM PM PM
                                                            |--3--|
  Q     E    E    E  S  S  S S  S  S    E  S  E.    E    E  S  S  S  Q
-------------------------------------|------------------------------------|
-------------------------------------|-------------------------------0----|
-------14S--12S--15------------------|-------14S---12S--15-----------0----|
--0-----x----x----x------------------|--------x-----x----x-----------0----|
--0----12S--10S--13------------------|-------12S---10S--13----------------|
--0------------------0--0----0--0----|--0-------------------0--0--0-------|


                     PM PM   PM PM      PM                  PM PM PM
                                                            |--3--|
  Q     E    E    E  S  S  S S  S  S    E  S  E.    E    E  S  S  S  Q
-------------------------------------|------------------------------------|
-------------------------------------|-------------------------------0----|
-------14S--12S--15------------------|-------14S---12S--15-----------0----|
--0-----x----x----x------------------|--------x-----x----x-----------0----|
--0----12S--10S--13------------------|-------12S---10S--13----------------|
--0------------------0--0----0--0----|--0-------------------0--0--0-------|


  H        Q       H        Q       H        Q       H        Q
----------------|----------------|----------------|----------------|
----------------|----------------|----------------|----------------|
----------------|----------------|----------------|----------------|
----------------|----------------|----------------|----------------|
----------------|----------------|----------------|----------------|
----------------|----------------|----------------|----------------|


  PM PM PM PM PM PM PM   PM   PM         PM PM PM   PM PM PM   PM PM
  S  S  S  S  S  S  S  S S  S S  S    E  S  S  S  S S  S  S  S S  S
-----------------------------------|---------------------------------|
-----------------------------------|---------------------------------|
-----------------------------------|---------------------------------|
--0--0--0--0--0--0--0----0----0----|-----0--0--0----0--0--0----0--0--|
--0--0--0--0--0--0--0----0----0----|-----0--0--0----0--0--0----0--0--|
--0--0--0--0--0--0--0----0----0----|-----0--0--0----0--0--0----0--0--|


  PM PM PM PM PM PM PM   PM   PM         PM PM PM   PM PM PM   PM PM
  S  S  S  S  S  S  S  S S  S S  S    E  S  S  S  S S  S  S  S S  S
-----------------------------------|---------------------------------|
-----------------------------------|---------------------------------|
-----------------------------------|---------------------------------|
--0--0--0--0--0--0--0----0----0----|-----0--0--0----0--0--0----0--0--|
--0--0--0--0--0--0--0----0----0----|-----0--0--0----0--0--0----0--0--|
--0--0--0--0--0--0--0----0----0----|-----0--0--0----0--0--0----0--0--|


  *Acoustic
  ^         ^ v ^ v ^  ^ v ^ v    ^  ^ v ^ v ^  ^ v ^ v
  E         S S S S E  S S S S    E  S S S S E  S S S S
-------------------------------|------------------------|
-------------------------------|------------------------|
--7---------7-7-7-7-7--7-7-7-7-|--6--6-6-6-6-6--6-6-6-6-|
--7---------7-7-7-7-7--7-7-7-7-|--7--7-7-7-7-7--7-7-7-7-|
--5---------5---5---5--5---5---|--5--5---5---5--5---5---|
-------------------------------|------------------------|


  ^  ^ v ^ v ^  ^ v ^ v    ^  ^ v ^ v ^  ^ v ^ v
  E  S S S S E  S S S S    E  S S S S E  S S S S
------------------------|------------------------|
------------------------|------------------------|
--7--7-7-7-7-7--7-7-7-7-|--6--6-6-6-6-6--6-6-6-6-|
--7--7-7-7-7-7--7-7-7-7-|--7--7-7-7-7-7--7-7-7-7-|
--5--5---5---5--5---5---|--5--5---5---5--5---5-L-|
------------------------|------------------------|


  PM PM PM PM PM PM PM   PM   PM         PM PM PM   PM PM PM   PM PM
  S  S  S  S  S  S  S  S S  S S  S    E  S  S  S  S S  S  S  S S  S
-----------------------------------|---------------------------------|
-----------------------------------|---------------------------------|
-----------------------------------|---------------------------------|
--0--0--0--0--0--0--0----0----0----|-----0--0--0----0--0--0----0--0--|
--0--0--0--0--0--0--0----0----0----|-----0--0--0----0--0--0----0--0--|
--0--0--0--0--0--0--0----0----0----|-----0--0--0----0--0--0----0--0--|


  PM PM PM PM PM PM PM   PM   PM         PM PM PM   PM PM PM   PM PM
  S  S  S  S  S  S  S  S S  S S  S    E  S  S  S  S S  S  S  S S  S
-----------------------------------|---------------------------------|
-----------------------------------|---------------------------------|
-----------------------------------|---------------------------------|
--0--0--0--0--0--0--0----0----0----|-----0--0--0----0--0--0----0--0--|
--0--0--0--0--0--0--0----0----0----|-----0--0--0----0--0--0----0--0--|
--0--0--0--0--0--0--0----0----0----|-----0--0--0----0--0--0----0--0--|


                    PM PM
  E  E  E  E     E  S  S  S S S S S S S S S S E
--------------|-----------------------------------|
--------------|-----------------------------------|
--------------|-----------------------------------|
-----0-----0--|--0----------------7---5---3-------|
-----0-----0--|--0--------8-5-7-8---8---7---5-4~--|
-----0-----0--|--0--0--0--------------------------|


     PM PM                               PM PM
  E  S  S  S S S S S S S S S S E      E  S  S  S S S S S S S S S S E
-----------------------------------|-----------------------------------|
-----------------------------------|-----------------------------------|
-----------------------7-8---------|-----------------------------------|
--0----------------7-8-------8-7~--|--0----------------7---5---3-------|
--0--------8-5-7-8---------9-------|--0--------8-5-7-8---8---7---5-4~--|
--0--0--0--------------------------|--0--0--0--------------------------|


     PM PM                               PM PM
  E  S  S  S S S S S S S S S S E      E  S  S   S S  S  S  S  S S  S S S E
----------------------------------|-----------------------------------------|
----------------------------------|-----------------------------------------|
-----------------------7-8--------|-----------------------------------------|
--0----------------7-8------8-7~--|--0-------------------10----8----7-------|
--0--------8-5-7-8--------9-------|--0--------12-8-10-12----12---10---8-7~--|
--0--0--0-------------------------|--0--0--0--------------------------------|


     PM PM
  E  S  S   S S  S  S  S  S  S  S  S  S  E
---------------------------------------------|
---------------------------------------------|
----------------------------10-11------------|
--0-------------------10-11----------11-10~--|
--0--------12-8-10-12-------------13---------|
--0--0--0------------------------------------|


     PM PM
  E  S  S   S S  S  S  S  S S  S S S E
-----------------------------------------|
-----------------------------------------|
-----------------------------------------|
--0-------------------10----8----7-------|
--0--------12-8-10-12----12---10---8-7~--|
--0--0--0--------------------------------|


     PM PM
  E  S  S   S S  S  S  S  S  S  S  S  S  E
---------------------------------------------|
---------------------------------------------|
----------------------------10-11------------|
--0-------------------10-11----------11-10~--|
--0--------12-8-10-12-------------13---------|
--0--0--0------------------------------------|


       PM PM   PM   PM PM   PM PM   PM
  Q    S  S  S S  S S  S  S S  S  S S      Q.     Q.     Q
---------------------------------------|----------------------|
---------------------------------------|----------------------|
---------------------------------------|----------------------|
--1----1--1----1----1--1----1--1----1--|--10------3------L----|
--1----1--1----1----1--1----1--1----1--|---8------3------L----|
--1----1--1----1----1--1----1--1----1--|---8------3------L----|


       PM PM   PM   PM PM   PM PM   PM             PM PM PM PM
  Q    S  S  S S  S S  S  S S  S  S S      E   E   S  S  S  S  E  E   E  E
---------------------------------------|------------------------------------|
---------------------------------------|------------------------------------|
---------------------------------------|------------------------------------|
--1----1--1----1----1--1----1--1----1--|--10--10--10-10-10-10-10--9---------|
--1----1--1----1----1--1----1--1----1--|---8---8---8--8--8--8--------10--9--|
--1----1--1----1----1--1----1--1----1--|---8---8---8--8--8--8---------------|


     PM PM
  E  S  S  S S S S S S S S S S E      E  Q    E  Q    E  E
-----------------------------------|------------------------|
-----------------------------------|------------------------|
-----------------------------------|------------------------|
--0----------------7---5---3-------|--0-------0-------0-----|
--0--------8-5-7-8---8---7---5-4~--|--0-------0-------0-----|
--0--0--0--------------------------|--0-------0-------0-----|


     PM PM
  E  S  S  S S  S  S  S  S S  S S S E
----------------------------------------|
----------------------------------------|
----------------------------------------|
--0--------7---------10----8----7-------|
--0----------8-10-12----12---10---8-7~--|
--0--0--0-------------------------------|


     PM PM
  E  S  S   S S  S  S  S  S  S  S  E   E      E  W                Q
------------------------------------------|----------------------------|
------------------------------------------|----------------------------|
----------------------------10-11---------|----------------------------|
--0-------------------10-11-----------11--|--10------------------------|
--0--------12-8-10-12-------------13------|----------------------------|
--0--0--0---------------------------------|----------------------------|


  W                E  Q       S S S S S S  S S S  S  S S S S S S  S S E
---------------------------|----------------------------------------------|
---------------------------|----------------------------------------------|
---------------------------|----------------------------------------------|
-------------------2-------|--7-0-0-9-0-0-10-0-0-12-10-9-7-0-9-0-10-0-6~--|
-------------------2-------|----------------------------------------------|
-------------------2-------|----------------------------------------------|


  S S S S S S  S S S  S  S S S S S S  S S S S
----------------------------------------------|
----------------------------------------------|
----------------------------------------------|
--7-0-0-9-0-0-10-0-0-12-10-9-7-0-9-0-10-0-6---|
----------------------------------------------|
----------------------------------------------|


   S S S  S S S  S S S  S  S  S  S S  S S  S S E
---------------------------------------------------|
---------------------------------------------------|
---------------------------------------------------|
--10-0-0-12-0-0-14-0-0-15-14-12-10-0-12-0-14-0-9~--|
---------------------------------------------------|
---------------------------------------------------|


   S S S  S S S  S S S  S  S  S  E   E   E  E
-----------------------------------------------|
-----------------------------------------------|
-----------------------------------------------|
--10-0-0-12-0-0-14-0-0-15-14-12-10--12--14--9--|
-----------------------------------------------|
-----------------------------------------------|


  E  E  S S S  E   S  S  E   S  S  S    E  E  S S S  E   S  S  E   S  S  S
-------------------------------------|-------------------------------------|
-------------------------------------|-------------------------------------|
--------------14--14-14-16--16-16-16-|--------------14--14-14-13--13-13-13-|
--3--3--3-3-3--x---x--x--x---x--x--x-|--2--2--2-2-2--x---x--x--x---x--x--x-|
--3--3--3-3-3-12--12-12-14--14-14-14-|--2--2--2-2-2-12--12-12-11--11-11-11-|
--3--3--3-3-3------------------------|--2--2--2-2-2------------------------|


  PM PM PM PM PM PM  PMPM PM  PM PMPM PM PM PM PM  PMPM
  S  S  S  S  S  S   S S  S   S  S S  S  S  S  S   S S  S S
------------------------------------------------------------|
------------------------------------------------------------|
------------------------------------------------------------|
--7--0--0--9--0--0--10-0--0--12-10-9--7--0--9--0--10-0--6---|
--------------------------------------------------------6---|
--------------------------------------------------------6---|


  E  E  S S S  E   S  S  E   S  S  S    E  E  S S S  E   S  S  E   S  S  S
-------------------------------------|-------------------------------------|
-------------------------------------|-------------------------------------|
--------------14--14-14-16--16-16-16-|--------------17--17-17-16--16-16-16-|
--3--3--3-3-3--x---x--x--x---x--x--x-|--2--2--2-2-2--x---x--x--x---x--x--x-|
--3--3--3-3-3-12--12-12-14--14-14-14-|--2--2--2-2-2-15--15-15-14--14-14-14-|
--3--3--3-3-3------------------------|--2--2--2-2-2------------------------|


   PMPM PM  PMPM PM  PMPM PM  PM PM PM PMPM  PMPM  PMPM
   S S  S   S S  S   S S  S   S  S  S  S S   S S   S S
--------------------------------------------------------|
--------------------------------------------------------|
--------------------------------------------------------|
--10-0--0--12-0--0--14-0--0--15-14-12-10-0--12-0--14-0--|
--------------------------------------------------------|
--------------------------------------------------------|


           PM PM PM
           |--3--|
  E  E  E  S  S  S  E  Q       E  H        E     E  H        E
----------------------------|-----------------|-----------------|
----------------------------|-----------------|-----------------|
----------------------------|-----------------|-----------------|
--6--6-----6--6--6--6-------|--6--------------|--6--------------|
--6--6-----6--6--6--6-------|--6--------------|--6--------------|
--6--6-----6--6--6--6-------|--6--------------|--6--------------|


  S S S S S S S S S    E  H        E  E  E     S S S S S S    E  H
--------------------|-----------------------|--------------|--------------|
--------------------|-----------------------|--------------|--------------|
----8-7---8-7---8-7-|-----------------------|----8-7---8-7-|--------------|
--9-----9-----9-----|--6--------------6-----|--9-----9-----|--6-----------|
--------------------|--6--------------6-----|--------------|--6-----------|
--------------------|--6--------------6-----|--------------|--6-----------|


  S S S S S S S S S S S S    E  H        E     E  H        E
--------------------------|-----------------|-----------------|
--------------------------|-----------------|-----------------|
----8-7---7-6---6-5---5-4-|-----------------|-----------------|
--9-----8-----7-----6-----|--6--------------|--6--------------|
--------------------------|--6--------------|--6--------------|
--------------------------|--6--------------|--6--------------|


  S S S S S S S S S S S S  Q        S  S  S  S  S  S  S  S  S  S  S  S  S E  S
-----------------------------|----------------------------------------------|
-----------------------------|----------------------------------------------|
----8-7---8-7---8-7---8-7----|----------------------------------------------|
--9-----9-----9-----9--10----|--10-10-10-10-10-10-10-10-10-10-10-10-10------|
------------------------7----|---8--8--8--8--8--8--8--8--8--8--8--8--8------|
------------------------7----|---8--8--8--8--8--8--8--8--8--8--8--8--8------|


   S  S  S  S  S  S  S  S  S  S  S  S S E  S
---------------------------------------------|
---------------------------------------------|
---------------------------------------------|
--10-10-10-10-10-10-10-10-10-10-10-10-7------|
---7--7--7--7--7--7--7--7--7--7--7--7-7------|
---7--7--7--7--7--7--7--7--7--7--7--7-7------|


  S S S S S S S S S S S S S S S S    S S S S S S S S S S S S S S S S
----------------------------------|----------------------------------|
----------------------------------|----------------------------------|
----------------------------------|----------------------------------|
--0-0-0-0-0-0-0-0-0-0-0-0-0-0-0-0-|--5-5-5-5-5-5-5-5-5-5-5-5-5-5-5-5-|
--0-0-0-0-0-0-0-0-0-0-0-0-0-0-0-0-|--5-5-5-5-5-5-5-5-5-5-5-5-5-5-5-5-|
--0-0-0-0-0-0-0-0-0-0-0-0-0-0-0-0-|--5-5-5-5-5-5-5-5-5-5-5-5-5-5-5-5-|


  E.  E.  E  Q     Q       W                   H         S  S S  S  S  S S S
------------------------|-------------------|--------------------------------|
------------------------|-------------------|-----------10-------------------|
------------------------|-------------------|--------------10-9----------9---|
--7---5---3--3\---------|-------------------|-------------------12-10-12-----|
------------------------|-------------------|--------------------------------|
------------------------|-------------------|--------------------------------|


  S E  S  S  S  S  S S E  S  S  S  S  S
----------------------------------------|
----------------------------------------|
---------15-15-15-15--------15-15-15-15-|
--8-8--8--x--x--x--x-8-8--8--x--x--x--x-|
--8-8--8-13-13-13-13-8-8--8-13-13-13-13-|
--8-8--8-------------8-8--8-------------|


  S E  S  S  S  S  S  S  S  S  S  S  S  S  S
---------------------------------------------|
---------------------------------------------|
---------14-14-14-14-10-10-10-10-12-12-12-12-|
--3-3--3--x--x--x--x--x--x--x--x--x--x--x--x-|
--3-3--3-12-12-12-12--8--8--8--8-10-10-10-10-|
--3-3--3-------------------------------------|


  S E  S  S  S  S  S S E  S  S  S  S  S
----------------------------------------|
----------------------------------------|
---------15-15-15-15--------15-15-15-15-|
--8-8--8--x--x--x--x-8-8--8--x--x--x--x-|
--8-8--8-13-13-13-13-8-8--8-13-13-13-13-|
--8-8--8-------------8-8--8-------------|


  S E  S  S  S  S  S  S  S  S  S  S  S  S  S
---------------------------------------------|
---------------------------------------------|
---------14-14-14-14-10-10-10-10-12-12-12-12-|
--3-3--3--x--x--x--x--x--x--x--x--x--x--x--x-|
--3-3--3-12-12-12-12--8--8--8--8-10-10-10-10-|
--3-3--3-------------------------------------|


                     |---3---|
  S  S S  S S  S E   E   E   E   S  S  S  S
--8-----------------------------------------|
----10-8------------------------11-11-11-11-|
---------10-9-10-L--10--10--10--------------|
--------------------------------------------|
--------------------------------------------|
--------------------------------------------|


   S S  S S  S  S E  E   E  E   E
---------------------8-------------|
--10-8------------------10--8--10--|
-------10-9-10-12-L----------------|
-----------------------------------|
-----------------------------------|
-----------------------------------|


                     |---3---|
  S  S S  S S  S E   E   E   E   S  S  S  S
--8-----------------------------------------|
----10-8------------------------11-11-11-11-|
---------10-9-10-L--10--10--10--------------|
--------------------------------------------|
--------------------------------------------|
--------------------------------------------|


   S S  S S  S  S E  E   E  E   E
---------------------8-------------|
--10-8------------------10--8--10--|
-------10-9-10-12-L----------------|
-----------------------------------|
-----------------------------------|
-----------------------------------|


                     |---3---|
  S  S S  S S  S E   E   E   E   S  S  S  S
--8-----------------------------------------|
----10-8------------------------11-11-11-11-|
---------10-9-10-L--10--10--10--------------|
--------------------------------------------|
--------------------------------------------|
--------------------------------------------|


                     PM PM PM  PM  PM  PM
                     |--3--|   |---3---|
   S S  S S  S  S E  E  E  E   E   E   E
------------------------------------------|
--10-8------------------------------------|
-------10-9-10-12-L--9--9--9--10--10--10--|
------------------------------------------|
------------------------------------------|
------------------------------------------|


                     |---3---|
  S  S S  S S  S E   E   E   E   S  S  S  S
--8-----------------------------------------|
----10-8------------------------11-11-11-11-|
---------10-9-10-L--10--10--10--------------|
--------------------------------------------|
--------------------------------------------|
--------------------------------------------|


                     PM PM PM PM PM PM
                     |--3--|  |--3--|
   S S  S S  S  S E  E  E  E  E  E  E     W
---------------------------------------|--------------------|
--10-8---------------------------------|--------------------|
-------10-9-10-12-L--9--9--9--8--8--8--|--7~----------------|
---------------------------------------|--------------------|
---------------------------------------|--------------------|
---------------------------------------|--------------------|


   |---3---|   |---3---|   |---3---|   |---3---|
   E   E   E   E   E   E   E   E   E   E   E   E
--------------------------------------13--17--18--|
------------------------------14--15--------------|
--------------------------14----------------------|
--------------12--14--15--------------------------|
----------12--------------------------------------|
--12--15------------------------------------------|


   |---3---|   |---3---|   |---3---|   |---3---|
   E   E   E   E   E   E   E   E   E   E   E   E
--17--13------------------------------------------|
----------15--14----------------------------------|
------------------14------------------------------|
----------------------15--14--12------------------|
----------------------------------12--------------|
--------------------------------------15--12--15--|


   |---3---|   |---3---|   |---3---|   |---3---|
   E   E   E   E   E   E   E   E   E   E   E   E
--------------------------------------13--17--18--|
------------------------------14--15--------------|
--------------------------14----------------------|
--------------12--14--15--------------------------|
----------12--------------------------------------|
--12--15------------------------------------------|


   |---3---|   |---3---|   |---3---|   |---3---|
   E   E   E   E   E   E   E   E   E   E   E   E
--17--13------------------------------------------|
----------15--14----------------------------------|
------------------14------------------------------|
----------------------15--14--12------------------|
----------------------------------12--------------|
--------------------------------------15--12--15--|


   |---3---|   |---3---|   |---3---|   |---3---|
   E   E   E   E   E   E   E   E   E   E   E   E
--------------------------------------13--17--18--|
------------------------------14--15--------------|
--------------------------14----------------------|
--------------12--14--15--------------------------|
----------12--------------------------------------|
--12--15------------------------------------------|


   |---3---|   |---3---|   |---3---|   |---3---|
   E   E   E   E   E   E   E   E   E   E   E   E
--17--13------------------------------------------|
----------15--14----------------------------------|
------------------14------------------------------|
----------------------15--14--12------------------|
----------------------------------12--------------|
--------------------------------------15--12--15--|


   |---3---|   |---3---|   |---3---|   |---3---|
   E   E   E   E   E   E   E   E   E   E   E   E
--------------------------------------13--17--18--|
------------------------------14--15--------------|
--------------------------14----------------------|
--------------12--14--15--------------------------|
----------12--------------------------------------|
--12--15------------------------------------------|


   |---3---|
   E   E   E   E   E   H           W                   W
--17--13------------------------|-------------------|-------------------|
----------15----------11--------|--L----------------|--L----------------|
--------------14--12------------|-------------------|-------------------|
--------------------------------|-------------------|-------------------|
--------------------------------|-------------------|-------------------|
--------------------------------|-------------------|-------------------|


  W                   W
-------------------|-------------------||
--L----------------|--L----------------||
-------------------|-------------------||
-------------------|-------------------||
-------------------|-------------------||
-------------------|-------------------||

Duration Legend
---------------
W - whole
H - half
Q - quarter
E - 8th
S - 16th
T - 32nd
X - 64th
. - note dotted
|-n-|  - n-tuplets


Tablature Legend
----------------
L - tied note
x - dead note
g - grace note
(n) - ghost note
> - accentuded note
NH - natural harmonic
AH - artificial harmonic
TH - tapped harmonic
SH - semi harmonic
PH - pitch harmonic
h - hammer on
p - pull off
b - bend
br - bendRelease
pb - preBend
pbr - preBendRelease
brb - bendReleaseBend
\n/ - tremolo bar dip
\n - tremolo bar dive
-/n - tremolo bar Release up
/n\ - tremolo bar inverted dip
/n - tremolo bar return
-\n - tremolo bar Release down
S - shift slide
s - legato slide
/ -  slide into from below or out of upwards
\ -  slide into from above or out of downwards
~ - vibrato
W - wide vibrato
tr - trill
TP - tremolo picking
T - tapping
S - slap
P - pop
< - fade in
^ - brush up
v - brush down
comments
print report bad tab
24 comments total. Showing first comments.
0 reply
POOP7205 wrote on September 24 2006, 05:14 pm

Perfect tab!! Even though Im pretty sure that you ripped off the Guitar Pro tab.No big deal though.

0 reply
xtaste0fcha0sx wrote on October 8 2006, 03:16 pm

thanks..i submitted this...i just wasnt registered when i submitted it..so i dont get credit for it :[...vote for it anyway though!!!

0 reply
claudman wrote on November 21 2006, 01:42 pm

great tab, its almost perfect

I want to post or [tab]
guest
You may want to rate the tab now too:
select rating
Please do not post tabs as comments. Select "correction" instead!