Oops, an error
Loading. Please wait.

Led Astray Bass Tab

ver1
ver1

Whole song

Interactive

More versions @911Tabs.com
906 views 1 this week
no commentswrite comment
1 2 3 4 5
excellent!
x 1
Autoscroll
+/-
esc
set tempo
stop
Contributor
Difficulty
novice
Hey! There's an official Ultimate Guitar app which is ideal
for learning songs when you're away from computer. Get the app
WARNING: You are trying to view
                                    content from Ultimate-Guitar.com
                                    in an unauthorized application,
                                    which is prohibited.

                                    Please use an official Ultimate
                                    Guitar Tabs application for iPhone,
                                    iPad or Android to access legitimate
                                    chords, guitar, bass, and drum tabs
                                    from Ultimate-Guitar.com database.

                                    Type "ultimate guitar tabs" in Apple
                                    App Store's or Android Market's
                                    search to find the application.
Artist - Protest the Hero
Song - Led Astray
Album - A Calculated Use of Sound
Tabbed By - Alec MacDonald

Note the tuning...every string down half a step.

| |
|3| these numbers are time signatures
|4|
| |

|11111111| 32nd notes
|1-1-1-1-| 16-|th notes
|1--1---------| 8th notes
|1----| Quarter notes

____3______ triplets

x-x-x-x dead/muted notes

0h1 hammer on

12\ slide down


Gb| |--12--12-12-12--12--12-12-12-12-|--11--11-11-11--11--11-11-11-11-|
Db|3|--10--10-10-10--10--10-10-10-10-|--10--10-10-10--10--10-10-10-10-|
Ab|4|--10--10-10-10--10--10-10-10-10-|--9---9--9--9---9---9--9--9--9--|
Eb| |--------------------------------|--------------------------------|


--14--14-14-14--14--14-14-14-14-|--11--11-11-11--12--12-12-12--|
--10--10-10-10--10--10-10-10-10-|--10--10-10-10--10--10-10-10--|
--12--12-12-12--12--12-12-12-12-|--9---9--9--9---10--10-10-10--|
--------------------------------|------------------------------|


----------------------|----------------------|----------------------|
----------------------|----------------------|----------------------|
----------------------|----------------------|----------------------|
--0--0--0--0--x-x-x-x-|--0--0--0--0--x-x-x-x-|--0--0--0--0--x-x-x-x-|


----------------------|--12--12-12-12--12--12-12-12-12-|
----------------------|--10--10-10-10--10--10-10-10-10-|
----------------------|--10--10-10-10--10--10-10-10-10-|
--0--0--0--0--x-x-x-x-|--------------------------------|


--11--11-11-11--11--11-11-11-11-|--14--14-14-14--14--14-14-14-14-|
--10--10-10-10--10--10-10-10-10-|--10--10-10-10--10--10-10-10-10-|
--9---9--9--9---9---9--9--9--9--|--12--12-12-12--12--12-12-12-12-|
--------------------------------|--------------------------------|


--11--11-11-11--12--12-12-12--|----------------------|----------------------|
--10--10-10-10--10--10-10-10--|----------------------|----------------------|
--9---9--9--9---10--10-10-10--|----------------------|----------------------|
------------------------------|--0--0--0--0--x-x-x-x-|--0--0--0--0--x-x-x-x-|


----------------------|----------------------|--12--12-12-12--12--12-12-12-12-|
----------------------|----------------------|--10--10-10-10--10--10-10-10-10-|
----------------------|----------------------|--10--10-10-10--10--10-10-10-10-|
--0--0--0--0--x-x-x-x-|--0--0--0--0--x-x-x-x-|--------------------------------|


--11--11-11-11--11--11-11-11-11-|--14--14-14-14--14--14-14-14-14-|
--10--10-10-10--10--10-10-10-10-|--10--10-10-10--10--10-10-10-10-|
--9---9--9--9---9---9--9--9--9--|--12--12-12-12--12--12-12-12-12-|
--------------------------------|--------------------------------|


--11--11-11-11--12--12-12-12--|----------------------|----------------------|
--10--10-10-10--10--10-10-10--|----------------------|----------------------|
--9---9--9--9---10--10-10-10--|----------------------|----------------------|
------------------------------|--0--0--0--0--x-x-x-x-|--0--0--0--0--x-x-x-x-|


----------------------|----------------------|--12--12-12-12--12--12-12-12-12-|
----------------------|----------------------|--10--10-10-10--10--10-10-10-10-|
----------------------|----------------------|--10--10-10-10--10--10-10-10-10-|
--0--0--0--0--x-x-x-x-|--0--0--0--0--x-x-x-x-|--------------------------------|


--11--11-11-11--11--11-11-11-11-|--14--14-14-14--14--14-14-14-14-|
--10--10-10-10--10--10-10-10-10-|--10--10-10-10--10--10-10-10-10-|
--9---9--9--9---9---9--9--9--9--|--12--12-12-12--12--12-12-12-12-|
--------------------------------|--------------------------------|


--11--11-11-11--12--12-12-12--|----------------------|----------------------|
--10--10-10-10--10--10-10-10--|----------------------|----------------------|
--9---9--9--9---10--10-10-10--|----------------------|----------------------|
------------------------------|--0--0--0--0--x-x-x-x-|--0--0--0--0--x-x-x-x-|


----------------------|----------------------|------------------------|
----------------------|----------------------|------------------------|
----------------------|----------------------|--3--3-3-3-3-3--3-3-3-3-|
--0--0--0--0--x-x-x-x-|--0--0--0--0--x-x-x-x-|------------------------|


------------------------|------------------|----------------------|
------------------------|------------------|----------------------|
------------------------|------------------|----------------------|
--5--5-5-5-5-7--7-7-7-7-|--0--0--0--0------|--0--0--0--0--x-x-x-x-|


------------------------|------------------------| |----------| |---------------|
------------------------|------------------------|7 |----------|5|----rest------|
--3--3-3-3-3-3--3-3-3-3-|------------------------|16|----------|8|--------------|
------------------------|--5--5-5-5-5-7--7-7-7-7-| |--0-rest--| |---------------|


| |---------| |---------------| |------------------| |------------------------|
|7 |--rest---|5|---------------|7 |------------------|5|----------2~----------|
|16|---------|8|-rest----------|16|------------------|8|--0-2-3-5----5-3-2~---|
| |---------| |----------0h12\| |--0-00-0-0-00-0-0-| |------------------------|


| |------------------| |---------------------| |----------------------|
|7 |------------------|5|--3-2-0-----------3~-|7 |--------------------|
|16|------------------|8|--------3-2-0-2-3----|16|--------------------|
| |--0-00-0-0-00-0-0-| |---------------------| |--0-00-0-0-00-0-0-----|


|--------------------| |------------------| |-------------------------|
5|----------2~--------|7 |------------------|5|--3-2-0-----------3~---|
8|--0-2-3-5----5-3-2~-|16|------------------|8|--------3-2-0-2-3------|
|--------------------| |--0-00-0-0-00-0-0-| |-------------------------|

_______3______
| |
| |---------------------|---------------------| |-------------------10--10--10--|
|4|---------------------|---------------------|9|-------------------------------|
|4|--8-rest-8--8--rest--|--7-rest-7--7--rest--|8|--8-rest-8--8-rest-------------|
| |---------------------|---------------------| |-------------------------------|


| |-------------------|------------------------------------|
|4|-------------------|------------------------------------|
|4|-------------------|--3-3-3-3-3-3-3-3-3-3-3-3-3-3-3-3---|
| |--0----------------|------------------------------------|
Hold ------------------------------------------------------|

----------------------------------|--------------------------|
----------------------------------|--------------------------|
----------------------------------|--------------------------|
--5-5-5-5-5-5-5-5-7-7-7-7-7-7-7-7-|--0-0-0-0-rest0-0-0-0-rest|


--------------------------|----------------------------------|
--------------------------|----------------------------------|
--------------------------|--3-3-3-3-3-3-3-3-3-3-3-3-3-3-3-3-|
--0-0-0-0-rest0-0-0-0-rest|----------------------------------|


----------------------------------|------------------------------|
----------------------------------|------9------7------9------7--|
----------------------------------|------------------------------|
--5-5-5-5-5-5-5-5-7-7-7-7-7-7-7-7-|--0-0----0-0----0-0----0-0----|


------------------------------|----------------------|----------------------|
------9------7------9------7--|----------------------|----------------------|
------------------------------|----------------------|----------------------|
--0-0----0-0----0-0----0-0----|--0-0--0-0-rest-------|--0-0--0-0-rest-------|


----------------------|----------------------|----------------------|
----------------------|----------------------|----------------------|
----------------------|----------------------|----------------------|
--0-0--0-0-rest-------|--0-0--0-0-rest-------|--0-0--0-0-rest-------|


----------------------|--------------------------|------------------------|
----------------------|--------------------------|------------------------|
----------------------|--------------------------|------------------------|
--0-0--0-0-rest-------|--3-3--3-3-rest--3-3--3-3-|--5-5--5-5-rest---0-3---|


--------------------------|--------------------------|
--------------------------|--------------------------|
--------------------------|--------------------------|
--0-0--0-0-rest--0-0--0-0-|--0-0--0-0-rest--0-0--0-0-|


--------------------------|------------------------------|
--------------------------|--------------9-9-9-9-5-5-5-5-|
--------------------------|------------------------------|
--3-3--3-3-rest--3-3--3-3-|--5-5--5-5-rest---------------|


----------------------------------|----------------------------------|
----------------------------------|----------------------------------|
--3-3-3-3-3-3-3-3-3-3-3-3-3-3-3-3-|--5-5-5-5-5-5-5-5-5-5-5-5-5-5-5-5-|
----------------------------------|----------------------------------|


----------------------------------|----------------------------------|
----------------------------------|--2-2-2-2-2-2-2-2-0-0-0-0-0-0-0-0-|
--2-2-2-2-2-2-2-2-2-2-2-2-2-2-2-2-|----------------------------------|
----------------------------------|----------------------------------|


----------------------------------|----------------------------------|
----------------------------------|----------------------------------|
--3-3-3-3-3-3-3-3-3-3-3-3-3-3-3-3-|--5-5-5-5-5-5-5-5-5-5-5-5-5-5-5-5-|
----------------------------------|----------------------------------|


----------------------------------|----------------------------------|
----------------------------------|--2-2-2-2-2-2-2-2-0-0-0-0-0-0-0-0-|
--2-2-2-2-2-2-2-2-2-2-2-2-2-2-2-2-|----------------------------------|
----------------------------------|----------------------------------|


----------------------------------|----------------------------------|
----------------------------------|----------------------------------|
--3-3-3-3-3-3-3-3-3-3-3-3-3-3-3-3-|--5-5-5-5-5-5-5-5-5-5-5-5-5-5-5-5-|
----------------------------------|----------------------------------|


----------------------|----------------------|----------------------|
----------------------|----------------------|----------------------|
----------------------|----------------------|----------------------|
--0-0-0-0-rest--------|--0-0-0-0-rest--------|--0-0-0-0-rest--------|


----------------------|----------------------|------------------------|
----------------------|----------------------|------------------------|
----------------------|----------------------|------------------------|
--0-0-0-0-rest--------|--0-0-0-0-rest--------|--0-0-0-0-rest----5--3--|


----------------------|------------------------|
----------------------|------------------------|
----------------------|------------------------|
--0-0-0-0-rest--------|--0-0-0-0-rest----5--3--|


| |--12--12-12-12--12--12-12-12-12-|--11--11-11-11--11--11-11-11-11-|
|3|--10--10-10-10--10--10-10-10-10-|--10--10-10-10--10--10-10-10-10-|
|4|--10--10-10-10--10--10-10-10-10-|--9---9--9--9---9---9--9--9--9--|
| |--------------------------------|--------------------------------|


--14--14-14-14--14--14-14-14-14-|--11--11-11-11--12--12-12-12--|
--10--10-10-10--10--10-10-10-10-|--10--10-10-10--10--10-10-10--|
--12--12-12-12--12--12-12-12-12-|--9---9--9--9---10--10-10-10--|
--------------------------------|------------------------------|


--16--16-16-16--14--14-14-14--|--17--17-17-17--16--16-16-16--|
--14--14-14-14--14--14-14-14--|--14--14-14-14--14--14-14-14--|
--14--14-14-14--12--12-12-12--|--15--15-15-15--14--14-14-14--|
--0---0--0--0---0---0--0--0---|--0---0--0--0---0---0--0--0---|


--14--14-14-14--16--16-16-16--|--14--14-14-14--16--16-16-16-16-|
--14--14-14-14--14--14-14-14--|--14--14-14-14--14--14-14-14-14-|
--12--12-12-12--14--14-14-14--|--12--12-12-12--14--14-14-14-14-|
--0---0--0--0---0---0--0--0---|--0---0--0--0---0---0--0--0--0--|


--12--12-12-12--12--12-12-12-12-|--11--11-11-11--11--11-11-11-11-|
--10--10-10-10--10--10-10-10-10-|--10--10-10-10--10--10-10-10-10-|
--10--10-10-10--10--10-10-10-10-|--9---9--9--9---9---9--9--9--9--|
--------------------------------|--------------------------------|


--14--14-14-14--14--14-14-14-14-|--11--11-11-11--12--12-12-12--|
--10--10-10-10--10--10-10-10-10-|--10--10-10-10--10--10-10-10--|
--12--12-12-12--12--12-12-12-12-|--9---9--9--9---10--10-10-10--|
--------------------------------|------------------------------|


--16--16-16-16--14--14-14-14--|--17--17-17-17--16--16-16-16--|
--14--14-14-14--14--14-14-14--|--14--14-14-14--14--14-14-14--|
--14--14-14-14--12--12-12-12--|--15--15-15-15--14--14-14-14--|
--0---0--0--0---0---0--0--0---|--0---0--0--0---0---0--0--0---|


--14--14-14-14--16--16-16-16--|--14--14-14-14--16--16-16-16-16-|
--14--14-14-14--14--14-14-14--|--14--14-14-14--14--14-14-14-14-|
--12--12-12-12--14--14-14-14--|--12--12-12-12--14--14-14-14-14-|
--0---0--0--0---0---0--0--0---|--0---0--0--0---0---0--0--0--0--|


--12--12-12-12--12--12-12-12-12-|--11--11-11-11--11--11-11-11-11-|
--10--10-10-10--10--10-10-10-10-|--10--10-10-10--10--10-10-10-10-|
--10--10-10-10--10--10-10-10-10-|--9---9--9--9---9---9--9--9--9--|
--------------------------------|--------------------------------|


--14--14-14-14--14--14-14-14-14-|--11--11-11-11--12--12-12-12--|
--10--10-10-10--10--10-10-10-10-|--10--10-10-10--10--10-10-10--|
--12--12-12-12--12--12-12-12-12-|--9---9--9--9---10--10-10-10--|
--------------------------------|------------------------------|


--16--16-16-16--14--14-14-14--|--17--17-17-17--16--16-16-16--|
--14--14-14-14--14--14-14-14--|--14--14-14-14--14--14-14-14--|
--14--14-14-14--12--12-12-12--|--15--15-15-15--14--14-14-14--|
--0---0--0--0---0---0--0--0---|--0---0--0--0---0---0--0--0---|


--14--14-14-14--16--16-16-16--|--14--14-14-14--16--16-16-16-16-|
--14--14-14-14--14--14-14-14--|--14--14-14-14--14--14-14-14-14-|
--12--12-12-12--14--14-14-14--|--12--12-12-12--14--14-14-14-14-|
--0---0--0--0---0---0--0--0---|--0---0--0--0---0---0--0--0--0--|


|----------------------------------|-------------------------------------|
4|----------------------------------|------------------------------------|
4|--3-3-3-3-3-3-3-3-3-3-3-3-3-3-3-3-|------------------------------------|
|----------------------------------|--5-5-5-5-5-5-5-5-7-7-7-7-7-7-7-7----|


---------------------------------|---------------------------------|
---------------------------------|---------------------------------|
---------------------------------|---------------------------------|
--0rest0rest0rest0rest0--0--0rest|--0rest0rest0rest0rest0--0--0rest|

All triplets^^^^^^^^^^^^^^^^^^^^^^^^^^^^^^^^^^^^^^^^^^^^^^^^^^^^^^^

----------------------------------|----------------------------------|
----------------------------------|----------------------------------|
--3-3-3-3-3-3-3-3-3-3-3-3-3-3-3-3-|----------------------------------|
----------------------------------|--5-5-5-5-5-5-5-5-7-7-7-7-7-7-7-7-|


--------------------------|----------------------|
--------------------------|----------------------|
--------------------------|----------------------|
--0-0--0-0-0-0-0-0--rest--|--0-0--0-0-rest-------|


----------------------------------|----------------------------------|
----------------------------------|----------------------------------|
--3-3-3-3-3-3-3-3-3-3-3-3-3-3-3-3-|--5-5-5-5-5-5-5-5-5-5-5-5-5-5-5-5-|
----------------------------------|----------------------------------|


----------------------------------|----------------------------------|
----------------------------------|--2-2-2-2-2-2-2-2-0-0-0-0-0-0-0-0-|
--2-2-2-2-2-2-2-2-2-2-2-2-2-2-2-2-|----------------------------------|
----------------------------------|----------------------------------|


----------------------------------|-------------------|
----------------------------------|-------------------|
--3-3-3-3-3-3-3-3-3-3-3-3-3-3-3-3-|--5-rest-----------|
----------------------------------|-------------------|


----------------------------------|----------------------------------|
----------------------------------|--2-2-2-2-2-2-2-2-0-0-0-0-0-0-0-0-|
--2-2-2-2-2-2-2-2-2-2-2-2-2-2-2-2-|----------------------------------|
----------------------------------|----------------------------------|


| |-----4--------4--------4--|-----4--------4--------4-----|
|15|--------5--------5--------|--------5--------5----------|
|16|--3-------3-3-------3-----|--5-------5-5-------5-------|
| |--------------------------|-----------------------------|
Hold every note--------------------------------------------|

| |------------------------------|--------------------------------|
|4|--------9-7-----10---------9--|---------10---------9\----------|
|4|--7--7------7-------12--------|--12---------12--------12\------|
| |--0--0--------0---------0-----|------0----------0---------0----|
Hold every note---------------------------------------------------|

| |-----4--------4--------4--|-----4--------4--------4-----|
|15|--------5--------5--------|--------5--------5----------|
|16|--3-------3-3-------3-----|--5-------5-5-------5-------|
| |--------------------------|-----------------------------|
Hold every note--------------------------------------------|

| |------------------------------|--------------------------------|
|4|--------9-7-----10---------9--|---------10---------9\----------|
|4|--7--7------7-------12--------|--12---------12--------12\------|
| |--0--0--------0---------0-----|------0----------0---------0----|
Hold every note---------------------------------------------------|

| |-----4--------4--------4--|-----4--------4--------4-----|
|15|--------5--------5--------|--------5--------5----------|
|16|--3-------3-3-------3-----|--5-------5-5-------5-------|
| |--------------------------|-----------------------------|
Hold every note--------------------------------------------|

| |--------------------------|--------------------------|
|4|--------------------------|--------------------------|
|4|--------------------------|--------------------------|
| |--0--0--0--0--0--0--0--0--|--0--0--0--0--0--0--0--0--|


| |-------------------------|-------------------------| |-------------------------|
|7|-------------------------|-------------------------|4|-------------------------|
|8|--3--3--3----3-xx-x--x-x-|--5--5--5----5-xx-x--x-x-|4|--2--2--2----2--2--2--2--|
| |-------------------------|-------------------------| |-------------------------|


----------------------------------|----------------------------------|
--2-2-2-2-2-2-2-2-0-0-0-0-0-0-0-0-|----------------------------------|
----------------------------------|--3-3-3-3-3-3-3-3-3-3-3-3-3-3-3-3-|
----------------------------------|----------------------------------|


-----------------------|----------------------------------|
-----------------------|----------------------------------|
--5rest5rest5rest5--5--|--2-2-2-2-2-2-2-2-2-2-2-2-2-2-2-2-|
-----------------------|----------------------------------|


----------------------------------|----------------------------------|
--2-2-2-2-2-2-2-2-0-0-0-0-0-0-0-0-|----------------------------------|
----------------------------------|--3-3-3-3-3-3-3-3-3-3-3-3-3-3-3-3-|
----------------------------------|----------------------------------|


----------------------------|--------------------|
----------------------------|--------------------|
--5555--5555--5555--5555----|--------------------|
----------------------------|--0--rest--0--rest--|


--------------------||
--------------------||
--------------------||
--0--rest--0--cutoff||
comments
We did not receive enough feedback on this tab! Please rate:
print report bad tab
1 2 3 4 5
I want to post or [tab]
guest
You may want to rate the tab now too:
select rating
Please do not post tabs as comments. Select "correction" instead!